  0
SECTION
  2
HEADER
  9
$ACADVER
  1
AC1021
  9
$ACADMAINTVER
 70
    25
  9
$DWGCODEPAGE
  3
ANSI_936
  9
$INSBASE
 10
0.0
 20
0.0
 30
0.0
  9
$EXTMIN
 10
164.29348
 20
-30.4929
 30
0.0
  9
$EXTMAX
 10
202.29933
 20
3.8682
 30
0.0
  9
$LIMMIN
 10
0.0
 20
0.0
  9
$LIMMAX
 10
12.0
 20
9.0
  9
$ORTHOMODE
 70
     0
  9
$REGENMODE
 70
     1
  9
$FILLMODE
 70
     1
  9
$QTEXTMODE
 70
     0
  9
$MIRRTEXT
 70
     1
  9
$LTSCALE
 40
1.0
  9
$ATTMODE
 70
     1
  9
$TEXTSIZE
 40
0.2
  9
$TRACEWID
 40
0.05
  9
$TEXTSTYLE
  7
Standard
  9
$CLAYER
  8
0
  9
$CELTYPE
  6
ByLayer
  9
$CECOLOR
 62
   256
  9
$CELTSCALE
 40
1.0
  9
$DISPSILH
 70
     0
  9
$DIMSCALE
 40
1.0
  9
$DIMASZ
 40
0.18
  9
$DIMEXO
 40
0.0625
  9
$DIMDLI
 40
0.38
  9
$DIMRND
 40
0.0
  9
$DIMDLE
 40
0.0
  9
$DIMEXE
 40
0.18
  9
$DIMTP
 40
0.0
  9
$DIMTM
 40
0.0
  9
$DIMTXT
 40
0.18
  9
$DIMCEN
 40
0.09
  9
$DIMTSZ
 40
0.0
  9
$DIMTOL
 70
     0
  9
$DIMLIM
 70
     0
  9
$DIMTIH
 70
     1
  9
$DIMTOH
 70
     1
  9
$DIMSE1
 70
     0
  9
$DIMSE2
 70
     0
  9
$DIMTAD
 70
     0
  9
$DIMZIN
 70
     0
  9
$DIMBLK
  1

  9
$DIMASO
 70
     1
  9
$DIMSHO
 70
     1
  9
$DIMPOST
  1

  9
$DIMAPOST
  1

  9
$DIMALT
 70
     0
  9
$DIMALTD
 70
     2
  9
$DIMALTF
 40
25.4
  9
$DIMLFAC
 40
1.0
  9
$DIMTOFL
 70
     0
  9
$DIMTVP
 40
0.0
  9
$DIMTIX
 70
     0
  9
$DIMSOXD
 70
     0
  9
$DIMSAH
 70
     0
  9
$DIMBLK1
  1

  9
$DIMBLK2
  1

  9
$DIMSTYLE
  2
Standard
  9
$DIMCLRD
 70
     0
  9
$DIMCLRE
 70
     0
  9
$DIMCLRT
 70
     0
  9
$DIMTFAC
 40
1.0
  9
$DIMGAP
 40
0.09
  9
$DIMJUST
 70
     0
  9
$DIMSD1
 70
     0
  9
$DIMSD2
 70
     0
  9
$DIMTOLJ
 70
     1
  9
$DIMTZIN
 70
     0
  9
$DIMALTZ
 70
     0
  9
$DIMALTTZ
 70
     0
  9
$DIMUPT
 70
     0
  9
$DIMDEC
 70
     4
  9
$DIMTDEC
 70
     4
  9
$DIMALTU
 70
     2
  9
$DIMALTTD
 70
     2
  9
$DIMTXSTY
  7
Standard
  9
$DIMAUNIT
 70
     0
  9
$DIMADEC
 70
     0
  9
$DIMALTRND
 40
0.0
  9
$DIMAZIN
 70
     0
  9
$DIMDSEP
 70
    46
  9
$DIMATFIT
 70
     3
  9
$DIMFRAC
 70
     0
  9
$DIMLDRBLK
  1

  9
$DIMLUNIT
 70
     2
  9
$DIMLWD
 70
    -2
  9
$DIMLWE
 70
    -2
  9
$DIMTMOVE
 70
     0
  9
$DIMFXL
 40
1.0
  9
$DIMFXLON
 70
     0
  9
$DIMJOGANG
 40
0.7853981633974483
  9
$DIMTFILL
 70
     0
  9
$DIMTFILLCLR
 70
     0
  9
$DIMARCSYM
 70
     0
  9
$DIMLTYPE
  6

  9
$DIMLTEX1
  6

  9
$DIMLTEX2
  6

  9
$LUNITS
 70
     2
  9
$LUPREC
 70
     4
  9
$SKETCHINC
 40
0.1
  9
$FILLETRAD
 40
0.5
  9
$AUNITS
 70
     0
  9
$AUPREC
 70
     0
  9
$MENU
  1
.
  9
$ELEVATION
 40
0.0
  9
$PELEVATION
 40
0.0
  9
$THICKNESS
 40
0.0
  9
$LIMCHECK
 70
     0
  9
$CHAMFERA
 40
0.5
  9
$CHAMFERB
 40
0.5
  9
$CHAMFERC
 40
1.0
  9
$CHAMFERD
 40
0.0
  9
$SKPOLY
 70
     0
  9
$TDCREATE
 40
2458976.460022732
  9
$TDUCREATE
 40
2458976.126689398
  9
$TDUPDATE
 40
2458976.460022743
  9
$TDUUPDATE
 40
2458976.12668941
  9
$TDINDWG
 40
0.0000000116
  9
$TDUSRTIMER
 40
0.0000000116
  9
$USRTIMER
 70
     1
  9
$ANGBASE
 50
0.0
  9
$ANGDIR
 70
     0
  9
$PDMODE
 70
     0
  9
$PDSIZE
 40
0.0
  9
$PLINEWID
 40
0.0
  9
$SPLFRAME
 70
     0
  9
$SPLINETYPE
 70
     6
  9
$SPLINESEGS
 70
     8
  9
$HANDSEED
  5
8D
  9
$SURFTAB1
 70
     6
  9
$SURFTAB2
 70
     6
  9
$SURFTYPE
 70
     6
  9
$SURFU
 70
     6
  9
$SURFV
 70
     6
  9
$UCSBASE
  2

  9
$UCSNAME
  2

  9
$UCSORG
 10
0.0
 20
0.0
 30
0.0
  9
$UCSXDIR
 10
1.0
 20
0.0
 30
0.0
  9
$UCSYDIR
 10
0.0
 20
1.0
 30
0.0
  9
$UCSORTHOREF
  2

  9
$UCSORTHOVIEW
 70
     0
  9
$UCSORGTOP
 10
0.0
 20
0.0
 30
0.0
  9
$UCSORGBOTTOM
 10
0.0
 20
0.0
 30
0.0
  9
$UCSORGLEFT
 10
0.0
 20
0.0
 30
0.0
  9
$UCSORGRIGHT
 10
0.0
 20
0.0
 30
0.0
  9
$UCSORGFRONT
 10
0.0
 20
0.0
 30
0.0
  9
$UCSORGBACK
 10
0.0
 20
0.0
 30
0.0
  9
$PUCSBASE
  2

  9
$PUCSNAME
  2

  9
$PUCSORG
 10
0.0
 20
0.0
 30
0.0
  9
$PUCSXDIR
 10
1.0
 20
0.0
 30
0.0
  9
$PUCSYDIR
 10
0.0
 20
1.0
 30
0.0
  9
$PUCSORTHOREF
  2

  9
$PUCSORTHOVIEW
 70
     0
  9
$PUCSORGTOP
 10
0.0
 20
0.0
 30
0.0
  9
$PUCSORGBOTTOM
 10
0.0
 20
0.0
 30
0.0
  9
$PUCSORGLEFT
 10
0.0
 20
0.0
 30
0.0
  9
$PUCSORGRIGHT
 10
0.0
 20
0.0
 30
0.0
  9
$PUCSORGFRONT
 10
0.0
 20
0.0
 30
0.0
  9
$PUCSORGBACK
 10
0.0
 20
0.0
 30
0.0
  9
$USERI1
 70
     0
  9
$USERI2
 70
     0
  9
$USERI3
 70
     0
  9
$USERI4
 70
     0
  9
$USERI5
 70
     0
  9
$USERR1
 40
0.0
  9
$USERR2
 40
0.0
  9
$USERR3
 40
0.0
  9
$USERR4
 40
0.0
  9
$USERR5
 40
0.0
  9
$WORLDVIEW
 70
     1
  9
$SHADEDGE
 70
     3
  9
$SHADEDIF
 70
    70
  9
$TILEMODE
 70
     1
  9
$MAXACTVP
 70
    64
  9
$PINSBASE
 10
0.0
 20
0.0
 30
0.0
  9
$PLIMCHECK
 70
     0
  9
$PEXTMIN
 10
1.000000000000000E+20
 20
1.000000000000000E+20
 30
1.000000000000000E+20
  9
$PEXTMAX
 10
-1.000000000000000E+20
 20
-1.000000000000000E+20
 30
-1.000000000000000E+20
  9
$PLIMMIN
 10
0.0
 20
0.0
  9
$PLIMMAX
 10
12.0
 20
9.0
  9
$UNITMODE
 70
     0
  9
$VISRETAIN
 70
     1
  9
$PLINEGEN
 70
     0
  9
$PSLTSCALE
 70
     1
  9
$TREEDEPTH
 70
  3020
  9
$CMLSTYLE
  2
Standard
  9
$CMLJUST
 70
     0
  9
$CMLSCALE
 40
1.0
  9
$PROXYGRAPHICS
 70
     1
  9
$MEASUREMENT
 70
     0
  9
$CELWEIGHT
370
    -1
  9
$ENDCAPS
280
     0
  9
$JOINSTYLE
280
     0
  9
$LWDISPLAY
290
     0
  9
$INSUNITS
 70
     5
  9
$HYPERLINKBASE
  1

  9
$STYLESHEET
  1

  9
$XEDIT
290
     1
  9
$CEPSNTYPE
380
     0
  9
$PSTYLEMODE
290
     1
  9
$FINGERPRINTGUID
  2
{AAC1C470-9059-4191-993B-F3F2E6F6E655}
  9
$VERSIONGUID
  2
{FAEB1C32-E019-11D5-929B-00C0DF256EC4}
  9
$EXTNAMES
290
     1
  9
$PSVPSCALE
 40
0.0
  9
$OLESTARTUP
290
     0
  9
$SORTENTS
280
   127
  9
$INDEXCTL
280
     0
  9
$HIDETEXT
280
     1
  9
$XCLIPFRAME
290
     0
  9
$HALOGAP
280
     0
  9
$OBSCOLOR
 70
   257
  9
$OBSLTYPE
280
     0
  9
$INTERSECTIONDISPLAY
280
     0
  9
$INTERSECTIONCOLOR
 70
   257
  9
$DIMASSOC
280
     2
  9
$PROJECTNAME
  1

  9
$CAMERADISPLAY
290
     0
  9
$LENSLENGTH
 40
50.0
  9
$CAMERAHEIGHT
 40
0.0
  9
$STEPSPERSEC
 40
2.0
  9
$STEPSIZE
 40
6.0
  9
$3DDWFPREC
 40
2.0
  9
$PSOLWIDTH
 40
0.25
  9
$PSOLHEIGHT
 40
4.0
  9
$LOFTANG1
 40
1.570796326794897
  9
$LOFTANG2
 40
1.570796326794897
  9
$LOFTMAG1
 40
0.0
  9
$LOFTMAG2
 40
0.0
  9
$LOFTPARAM
 70
     7
  9
$LOFTNORMALS
280
     1
  9
$LATITUDE
 40
37.795
  9
$LONGITUDE
 40
-122.394
  9
$NORTHDIRECTION
 40
0.0
  9
$TIMEZONE
 70
 -8000
  9
$LIGHTGLYPHDISPLAY
280
     1
  9
$TILEMODELIGHTSYNCH
280
     1
  9
$SOLIDHIST
280
     1
  9
$SHOWHIST
280
     1
  9
$DWFFRAME
280
     2
  9
$DGNFRAME
280
     2
  9
$REALWORLDSCALE
290
     1
  9
$INTERFERECOLOR
 62
   256
  9
$CSHADOW
280
     0
  9
$SHADOWPLANELOCATION
 40
0.0
  0
ENDSEC
  0
SECTION
  2
CLASSES
  0
CLASS
  1
ACDBDICTIONARYWDFLT
  2
AcDbDictionaryWithDefault
  3
ObjectDBX Classes
 90
        0
 91
        3
280
     0
281
     0
  0
CLASS
  1
VISUALSTYLE
  2
AcDbVisualStyle
  3
ObjectDBX Classes
 90
     4095
 91
        3
280
     0
281
     0
  0
CLASS
  1
SCALE
  2
AcDbScale
  3
ObjectDBX Classes
 90
     1153
 91
        3
280
     0
281
     0
  0
ENDSEC
  0
SECTION
  2
TABLES
  0
TABLE
  2
VPORT
  5
8
330
0
100
AcDbSymbolTable
 70
     1
  0
VPORT
  5
29
330
8
100
AcDbSymbolTableRecord
100
AcDbViewportTableRecord
  2
*Active
 70
     0
 10
0.0
 20
0.0
 11
1.0
 21
1.0
 12
10.42990654205607
 22
4.5
 13
0.0
 23
0.0
 14
0.5
 24
0.5
 15
0.5
 25
0.5
 16
0.0
 26
0.0
 36
1.0
 17
0.0
 27
0.0
 37
0.0
 40
9.0
 41
1.972972972850329
 42
50.0
 43
0.0
 44
0.0
 50
0.0
 51
0.0
 71
     0
 72
   100
 73
     1
 74
     3
 75
     0
 76
     0
 77
     0
 78
     0
281
     0
 65
     1
110
0.0
120
0.0
130
0.0
111
1.0
121
0.0
131
0.0
112
0.0
122
1.0
132
0.0
 79
     0
146
0.0
 60
     3
 61
     5
292
     1
282
     1
141
0.0
142
0.0
 63
   256
  0
ENDTAB
  0
TABLE
  2
LTYPE
  5
5
330
0
100
AcDbSymbolTable
 70
     1
  0
LTYPE
  5
14
330
5
100
AcDbSymbolTableRecord
100
AcDbLinetypeTableRecord
  2
ByBlock
 70
     0
  3

 72
    65
 73
     0
 40
0.0
  0
LTYPE
  5
15
330
5
100
AcDbSymbolTableRecord
100
AcDbLinetypeTableRecord
  2
ByLayer
 70
     0
  3

 72
    65
 73
     0
 40
0.0
  0
LTYPE
  5
16
330
5
100
AcDbSymbolTableRecord
100
AcDbLinetypeTableRecord
  2
Continuous
 70
     0
  3
Solid line
 72
    65
 73
     0
 40
0.0
  0
ENDTAB
  0
TABLE
  2
LAYER
  5
2
330
0
100
AcDbSymbolTable
 70
     2
  0
LAYER
  5
10
330
2
100
AcDbSymbolTableRecord
100
AcDbLayerTableRecord
  2
0
 70
     0
 62
     7
  6
Continuous
370
    -3
390
F
347
0
  0
LAYER
  5
5E
330
2
100
AcDbSymbolTableRecord
100
AcDbLayerTableRecord
  2
layer 1
 70
     0
 62
     7
  6
Continuous
370
    -3
390
F
347
0
  0
ENDTAB
  0
TABLE
  2
STYLE
  5
3
330
0
100
AcDbSymbolTable
 70
     1
  0
STYLE
  5
11
330
3
100
AcDbSymbolTableRecord
100
AcDbTextStyleTableRecord
  2
Standard
 70
     0
 40
0.0
 41
1.0
 50
0.0
 71
     0
 42
0.2
  3
txt
  4

  0
ENDTAB
  0
TABLE
  2
VIEW
  5
6
330
0
100
AcDbSymbolTable
 70
     0
  0
ENDTAB
  0
TABLE
  2
UCS
  5
7
330
0
100
AcDbSymbolTable
 70
     0
  0
ENDTAB
  0
TABLE
  2
APPID
  5
9
330
0
100
AcDbSymbolTable
 70
     2
  0
APPID
  5
12
330
9
100
AcDbSymbolTableRecord
100
AcDbRegAppTableRecord
  2
ACAD
 70
     0
  0
APPID
  5
5D
330
9
100
AcDbSymbolTableRecord
100
AcDbRegAppTableRecord
  2
ODA
 70
     0
  0
ENDTAB
  0
TABLE
  2
DIMSTYLE
  5
A
330
0
100
AcDbSymbolTable
 70
     1
100
AcDbDimStyleTable
  0
DIMSTYLE
105
27
330
A
100
AcDbSymbolTableRecord
100
AcDbDimStyleTableRecord
  2
Standard
 70
     0
340
11
  0
ENDTAB
  0
TABLE
  2
BLOCK_RECORD
  5
1
330
0
100
AcDbSymbolTable
 70
     1
  0
BLOCK_RECORD
  5
1F
330
1
100
AcDbSymbolTableRecord
100
AcDbBlockTableRecord
  2
*Model_Space
340
22
 70
     0
280
     1
281
     0
  0
BLOCK_RECORD
  5
1B
330
1
100
AcDbSymbolTableRecord
100
AcDbBlockTableRecord
  2
*Paper_Space
340
1E
 70
     0
280
     1
281
     0
  0
BLOCK_RECORD
  5
23
330
1
100
AcDbSymbolTableRecord
100
AcDbBlockTableRecord
  2
*Paper_Space0
340
26
 70
     0
280
     1
281
     0
  0
ENDTAB
  0
ENDSEC
  0
SECTION
  2
BLOCKS
  0
BLOCK
  5
20
330
1F
100
AcDbEntity
  8
0
100
AcDbBlockBegin
  2
*Model_Space
 70
     0
 10
0.0
 20
0.0
 30
0.0
  3
*Model_Space
  1

  0
ENDBLK
  5
21
330
1F
100
AcDbEntity
  8
0
100
AcDbBlockEnd
  0
BLOCK
  5
1C
330
1B
100
AcDbEntity
 67
     1
  8
0
100
AcDbBlockBegin
  2
*Paper_Space
 70
     0
 10
0.0
 20
0.0
 30
0.0
  3
*Paper_Space
  1

  0
ENDBLK
  5
1D
330
1B
100
AcDbEntity
 67
     1
  8
0
100
AcDbBlockEnd
  0
BLOCK
  5
24
330
23
100
AcDbEntity
  8
0
100
AcDbBlockBegin
  2
*Paper_Space0
 70
     0
 10
0.0
 20
0.0
 30
0.0
  3
*Paper_Space0
  1

  0
ENDBLK
  5
25
330
23
100
AcDbEntity
  8
0
100
AcDbBlockEnd
  0
ENDSEC
  0
SECTION
  2
ENTITIES
  0
SPLINE
  5
5F
330
1F
100
AcDbEntity
  8
layer 1
 62
   250
370
    20
100
AcDbSpline
210
0.0
220
0.0
230
1.0
 70
    11
 71
     3
 72
    36
 73
    32
 74
     0
 42
0.0000000001
 43
0.0000000001
 40
0.0
 40
0.0
 40
0.0
 40
0.0
 40
0.125
 40
0.125
 40
0.125
 40
0.125
 40
0.25
 40
0.25
 40
0.25
 40
0.25
 40
0.375
 40
0.375
 40
0.375
 40
0.375
 40
0.5
 40
0.5
 40
0.5
 40
0.5
 40
0.625
 40
0.625
 40
0.625
 40
0.625
 40
0.75
 40
0.75
 40
0.75
 40
0.75
 40
0.875
 40
0.875
 40
0.875
 40
0.875
 40
1.0
 40
1.0
 40
1.0
 40
1.0
 10
164.77874
 20
3.8582
 30
0.0
 10
164.77874
 20
3.8582
 30
0.0
 10
200.32822
 20
3.8582
 30
0.0
 10
200.32822
 20
3.8582
 30
0.0
 10
200.32822
 20
3.8582
 30
0.0
 10
200.58961
 20
3.8582
 30
0.0
 10
200.80348
 20
3.6456
 30
0.0
 10
200.80348
 20
3.38576
 30
0.0
 10
200.80348
 20
3.38576
 30
0.0
 10
200.80348
 20
3.38576
 30
0.0
 10
200.80348
 20
-19.66936
 30
0.0
 10
200.80348
 20
-19.66936
 30
0.0
 10
200.80348
 20
-19.66936
 30
0.0
 10
200.80348
 20
-19.9292
 30
0.0
 10
200.58961
 20
-20.1418
 30
0.0
 10
200.32822
 20
-20.1418
 30
0.0
 10
200.32822
 20
-20.1418
 30
0.0
 10
200.32822
 20
-20.1418
 30
0.0
 10
164.77874
 20
-20.1418
 30
0.0
 10
164.77874
 20
-20.1418
 30
0.0
 10
164.77874
 20
-20.1418
 30
0.0
 10
164.51735
 20
-20.1418
 30
0.0
 10
164.30348
 20
-19.9292
 30
0.0
 10
164.30348
 20
-19.66936
 30
0.0
 10
164.30348
 20
-19.66936
 30
0.0
 10
164.30348
 20
-19.66936
 30
0.0
 10
164.30348
 20
3.38576
 30
0.0
 10
164.30348
 20
3.38576
 30
0.0
 10
164.30348
 20
3.38576
 30
0.0
 10
164.30348
 20
3.6456
 30
0.0
 10
164.51735
 20
3.8582
 30
0.0
 10
164.77874
 20
3.8582
 30
0.0
  0
SPLINE
  5
60
330
1F
100
AcDbEntity
  8
layer 1
 62
   250
100
AcDbSpline
210
0.0
220
0.0
230
1.0
 70
    11
 71
     3
 72
   136
 73
   132
 74
     0
 42
0.0000000001
 43
0.0000000001
 40
0.0
 40
0.0
 40
0.0
 40
0.0
 40
0.0303030303030303
 40
0.0303030303030303
 40
0.0303030303030303
 40
0.0303030303030303
 40
0.0606060606060606
 40
0.0606060606060606
 40
0.0606060606060606
 40
0.0606060606060606
 40
0.0909090909090909
 40
0.0909090909090909
 40
0.0909090909090909
 40
0.0909090909090909
 40
0.1212121212121212
 40
0.1212121212121212
 40
0.1212121212121212
 40
0.1212121212121212
 40
0.1515151515151515
 40
0.1515151515151515
 40
0.1515151515151515
 40
0.1515151515151515
 40
0.1818181818181818
 40
0.1818181818181818
 40
0.1818181818181818
 40
0.1818181818181818
 40
0.2121212121212121
 40
0.2121212121212121
 40
0.2121212121212121
 40
0.2121212121212121
 40
0.2424242424242424
 40
0.2424242424242424
 40
0.2424242424242424
 40
0.2424242424242424
 40
0.2727272727272727
 40
0.2727272727272727
 40
0.2727272727272727
 40
0.2727272727272727
 40
0.303030303030303
 40
0.303030303030303
 40
0.303030303030303
 40
0.303030303030303
 40
0.3333333333333333
 40
0.3333333333333333
 40
0.3333333333333333
 40
0.3333333333333333
 40
0.3636363636363635
 40
0.3636363636363635
 40
0.3636363636363635
 40
0.3636363636363635
 40
0.3939393939393938
 40
0.3939393939393938
 40
0.3939393939393938
 40
0.3939393939393938
 40
0.4242424242424241
 40
0.4242424242424241
 40
0.4242424242424241
 40
0.4242424242424241
 40
0.4545454545454544
 40
0.4545454545454544
 40
0.4545454545454544
 40
0.4545454545454544
 40
0.4848484848484846
 40
0.4848484848484846
 40
0.4848484848484846
 40
0.4848484848484846
 40
0.5151515151515149
 40
0.5151515151515149
 40
0.5151515151515149
 40
0.5151515151515149
 40
0.5454545454545452
 40
0.5454545454545452
 40
0.5454545454545452
 40
0.5454545454545452
 40
0.5757575757575755
 40
0.5757575757575755
 40
0.5757575757575755
 40
0.5757575757575755
 40
0.6060606060606057
 40
0.6060606060606057
 40
0.6060606060606057
 40
0.6060606060606057
 40
0.636363636363636
 40
0.636363636363636
 40
0.636363636363636
 40
0.636363636363636
 40
0.6666666666666663
 40
0.6666666666666663
 40
0.6666666666666663
 40
0.6666666666666663
 40
0.6969696969696966
 40
0.6969696969696966
 40
0.6969696969696966
 40
0.6969696969696966
 40
0.7272727272727268
 40
0.7272727272727268
 40
0.7272727272727268
 40
0.7272727272727268
 40
0.7575757575757571
 40
0.7575757575757571
 40
0.7575757575757571
 40
0.7575757575757571
 40
0.7878787878787874
 40
0.7878787878787874
 40
0.7878787878787874
 40
0.7878787878787874
 40
0.8181818181818177
 40
0.8181818181818177
 40
0.8181818181818177
 40
0.8181818181818177
 40
0.848484848484848
 40
0.848484848484848
 40
0.848484848484848
 40
0.848484848484848
 40
0.8787878787878782
 40
0.8787878787878782
 40
0.8787878787878782
 40
0.8787878787878782
 40
0.9090909090909085
 40
0.9090909090909085
 40
0.9090909090909085
 40
0.9090909090909085
 40
0.9393939393939388
 40
0.9393939393939388
 40
0.9393939393939388
 40
0.9393939393939388
 40
0.9696969696969691
 40
0.9696969696969691
 40
0.9696969696969691
 40
0.9696969696969691
 40
1.0
 40
1.0
 40
1.0
 40
1.0
 10
165.30073
 20
-29.81982
 30
0.0
 10
165.30073
 20
-29.81982
 30
0.0
 10
165.64085
 20
-29.76629
 30
0.0
 10
165.64085
 20
-29.76629
 30
0.0
 10
165.64085
 20
-29.76629
 30
0.0
 10
165.65979
 20
-29.90273
 30
0.0
 10
165.71332
 20
-30.00719
 30
0.0
 10
165.8008
 20
-30.08031
 30
0.0
 10
165.8008
 20
-30.08031
 30
0.0
 10
165.88763
 20
-30.15277
 30
0.0
 10
166.00971
 20
-30.18933
 30
0.0
 10
166.16704
 20
-30.18933
 30
0.0
 10
166.16704
 20
-30.18933
 30
0.0
 10
166.32503
 20
-30.18933
 30
0.0
 10
166.44254
 20
-30.15669
 30
0.0
 10
166.51892
 20
-30.09271
 30
0.0
 10
166.51892
 20
-30.09271
 30
0.0
 10
166.5953
 20
-30.02808
 30
0.0
 10
166.63382
 20
-29.95235
 30
0.0
 10
166.63382
 20
-29.86617
 30
0.0
 10
166.63382
 20
-29.86617
 30
0.0
 10
166.63382
 20
-29.78783
 30
0.0
 10
166.59987
 20
-29.72712
 30
0.0
 10
166.53198
 20
-29.68207
 30
0.0
 10
166.53198
 20
-29.68207
 30
0.0
 10
166.48497
 20
-29.65139
 30
0.0
 10
166.36746
 20
-29.61287
 30
0.0
 10
166.1801
 20
-29.56587
 30
0.0
 10
166.1801
 20
-29.56587
 30
0.0
 10
165.9281
 20
-29.50189
 30
0.0
 10
165.75249
 20
-29.44705
 30
0.0
 10
165.65522
 20
-29.40005
 30
0.0
 10
165.65522
 20
-29.40005
 30
0.0
 10
165.55794
 20
-29.3537
 30
0.0
 10
165.48352
 20
-29.28907
 30
0.0
 10
165.43325
 20
-29.20681
 30
0.0
 10
165.43325
 20
-29.20681
 30
0.0
 10
165.38298
 20
-29.12455
 30
0.0
 10
165.35752
 20
-29.03381
 30
0.0
 10
165.35752
 20
-28.93457
 30
0.0
 10
165.35752
 20
-28.93457
 30
0.0
 10
165.35752
 20
-28.84383
 30
0.0
 10
165.37841
 20
-28.76027
 30
0.0
 10
165.42019
 20
-28.68323
 30
0.0
 10
165.42019
 20
-28.68323
 30
0.0
 10
165.46132
 20
-28.60554
 30
0.0
 10
165.51812
 20
-28.54157
 30
0.0
 10
165.58928
 20
-28.49064
 30
0.0
 10
165.58928
 20
-28.49064
 30
0.0
 10
165.64281
 20
-28.45147
 30
0.0
 10
165.71593
 20
-28.41753
 30
0.0
 10
165.80798
 20
-28.39011
 30
0.0
 10
165.80798
 20
-28.39011
 30
0.0
 10
165.90068
 20
-28.36269
 30
0.0
 10
165.99991
 20
-28.34898
 30
0.0
 10
166.10567
 20
-28.34898
 30
0.0
 10
166.10567
 20
-28.34898
 30
0.0
 10
166.26497
 20
-28.34898
 30
0.0
 10
166.40467
 20
-28.37248
 30
0.0
 10
166.52545
 20
-28.41818
 30
0.0
 10
166.52545
 20
-28.41818
 30
0.0
 10
166.64622
 20
-28.46388
 30
0.0
 10
166.73501
 20
-28.5259
 30
0.0
 10
166.79246
 20
-28.60424
 30
0.0
 10
166.79246
 20
-28.60424
 30
0.0
 10
166.84991
 20
-28.68323
 30
0.0
 10
166.88908
 20
-28.78769
 30
0.0
 10
166.91062
 20
-28.91891
 30
0.0
 10
166.91062
 20
-28.91891
 30
0.0
 10
166.91062
 20
-28.91891
 30
0.0
 10
166.57441
 20
-28.96526
 30
0.0
 10
166.57441
 20
-28.96526
 30
0.0
 10
166.57441
 20
-28.96526
 30
0.0
 10
166.55874
 20
-28.8608
 30
0.0
 10
166.51435
 20
-28.7792
 30
0.0
 10
166.44123
 20
-28.72044
 30
0.0
 10
166.44123
 20
-28.72044
 30
0.0
 10
166.36812
 20
-28.66169
 30
0.0
 10
166.26431
 20
-28.63231
 30
0.0
 10
166.13048
 20
-28.63231
 30
0.0
 10
166.13048
 20
-28.63231
 30
0.0
 10
165.9725
 20
-28.63231
 30
0.0
 10
165.85955
 20
-28.65842
 30
0.0
 10
165.79231
 20
-28.71065
 30
0.0
 10
165.79231
 20
-28.71065
 30
0.0
 10
165.72442
 20
-28.76288
 30
0.0
 10
165.69047
 20
-28.82424
 30
0.0
 10
165.69047
 20
-28.8941
 30
0.0
 10
165.69047
 20
-28.8941
 30
0.0
 10
165.69047
 20
-28.93914
 30
0.0
 10
165.70483
 20
-28.97897
 30
0.0
 10
165.7329
 20
-29.01487
 30
0.0
 10
165.7329
 20
-29.01487
 30
0.0
 10
165.76098
 20
-29.05209
 30
0.0
 10
165.80472
 20
-29.08212
 30
0.0
 10
165.86478
 20
-29.10692
 30
0.0
 10
165.86478
 20
-29.10692
 30
0.0
 10
165.89938
 20
-29.11933
 30
0.0
 10
166.00057
 20
-29.14871
 30
0.0
 10
166.169
 20
-29.1944
 30
0.0
 10
166.169
 20
-29.1944
 30
0.0
 10
166.41251
 20
-29.25969
 30
0.0
 10
166.58225
 20
-29.31257
 30
0.0
 10
166.67821
 20
-29.35435
 30
0.0
 10
166.67821
 20
-29.35435
 30
0.0
 10
166.77483
 20
-29.39548
 30
0.0
 10
166.85056
 20
-29.45619
 30
0.0
 10
166.9054
 20
-29.53519
 30
0.0
 10
166.9054
 20
-29.53519
 30
0.0
 10
166.96024
 20
-29.61418
 30
0.0
 10
166.98766
 20
-29.7121
 30
0.0
 10
166.98766
 20
-29.82962
 30
0.0
 10
166.98766
 20
-29.82962
 30
0.0
 10
166.98766
 20
-29.94452
 30
0.0
 10
166.95371
 20
-30.05223
 30
0.0
 10
166.88712
 20
-30.15408
 30
0.0
 10
166.88712
 20
-30.15408
 30
0.0
 10
166.81988
 20
-30.25527
 30
0.0
 10
166.72326
 20
-30.33361
 30
0.0
 10
166.59726
 20
-30.3891
 30
0.0
 10
166.59726
 20
-30.3891
 30
0.0
 10
166.47126
 20
-30.44459
 30
0.0
 10
166.32829
 20
-30.47201
 30
0.0
 10
166.169
 20
-30.47201
 30
0.0
 10
166.169
 20
-30.47201
 30
0.0
 10
165.9046
 20
-30.47201
 30
0.0
 10
165.70353
 20
-30.41717
 30
0.0
 10
165.56512
 20
-30.30749
 30
0.0
 10
165.56512
 20
-30.30749
 30
0.0
 10
165.42672
 20
-30.19782
 30
0.0
 10
165.33859
 20
-30.03526
 30
0.0
 10
165.30073
 20
-29.81982
 30
0.0
  0
SPLINE
  5
61
330
1F
100
AcDbEntity
  8
layer 1
 62
   250
100
AcDbSpline
210
0.0
220
0.0
230
1.0
 70
    11
 71
     3
 72
    20
 73
    16
 74
     0
 42
0.0000000001
 43
0.0000000001
 40
0.0
 40
0.0
 40
0.0
 40
0.0
 40
0.25
 40
0.25
 40
0.25
 40
0.25
 40
0.5
 40
0.5
 40
0.5
 40
0.5
 40
0.75
 40
0.75
 40
0.75
 40
0.75
 40
1.0
 40
1.0
 40
1.0
 40
1.0
 10
167.61596
 20
-28.01864
 30
0.0
 10
167.61596
 20
-28.01864
 30
0.0
 10
167.61596
 20
-27.62237
 30
0.0
 10
167.61596
 20
-27.62237
 30
0.0
 10
167.61596
 20
-27.62237
 30
0.0
 10
167.61596
 20
-27.62237
 30
0.0
 10
167.96066
 20
-27.62237
 30
0.0
 10
167.96066
 20
-27.62237
 30
0.0
 10
167.96066
 20
-27.62237
 30
0.0
 10
167.96066
 20
-27.62237
 30
0.0
 10
167.96066
 20
-28.01864
 30
0.0
 10
167.96066
 20
-28.01864
 30
0.0
 10
167.96066
 20
-28.01864
 30
0.0
 10
167.96066
 20
-28.01864
 30
0.0
 10
167.61596
 20
-28.01864
 30
0.0
 10
167.61596
 20
-28.01864
 30
0.0
  0
SPLINE
  5
62
330
1F
100
AcDbEntity
  8
layer 1
 62
   250
100
AcDbSpline
210
0.0
220
0.0
230
1.0
 70
    11
 71
     3
 72
    20
 73
    16
 74
     0
 42
0.0000000001
 43
0.0000000001
 40
0.0
 40
0.0
 40
0.0
 40
0.0
 40
0.25
 40
0.25
 40
0.25
 40
0.25
 40
0.5
 40
0.5
 40
0.5
 40
0.5
 40
0.75
 40
0.75
 40
0.75
 40
0.75
 40
1.0
 40
1.0
 40
1.0
 40
1.0
 10
167.61596
 20
-30.42631
 30
0.0
 10
167.61596
 20
-30.42631
 30
0.0
 10
167.61596
 20
-28.39533
 30
0.0
 10
167.61596
 20
-28.39533
 30
0.0
 10
167.61596
 20
-28.39533
 30
0.0
 10
167.61596
 20
-28.39533
 30
0.0
 10
167.96066
 20
-28.39533
 30
0.0
 10
167.96066
 20
-28.39533
 30
0.0
 10
167.96066
 20
-28.39533
 30
0.0
 10
167.96066
 20
-28.39533
 30
0.0
 10
167.96066
 20
-30.42631
 30
0.0
 10
167.96066
 20
-30.42631
 30
0.0
 10
167.96066
 20
-30.42631
 30
0.0
 10
167.96066
 20
-30.42631
 30
0.0
 10
167.61596
 20
-30.42631
 30
0.0
 10
167.61596
 20
-30.42631
 30
0.0
  0
SPLINE
  5
63
330
1F
100
AcDbEntity
  8
layer 1
 62
   250
100
AcDbSpline
210
0.0
220
0.0
230
1.0
 70
    11
 71
     3
 72
    56
 73
    52
 74
     0
 42
0.0000000001
 43
0.0000000001
 40
0.0
 40
0.0
 40
0.0
 40
0.0
 40
0.0769230769230769
 40
0.0769230769230769
 40
0.0769230769230769
 40
0.0769230769230769
 40
0.1538461538461539
 40
0.1538461538461539
 40
0.1538461538461539
 40
0.1538461538461539
 40
0.2307692307692308
 40
0.2307692307692308
 40
0.2307692307692308
 40
0.2307692307692308
 40
0.3076923076923077
 40
0.3076923076923077
 40
0.3076923076923077
 40
0.3076923076923077
 40
0.3846153846153846
 40
0.3846153846153846
 40
0.3846153846153846
 40
0.3846153846153846
 40
0.4615384615384616
 40
0.4615384615384616
 40
0.4615384615384616
 40
0.4615384615384616
 40
0.5384615384615385
 40
0.5384615384615385
 40
0.5384615384615385
 40
0.5384615384615385
 40
0.6153846153846154
 40
0.6153846153846154
 40
0.6153846153846154
 40
0.6153846153846154
 40
0.6923076923076923
 40
0.6923076923076923
 40
0.6923076923076923
 40
0.6923076923076923
 40
0.7692307692307692
 40
0.7692307692307692
 40
0.7692307692307692
 40
0.7692307692307692
 40
0.846153846153846
 40
0.846153846153846
 40
0.846153846153846
 40
0.846153846153846
 40
0.9230769230769229
 40
0.9230769230769229
 40
0.9230769230769229
 40
0.9230769230769229
 40
1.0
 40
1.0
 40
1.0
 40
1.0
 10
168.5204
 20
-30.42631
 30
0.0
 10
168.5204
 20
-30.42631
 30
0.0
 10
168.5204
 20
-30.1469
 30
0.0
 10
168.5204
 20
-30.1469
 30
0.0
 10
168.5204
 20
-30.1469
 30
0.0
 10
168.5204
 20
-30.1469
 30
0.0
 10
169.81367
 20
-28.66299
 30
0.0
 10
169.81367
 20
-28.66299
 30
0.0
 10
169.81367
 20
-28.66299
 30
0.0
 10
169.66679
 20
-28.67083
 30
0.0
 10
169.53752
 20
-28.67409
 30
0.0
 10
169.42524
 20
-28.67409
 30
0.0
 10
169.42524
 20
-28.67409
 30
0.0
 10
169.42524
 20
-28.67409
 30
0.0
 10
168.59678
 20
-28.67409
 30
0.0
 10
168.59678
 20
-28.67409
 30
0.0
 10
168.59678
 20
-28.67409
 30
0.0
 10
168.59678
 20
-28.67409
 30
0.0
 10
168.59678
 20
-28.39533
 30
0.0
 10
168.59678
 20
-28.39533
 30
0.0
 10
168.59678
 20
-28.39533
 30
0.0
 10
168.59678
 20
-28.39533
 30
0.0
 10
170.25695
 20
-28.39533
 30
0.0
 10
170.25695
 20
-28.39533
 30
0.0
 10
170.25695
 20
-28.39533
 30
0.0
 10
170.25695
 20
-28.39533
 30
0.0
 10
170.25695
 20
-28.62252
 30
0.0
 10
170.25695
 20
-28.62252
 30
0.0
 10
170.25695
 20
-28.62252
 30
0.0
 10
170.25695
 20
-28.62252
 30
0.0
 10
169.15757
 20
-29.91187
 30
0.0
 10
169.15757
 20
-29.91187
 30
0.0
 10
169.15757
 20
-29.91187
 30
0.0
 10
169.15757
 20
-29.91187
 30
0.0
 10
168.9454
 20
-30.1469
 30
0.0
 10
168.9454
 20
-30.1469
 30
0.0
 10
168.9454
 20
-30.1469
 30
0.0
 10
169.09947
 20
-30.1358
 30
0.0
 10
169.2444
 20
-30.12992
 30
0.0
 10
169.37954
 20
-30.12992
 30
0.0
 10
169.37954
 20
-30.12992
 30
0.0
 10
169.37954
 20
-30.12992
 30
0.0
 10
170.31832
 20
-30.12992
 30
0.0
 10
170.31832
 20
-30.12992
 30
0.0
 10
170.31832
 20
-30.12992
 30
0.0
 10
170.31832
 20
-30.12992
 30
0.0
 10
170.31832
 20
-30.42631
 30
0.0
 10
170.31832
 20
-30.42631
 30
0.0
 10
170.31832
 20
-30.42631
 30
0.0
 10
170.31832
 20
-30.42631
 30
0.0
 10
168.5204
 20
-30.42631
 30
0.0
 10
168.5204
 20
-30.42631
 30
0.0
  0
SPLINE
  5
64
330
1F
100
AcDbEntity
  8
layer 1
 62
   250
100
AcDbSpline
210
0.0
220
0.0
230
1.0
 70
    11
 71
     3
 72
    64
 73
    60
 74
     0
 42
0.0000000001
 43
0.0000000001
 40
0.0
 40
0.0
 40
0.0
 40
0.0
 40
0.0666666666666667
 40
0.0666666666666667
 40
0.0666666666666667
 40
0.0666666666666667
 40
0.1333333333333333
 40
0.1333333333333333
 40
0.1333333333333333
 40
0.1333333333333333
 40
0.2
 40
0.2
 40
0.2
 40
0.2
 40
0.2666666666666667
 40
0.2666666666666667
 40
0.2666666666666667
 40
0.2666666666666667
 40
0.3333333333333333
 40
0.3333333333333333
 40
0.3333333333333333
 40
0.3333333333333333
 40
0.4
 40
0.4
 40
0.4
 40
0.4
 40
0.4666666666666666
 40
0.4666666666666666
 40
0.4666666666666666
 40
0.4666666666666666
 40
0.5333333333333333
 40
0.5333333333333333
 40
0.5333333333333333
 40
0.5333333333333333
 40
0.6
 40
0.6
 40
0.6
 40
0.6
 40
0.6666666666666666
 40
0.6666666666666666
 40
0.6666666666666666
 40
0.6666666666666666
 40
0.7333333333333333
 40
0.7333333333333333
 40
0.7333333333333333
 40
0.7333333333333333
 40
0.7999999999999999
 40
0.7999999999999999
 40
0.7999999999999999
 40
0.7999999999999999
 40
0.8666666666666666
 40
0.8666666666666666
 40
0.8666666666666666
 40
0.8666666666666666
 40
0.9333333333333332
 40
0.9333333333333332
 40
0.9333333333333332
 40
0.9333333333333332
 40
1.0
 40
1.0
 40
1.0
 40
1.0
 10
172.26862
 20
-29.77217
 30
0.0
 10
172.26862
 20
-29.77217
 30
0.0
 10
172.62441
 20
-29.81591
 30
0.0
 10
172.62441
 20
-29.81591
 30
0.0
 10
172.62441
 20
-29.81591
 30
0.0
 10
172.56827
 20
-30.02416
 30
0.0
 10
172.46447
 20
-30.18541
 30
0.0
 10
172.31301
 20
-30.30031
 30
0.0
 10
172.31301
 20
-30.30031
 30
0.0
 10
172.1609
 20
-30.41456
 30
0.0
 10
171.96701
 20
-30.47201
 30
0.0
 10
171.73133
 20
-30.47201
 30
0.0
 10
171.73133
 20
-30.47201
 30
0.0
 10
171.43429
 20
-30.47201
 30
0.0
 10
171.19861
 20
-30.38061
 30
0.0
 10
171.02496
 20
-30.19782
 30
0.0
 10
171.02496
 20
-30.19782
 30
0.0
 10
170.85065
 20
-30.01502
 30
0.0
 10
170.76382
 20
-29.75846
 30
0.0
 10
170.76382
 20
-29.42812
 30
0.0
 10
170.76382
 20
-29.42812
 30
0.0
 10
170.76382
 20
-29.08603
 30
0.0
 10
170.85196
 20
-28.82098
 30
0.0
 10
171.02757
 20
-28.63231
 30
0.0
 10
171.02757
 20
-28.63231
 30
0.0
 10
171.20384
 20
-28.44364
 30
0.0
 10
171.43168
 20
-28.34898
 30
0.0
 10
171.7124
 20
-28.34898
 30
0.0
 10
171.7124
 20
-28.34898
 30
0.0
 10
171.98398
 20
-28.34898
 30
0.0
 10
172.20594
 20
-28.44168
 30
0.0
 10
172.37764
 20
-28.62643
 30
0.0
 10
172.37764
 20
-28.62643
 30
0.0
 10
172.54999
 20
-28.81119
 30
0.0
 10
172.63616
 20
-29.07167
 30
0.0
 10
172.63616
 20
-29.40658
 30
0.0
 10
172.63616
 20
-29.40658
 30
0.0
 10
172.63616
 20
-29.42747
 30
0.0
 10
172.63551
 20
-29.45815
 30
0.0
 10
172.63421
 20
-29.49863
 30
0.0
 10
172.63421
 20
-29.49863
 30
0.0
 10
172.63421
 20
-29.49863
 30
0.0
 10
171.11962
 20
-29.49863
 30
0.0
 10
171.11962
 20
-29.49863
 30
0.0
 10
171.11962
 20
-29.49863
 30
0.0
 10
171.13203
 20
-29.7219
 30
0.0
 10
171.19535
 20
-29.89294
 30
0.0
 10
171.30894
 20
-30.0111
 30
0.0
 10
171.30894
 20
-30.0111
 30
0.0
 10
171.42254
 20
-30.12992
 30
0.0
 10
171.56355
 20
-30.18933
 30
0.0
 10
171.73329
 20
-30.18933
 30
0.0
 10
171.73329
 20
-30.18933
 30
0.0
 10
171.85929
 20
-30.18933
 30
0.0
 10
171.96701
 20
-30.15603
 30
0.0
 10
172.05644
 20
-30.08945
 30
0.0
 10
172.05644
 20
-30.08945
 30
0.0
 10
172.14588
 20
-30.02351
 30
0.0
 10
172.21639
 20
-29.91775
 30
0.0
 10
172.26862
 20
-29.77217
 30
0.0
  0
SPLINE
  5
65
330
1F
100
AcDbEntity
  8
layer 1
 62
   250
100
AcDbSpline
210
0.0
220
0.0
230
1.0
 70
    11
 71
     3
 72
    24
 73
    20
 74
     0
 42
0.0000000001
 43
0.0000000001
 40
0.0
 40
0.0
 40
0.0
 40
0.0
 40
0.2
 40
0.2
 40
0.2
 40
0.2
 40
0.4
 40
0.4
 40
0.4
 40
0.4
 40
0.6000000000000001
 40
0.6000000000000001
 40
0.6000000000000001
 40
0.6000000000000001
 40
0.8
 40
0.8
 40
0.8
 40
0.8
 40
1.0
 40
1.0
 40
1.0
 40
1.0
 10
171.13855
 20
-29.21529
 30
0.0
 10
171.13855
 20
-29.21529
 30
0.0
 10
172.27253
 20
-29.21529
 30
0.0
 10
172.27253
 20
-29.21529
 30
0.0
 10
172.27253
 20
-29.21529
 30
0.0
 10
172.25752
 20
-29.0449
 30
0.0
 10
172.21378
 20
-28.91629
 30
0.0
 10
172.14262
 20
-28.83143
 30
0.0
 10
172.14262
 20
-28.83143
 30
0.0
 10
172.03294
 20
-28.6989
 30
0.0
 10
171.89062
 20
-28.63231
 30
0.0
 10
171.71632
 20
-28.63231
 30
0.0
 10
171.71632
 20
-28.63231
 30
0.0
 10
171.55833
 20
-28.63231
 30
0.0
 10
171.42515
 20
-28.68519
 30
0.0
 10
171.31743
 20
-28.79095
 30
0.0
 10
171.31743
 20
-28.79095
 30
0.0
 10
171.20971
 20
-28.89671
 30
0.0
 10
171.1503
 20
-29.03838
 30
0.0
 10
171.13855
 20
-29.21529
 30
0.0
  0
SPLINE
  5
66
330
1F
100
AcDbEntity
  8
layer 1
 62
   250
100
AcDbSpline
210
0.0
220
0.0
230
1.0
 70
    11
 71
     3
 72
   124
 73
   120
 74
     0
 42
0.0000000001
 43
0.0000000001
 40
0.0
 40
0.0
 40
0.0
 40
0.0
 40
0.0333333333333333
 40
0.0333333333333333
 40
0.0333333333333333
 40
0.0333333333333333
 40
0.0666666666666667
 40
0.0666666666666667
 40
0.0666666666666667
 40
0.0666666666666667
 40
0.1
 40
0.1
 40
0.1
 40
0.1
 40
0.1333333333333333
 40
0.1333333333333333
 40
0.1333333333333333
 40
0.1333333333333333
 40
0.1666666666666667
 40
0.1666666666666667
 40
0.1666666666666667
 40
0.1666666666666667
 40
0.2
 40
0.2
 40
0.2
 40
0.2
 40
0.2333333333333333
 40
0.2333333333333333
 40
0.2333333333333333
 40
0.2333333333333333
 40
0.2666666666666667
 40
0.2666666666666667
 40
0.2666666666666667
 40
0.2666666666666667
 40
0.3
 40
0.3
 40
0.3
 40
0.3
 40
0.3333333333333333
 40
0.3333333333333333
 40
0.3333333333333333
 40
0.3333333333333333
 40
0.3666666666666666
 40
0.3666666666666666
 40
0.3666666666666666
 40
0.3666666666666666
 40
0.4
 40
0.4
 40
0.4
 40
0.4
 40
0.4333333333333333
 40
0.4333333333333333
 40
0.4333333333333333
 40
0.4333333333333333
 40
0.4666666666666666
 40
0.4666666666666666
 40
0.4666666666666666
 40
0.4666666666666666
 40
0.4999999999999999
 40
0.4999999999999999
 40
0.4999999999999999
 40
0.4999999999999999
 40
0.5333333333333333
 40
0.5333333333333333
 40
0.5333333333333333
 40
0.5333333333333333
 40
0.5666666666666667
 40
0.5666666666666667
 40
0.5666666666666667
 40
0.5666666666666667
 40
0.6
 40
0.6
 40
0.6
 40
0.6
 40
0.6333333333333333
 40
0.6333333333333333
 40
0.6333333333333333
 40
0.6333333333333333
 40
0.6666666666666666
 40
0.6666666666666666
 40
0.6666666666666666
 40
0.6666666666666666
 40
0.7
 40
0.7
 40
0.7
 40
0.7
 40
0.7333333333333333
 40
0.7333333333333333
 40
0.7333333333333333
 40
0.7333333333333333
 40
0.7666666666666666
 40
0.7666666666666666
 40
0.7666666666666666
 40
0.7666666666666666
 40
0.7999999999999999
 40
0.7999999999999999
 40
0.7999999999999999
 40
0.7999999999999999
 40
0.8333333333333333
 40
0.8333333333333333
 40
0.8333333333333333
 40
0.8333333333333333
 40
0.8666666666666666
 40
0.8666666666666666
 40
0.8666666666666666
 40
0.8666666666666666
 40
0.8999999999999999
 40
0.8999999999999999
 40
0.8999999999999999
 40
0.8999999999999999
 40
0.9333333333333332
 40
0.9333333333333332
 40
0.9333333333333332
 40
0.9333333333333332
 40
0.9666666666666666
 40
0.9666666666666666
 40
0.9666666666666666
 40
0.9666666666666666
 40
1.0
 40
1.0
 40
1.0
 40
1.0
 10
176.88027
 20
-29.68599
 30
0.0
 10
176.88027
 20
-29.68599
 30
0.0
 10
177.22431
 20
-29.64029
 30
0.0
 10
177.22431
 20
-29.64029
 30
0.0
 10
177.22431
 20
-29.64029
 30
0.0
 10
177.26413
 20
-29.83549
 30
0.0
 10
177.33138
 20
-29.97585
 30
0.0
 10
177.42604
 20
-30.06203
 30
0.0
 10
177.42604
 20
-30.06203
 30
0.0
 10
177.52135
 20
-30.1482
 30
0.0
 10
177.6369
 20
-30.19129
 30
0.0
 10
177.77335
 20
-30.19129
 30
0.0
 10
177.77335
 20
-30.19129
 30
0.0
 10
177.93525
 20
-30.19129
 30
0.0
 10
178.07235
 20
-30.13514
 30
0.0
 10
178.18398
 20
-30.02286
 30
0.0
 10
178.18398
 20
-30.02286
 30
0.0
 10
178.29497
 20
-29.91057
 30
0.0
 10
178.35111
 20
-29.77151
 30
0.0
 10
178.35111
 20
-29.60569
 30
0.0
 10
178.35111
 20
-29.60569
 30
0.0
 10
178.35111
 20
-29.44771
 30
0.0
 10
178.29954
 20
-29.31714
 30
0.0
 10
178.19639
 20
-29.21464
 30
0.0
 10
178.19639
 20
-29.21464
 30
0.0
 10
178.09259
 20
-29.11215
 30
0.0
 10
177.96137
 20
-29.06057
 30
0.0
 10
177.80207
 20
-29.06057
 30
0.0
 10
177.80207
 20
-29.06057
 30
0.0
 10
177.73679
 20
-29.06057
 30
0.0
 10
177.65584
 20
-29.07363
 30
0.0
 10
177.55922
 20
-29.09909
 30
0.0
 10
177.55922
 20
-29.09909
 30
0.0
 10
177.55922
 20
-29.09909
 30
0.0
 10
177.59773
 20
-28.79683
 30
0.0
 10
177.59773
 20
-28.79683
 30
0.0
 10
177.59773
 20
-28.79683
 30
0.0
 10
177.62058
 20
-28.79944
 30
0.0
 10
177.63886
 20
-28.80074
 30
0.0
 10
177.65323
 20
-28.80074
 30
0.0
 10
177.65323
 20
-28.80074
 30
0.0
 10
177.79946
 20
-28.80074
 30
0.0
 10
177.93133
 20
-28.76223
 30
0.0
 10
178.04885
 20
-28.68584
 30
0.0
 10
178.04885
 20
-28.68584
 30
0.0
 10
178.16636
 20
-28.60946
 30
0.0
 10
178.22511
 20
-28.4913
 30
0.0
 10
178.22511
 20
-28.332
 30
0.0
 10
178.22511
 20
-28.332
 30
0.0
 10
178.22511
 20
-28.20601
 30
0.0
 10
178.18202
 20
-28.1009
 30
0.0
 10
178.0965
 20
-28.01864
 30
0.0
 10
178.0965
 20
-28.01864
 30
0.0
 10
178.01098
 20
-27.93573
 30
0.0
 10
177.90065
 20
-27.89395
 30
0.0
 10
177.76551
 20
-27.89395
 30
0.0
 10
177.76551
 20
-27.89395
 30
0.0
 10
177.63168
 20
-27.89395
 30
0.0
 10
177.52005
 20
-27.93638
 30
0.0
 10
177.43126
 20
-28.01995
 30
0.0
 10
177.43126
 20
-28.01995
 30
0.0
 10
177.34182
 20
-28.10416
 30
0.0
 10
177.28437
 20
-28.23081
 30
0.0
 10
177.25891
 20
-28.39925
 30
0.0
 10
177.25891
 20
-28.39925
 30
0.0
 10
177.25891
 20
-28.39925
 30
0.0
 10
176.91487
 20
-28.33788
 30
0.0
 10
176.91487
 20
-28.33788
 30
0.0
 10
176.91487
 20
-28.33788
 30
0.0
 10
176.95665
 20
-28.10678
 30
0.0
 10
177.05261
 20
-27.9279
 30
0.0
 10
177.20146
 20
-27.80125
 30
0.0
 10
177.20146
 20
-27.80125
 30
0.0
 10
177.35096
 20
-27.6746
 30
0.0
 10
177.53637
 20
-27.61062
 30
0.0
 10
177.75833
 20
-27.61062
 30
0.0
 10
177.75833
 20
-27.61062
 30
0.0
 10
177.9111
 20
-27.61062
 30
0.0
 10
178.05211
 20
-27.64391
 30
0.0
 10
178.18072
 20
-27.7092
 30
0.0
 10
178.18072
 20
-27.7092
 30
0.0
 10
178.30933
 20
-27.77513
 30
0.0
 10
178.40791
 20
-27.86457
 30
0.0
 10
178.47646
 20
-27.97817
 30
0.0
 10
178.47646
 20
-27.97817
 30
0.0
 10
178.54435
 20
-28.09176
 30
0.0
 10
178.57895
 20
-28.21188
 30
0.0
 10
178.57895
 20
-28.33984
 30
0.0
 10
178.57895
 20
-28.33984
 30
0.0
 10
178.57895
 20
-28.46061
 30
0.0
 10
178.54631
 20
-28.57094
 30
0.0
 10
178.48102
 20
-28.67083
 30
0.0
 10
178.48102
 20
-28.67083
 30
0.0
 10
178.41574
 20
-28.77006
 30
0.0
 10
178.31977
 20
-28.84905
 30
0.0
 10
178.19247
 20
-28.90781
 30
0.0
 10
178.19247
 20
-28.90781
 30
0.0
 10
178.35829
 20
-28.94567
 30
0.0
 10
178.4869
 20
-29.02532
 30
0.0
 10
178.57895
 20
-29.14609
 30
0.0
 10
178.57895
 20
-29.14609
 30
0.0
 10
178.67035
 20
-29.26622
 30
0.0
 10
178.71605
 20
-29.41702
 30
0.0
 10
178.71605
 20
-29.59786
 30
0.0
 10
178.71605
 20
-29.59786
 30
0.0
 10
178.71605
 20
-29.84267
 30
0.0
 10
178.62726
 20
-30.05028
 30
0.0
 10
178.44838
 20
-30.22067
 30
0.0
 10
178.44838
 20
-30.22067
 30
0.0
 10
178.27016
 20
-30.39106
 30
0.0
 10
178.04428
 20
-30.47593
 30
0.0
 10
177.77139
 20
-30.47593
 30
0.0
 10
177.77139
 20
-30.47593
 30
0.0
 10
177.52527
 20
-30.47593
 30
0.0
 10
177.32093
 20
-30.40281
 30
0.0
 10
177.15837
 20
-30.25592
 30
0.0
 10
177.15837
 20
-30.25592
 30
0.0
 10
176.99582
 20
-30.10968
 30
0.0
 10
176.90311
 20
-29.91971
 30
0.0
 10
176.88027
 20
-29.68599
 30
0.0
  0
SPLINE
  5
67
330
1F
100
AcDbEntity
  8
layer 1
 62
   250
100
AcDbSpline
210
0.0
220
0.0
230
1.0
 70
    11
 71
     3
 72
    80
 73
    76
 74
     0
 42
0.0000000001
 43
0.0000000001
 40
0.0
 40
0.0
 40
0.0
 40
0.0
 40
0.0526315789473684
 40
0.0526315789473684
 40
0.0526315789473684
 40
0.0526315789473684
 40
0.1052631578947368
 40
0.1052631578947368
 40
0.1052631578947368
 40
0.1052631578947368
 40
0.1578947368421053
 40
0.1578947368421053
 40
0.1578947368421053
 40
0.1578947368421053
 40
0.2105263157894737
 40
0.2105263157894737
 40
0.2105263157894737
 40
0.2105263157894737
 40
0.2631578947368421
 40
0.2631578947368421
 40
0.2631578947368421
 40
0.2631578947368421
 40
0.3157894736842105
 40
0.3157894736842105
 40
0.3157894736842105
 40
0.3157894736842105
 40
0.3684210526315789
 40
0.3684210526315789
 40
0.3684210526315789
 40
0.3684210526315789
 40
0.4210526315789473
 40
0.4210526315789473
 40
0.4210526315789473
 40
0.4210526315789473
 40
0.4736842105263158
 40
0.4736842105263158
 40
0.4736842105263158
 40
0.4736842105263158
 40
0.5263157894736842
 40
0.5263157894736842
 40
0.5263157894736842
 40
0.5263157894736842
 40
0.5789473684210527
 40
0.5789473684210527
 40
0.5789473684210527
 40
0.5789473684210527
 40
0.631578947368421
 40
0.631578947368421
 40
0.631578947368421
 40
0.631578947368421
 40
0.6842105263157894
 40
0.6842105263157894
 40
0.6842105263157894
 40
0.6842105263157894
 40
0.7368421052631577
 40
0.7368421052631577
 40
0.7368421052631577
 40
0.7368421052631577
 40
0.7894736842105261
 40
0.7894736842105261
 40
0.7894736842105261
 40
0.7894736842105261
 40
0.8421052631578945
 40
0.8421052631578945
 40
0.8421052631578945
 40
0.8421052631578945
 40
0.8947368421052628
 40
0.8947368421052628
 40
0.8947368421052628
 40
0.8947368421052628
 40
0.9473684210526312
 40
0.9473684210526312
 40
0.9473684210526312
 40
0.9473684210526312
 40
1.0
 40
1.0
 40
1.0
 40
1.0
 10
181.06065
 20
-28.30916
 30
0.0
 10
181.06065
 20
-28.30916
 30
0.0
 10
180.71857
 20
-28.33592
 30
0.0
 10
180.71857
 20
-28.33592
 30
0.0
 10
180.71857
 20
-28.33592
 30
0.0
 10
180.68788
 20
-28.20078
 30
0.0
 10
180.64479
 20
-28.10221
 30
0.0
 10
180.58865
 20
-28.04149
 30
0.0
 10
180.58865
 20
-28.04149
 30
0.0
 10
180.49529
 20
-27.94291
 30
0.0
 10
180.38039
 20
-27.89395
 30
0.0
 10
180.24395
 20
-27.89395
 30
0.0
 10
180.24395
 20
-27.89395
 30
0.0
 10
180.13427
 20
-27.89395
 30
0.0
 10
180.03831
 20
-27.92463
 30
0.0
 10
179.9554
 20
-27.986
 30
0.0
 10
179.9554
 20
-27.986
 30
0.0
 10
179.84703
 20
-28.06499
 30
0.0
 10
179.7615
 20
-28.18055
 30
0.0
 10
179.69883
 20
-28.332
 30
0.0
 10
179.69883
 20
-28.332
 30
0.0
 10
179.63681
 20
-28.48346
 30
0.0
 10
179.60417
 20
-28.69955
 30
0.0
 10
179.60156
 20
-28.98027
 30
0.0
 10
179.60156
 20
-28.98027
 30
0.0
 10
179.68447
 20
-28.85428
 30
0.0
 10
179.78566
 20
-28.76027
 30
0.0
 10
179.90578
 20
-28.6989
 30
0.0
 10
179.90578
 20
-28.6989
 30
0.0
 10
180.02525
 20
-28.63819
 30
0.0
 10
180.15125
 20
-28.6075
 30
0.0
 10
180.28247
 20
-28.6075
 30
0.0
 10
180.28247
 20
-28.6075
 30
0.0
 10
180.51227
 20
-28.6075
 30
0.0
 10
180.70747
 20
-28.69172
 30
0.0
 10
180.86872
 20
-28.8608
 30
0.0
 10
180.86872
 20
-28.8608
 30
0.0
 10
181.02997
 20
-29.02989
 30
0.0
 10
181.11092
 20
-29.24794
 30
0.0
 10
181.11092
 20
-29.5156
 30
0.0
 10
181.11092
 20
-29.5156
 30
0.0
 10
181.11092
 20
-29.69187
 30
0.0
 10
181.0724
 20
-29.85508
 30
0.0
 10
180.99667
 20
-30.00653
 30
0.0
 10
180.99667
 20
-30.00653
 30
0.0
 10
180.92095
 20
-30.15734
 30
0.0
 10
180.81649
 20
-30.27355
 30
0.0
 10
180.68396
 20
-30.35384
 30
0.0
 10
180.68396
 20
-30.35384
 30
0.0
 10
180.55144
 20
-30.43414
 30
0.0
 10
180.40129
 20
-30.47397
 30
0.0
 10
180.23285
 20
-30.47397
 30
0.0
 10
180.23285
 20
-30.47397
 30
0.0
 10
179.9456
 20
-30.47397
 30
0.0
 10
179.71189
 20
-30.36886
 30
0.0
 10
179.53105
 20
-30.15734
 30
0.0
 10
179.53105
 20
-30.15734
 30
0.0
 10
179.34956
 20
-29.94647
 30
0.0
 10
179.25947
 20
-29.59851
 30
0.0
 10
179.25947
 20
-29.1141
 30
0.0
 10
179.25947
 20
-29.1141
 30
0.0
 10
179.25947
 20
-28.57225
 30
0.0
 10
179.35936
 20
-28.17859
 30
0.0
 10
179.55978
 20
-27.93247
 30
0.0
 10
179.55978
 20
-27.93247
 30
0.0
 10
179.73408
 20
-27.71834
 30
0.0
 10
179.96911
 20
-27.61062
 30
0.0
 10
180.2655
 20
-27.61062
 30
0.0
 10
180.2655
 20
-27.61062
 30
0.0
 10
180.4855
 20
-27.61062
 30
0.0
 10
180.66634
 20
-27.67264
 30
0.0
 10
180.80735
 20
-27.79668
 30
0.0
 10
180.80735
 20
-27.79668
 30
0.0
 10
180.94836
 20
-27.92006
 30
0.0
 10
181.03258
 20
-28.09111
 30
0.0
 10
181.06065
 20
-28.30916
 30
0.0
  0
SPLINE
  5
68
330
1F
100
AcDbEntity
  8
layer 1
 62
   250
100
AcDbSpline
210
0.0
220
0.0
230
1.0
 70
    11
 71
     3
 72
    40
 73
    36
 74
     0
 42
0.0000000001
 43
0.0000000001
 40
0.0
 40
0.0
 40
0.0
 40
0.0
 40
0.1111111111111111
 40
0.1111111111111111
 40
0.1111111111111111
 40
0.1111111111111111
 40
0.2222222222222222
 40
0.2222222222222222
 40
0.2222222222222222
 40
0.2222222222222222
 40
0.3333333333333333
 40
0.3333333333333333
 40
0.3333333333333333
 40
0.3333333333333333
 40
0.4444444444444444
 40
0.4444444444444444
 40
0.4444444444444444
 40
0.4444444444444444
 40
0.5555555555555556
 40
0.5555555555555556
 40
0.5555555555555556
 40
0.5555555555555556
 40
0.6666666666666667
 40
0.6666666666666667
 40
0.6666666666666667
 40
0.6666666666666667
 40
0.7777777777777779
 40
0.7777777777777779
 40
0.7777777777777779
 40
0.7777777777777779
 40
0.8888888888888891
 40
0.8888888888888891
 40
0.8888888888888891
 40
0.8888888888888891
 40
1.0
 40
1.0
 40
1.0
 40
1.0
 10
179.65509
 20
-29.51756
 30
0.0
 10
179.65509
 20
-29.63638
 30
0.0
 10
179.68055
 20
-29.74997
 30
0.0
 10
179.73082
 20
-29.85834
 30
0.0
 10
179.73082
 20
-29.85834
 30
0.0
 10
179.78109
 20
-29.96671
 30
0.0
 10
179.8516
 20
-30.04897
 30
0.0
 10
179.94169
 20
-30.10577
 30
0.0
 10
179.94169
 20
-30.10577
 30
0.0
 10
180.03243
 20
-30.16256
 30
0.0
 10
180.12775
 20
-30.19129
 30
0.0
 10
180.22698
 20
-30.19129
 30
0.0
 10
180.22698
 20
-30.19129
 30
0.0
 10
180.37256
 20
-30.19129
 30
0.0
 10
180.49725
 20
-30.13253
 30
0.0
 10
180.60171
 20
-30.01502
 30
0.0
 10
180.60171
 20
-30.01502
 30
0.0
 10
180.70616
 20
-29.89751
 30
0.0
 10
180.75839
 20
-29.73822
 30
0.0
 10
180.75839
 20
-29.53714
 30
0.0
 10
180.75839
 20
-29.53714
 30
0.0
 10
180.75839
 20
-29.34325
 30
0.0
 10
180.70681
 20
-29.19049
 30
0.0
 10
180.60367
 20
-29.07885
 30
0.0
 10
180.60367
 20
-29.07885
 30
0.0
 10
180.50052
 20
-28.96722
 30
0.0
 10
180.3706
 20
-28.91173
 30
0.0
 10
180.21392
 20
-28.91173
 30
0.0
 10
180.21392
 20
-28.91173
 30
0.0
 10
180.05789
 20
-28.91173
 30
0.0
 10
179.92602
 20
-28.96722
 30
0.0
 10
179.81765
 20
-29.07885
 30
0.0
 10
179.81765
 20
-29.07885
 30
0.0
 10
179.70928
 20
-29.19049
 30
0.0
 10
179.65509
 20
-29.33672
 30
0.0
 10
179.65509
 20
-29.51756
 30
0.0
  0
SPLINE
  5
69
330
1F
100
AcDbEntity
  8
layer 1
 62
   250
100
AcDbSpline
210
0.0
220
0.0
230
1.0
 70
    11
 71
     3
 72
    92
 73
    88
 74
     0
 42
0.0000000001
 43
0.0000000001
 40
0.0
 40
0.0
 40
0.0
 40
0.0
 40
0.0454545454545455
 40
0.0454545454545455
 40
0.0454545454545455
 40
0.0454545454545455
 40
0.0909090909090909
 40
0.0909090909090909
 40
0.0909090909090909
 40
0.0909090909090909
 40
0.1363636363636364
 40
0.1363636363636364
 40
0.1363636363636364
 40
0.1363636363636364
 40
0.1818181818181818
 40
0.1818181818181818
 40
0.1818181818181818
 40
0.1818181818181818
 40
0.2272727272727273
 40
0.2272727272727273
 40
0.2272727272727273
 40
0.2272727272727273
 40
0.2727272727272728
 40
0.2727272727272728
 40
0.2727272727272728
 40
0.2727272727272728
 40
0.3181818181818182
 40
0.3181818181818182
 40
0.3181818181818182
 40
0.3181818181818182
 40
0.3636363636363637
 40
0.3636363636363637
 40
0.3636363636363637
 40
0.3636363636363637
 40
0.4090909090909092
 40
0.4090909090909092
 40
0.4090909090909092
 40
0.4090909090909092
 40
0.4545454545454546
 40
0.4545454545454546
 40
0.4545454545454546
 40
0.4545454545454546
 40
0.5000000000000001
 40
0.5000000000000001
 40
0.5000000000000001
 40
0.5000000000000001
 40
0.5454545454545455
 40
0.5454545454545455
 40
0.5454545454545455
 40
0.5454545454545455
 40
0.5909090909090909
 40
0.5909090909090909
 40
0.5909090909090909
 40
0.5909090909090909
 40
0.6363636363636364
 40
0.6363636363636364
 40
0.6363636363636364
 40
0.6363636363636364
 40
0.6818181818181818
 40
0.6818181818181818
 40
0.6818181818181818
 40
0.6818181818181818
 40
0.7272727272727272
 40
0.7272727272727272
 40
0.7272727272727272
 40
0.7272727272727272
 40
0.7727272727272726
 40
0.7727272727272726
 40
0.7727272727272726
 40
0.7727272727272726
 40
0.818181818181818
 40
0.818181818181818
 40
0.818181818181818
 40
0.818181818181818
 40
0.8636363636363634
 40
0.8636363636363634
 40
0.8636363636363634
 40
0.8636363636363634
 40
0.9090909090909088
 40
0.9090909090909088
 40
0.9090909090909088
 40
0.9090909090909088
 40
0.9545454545454543
 40
0.9545454545454543
 40
0.9545454545454543
 40
0.9545454545454543
 40
1.0
 40
1.0
 40
1.0
 40
1.0
 10
181.67067
 20
-29.69187
 30
0.0
 10
181.67067
 20
-29.69187
 30
0.0
 10
182.03234
 20
-29.66118
 30
0.0
 10
182.03234
 20
-29.66118
 30
0.0
 10
182.03234
 20
-29.66118
 30
0.0
 10
182.05911
 20
-29.83745
 30
0.0
 10
182.12113
 20
-29.96932
 30
0.0
 10
182.2184
 20
-30.05811
 30
0.0
 10
182.2184
 20
-30.05811
 30
0.0
 10
182.31632
 20
-30.1469
 30
0.0
 10
182.43383
 20
-30.19129
 30
0.0
 10
182.57158
 20
-30.19129
 30
0.0
 10
182.57158
 20
-30.19129
 30
0.0
 10
182.7374
 20
-30.19129
 30
0.0
 10
182.87776
 20
-30.12862
 30
0.0
 10
182.99201
 20
-30.00392
 30
0.0
 10
182.99201
 20
-30.00392
 30
0.0
 10
183.10691
 20
-29.87858
 30
0.0
 10
183.16436
 20
-29.71276
 30
0.0
 10
183.16436
 20
-29.50646
 30
0.0
 10
183.16436
 20
-29.50646
 30
0.0
 10
183.16436
 20
-29.30996
 30
0.0
 10
183.10952
 20
-29.15523
 30
0.0
 10
182.99919
 20
-29.04164
 30
0.0
 10
182.99919
 20
-29.04164
 30
0.0
 10
182.88886
 20
-28.92805
 30
0.0
 10
182.74459
 20
-28.87125
 30
0.0
 10
182.56571
 20
-28.87125
 30
0.0
 10
182.56571
 20
-28.87125
 30
0.0
 10
182.45473
 20
-28.87125
 30
0.0
 10
182.35484
 20
-28.89671
 30
0.0
 10
182.2654
 20
-28.94698
 30
0.0
 10
182.2654
 20
-28.94698
 30
0.0
 10
182.17596
 20
-28.99725
 30
0.0
 10
182.10611
 20
-29.06253
 30
0.0
 10
182.05519
 20
-29.14283
 30
0.0
 10
182.05519
 20
-29.14283
 30
0.0
 10
182.05519
 20
-29.14283
 30
0.0
 10
181.73203
 20
-29.10105
 30
0.0
 10
181.73203
 20
-29.10105
 30
0.0
 10
181.73203
 20
-29.10105
 30
0.0
 10
181.73203
 20
-29.10105
 30
0.0
 10
182.00361
 20
-27.66089
 30
0.0
 10
182.00361
 20
-27.66089
 30
0.0
 10
182.00361
 20
-27.66089
 30
0.0
 10
182.00361
 20
-27.66089
 30
0.0
 10
183.39808
 20
-27.66089
 30
0.0
 10
183.39808
 20
-27.66089
 30
0.0
 10
183.39808
 20
-27.66089
 30
0.0
 10
183.39808
 20
-27.66089
 30
0.0
 10
183.39808
 20
-27.98992
 30
0.0
 10
183.39808
 20
-27.98992
 30
0.0
 10
183.39808
 20
-27.98992
 30
0.0
 10
183.39808
 20
-27.98992
 30
0.0
 10
182.27911
 20
-27.98992
 30
0.0
 10
182.27911
 20
-27.98992
 30
0.0
 10
182.27911
 20
-27.98992
 30
0.0
 10
182.27911
 20
-27.98992
 30
0.0
 10
182.12765
 20
-28.74329
 30
0.0
 10
182.12765
 20
-28.74329
 30
0.0
 10
182.12765
 20
-28.74329
 30
0.0
 10
182.29609
 20
-28.62578
 30
0.0
 10
182.47301
 20
-28.56703
 30
0.0
 10
182.65776
 20
-28.56703
 30
0.0
 10
182.65776
 20
-28.56703
 30
0.0
 10
182.90257
 20
-28.56703
 30
0.0
 10
183.10887
 20
-28.6519
 30
0.0
 10
183.2773
 20
-28.82163
 30
0.0
 10
183.2773
 20
-28.82163
 30
0.0
 10
183.44573
 20
-28.99137
 30
0.0
 10
183.52995
 20
-29.20942
 30
0.0
 10
183.52995
 20
-29.47578
 30
0.0
 10
183.52995
 20
-29.47578
 30
0.0
 10
183.52995
 20
-29.72973
 30
0.0
 10
183.45553
 20
-29.94909
 30
0.0
 10
183.30799
 20
-30.13384
 30
0.0
 10
183.30799
 20
-30.13384
 30
0.0
 10
183.1278
 20
-30.36037
 30
0.0
 10
182.88233
 20
-30.47397
 30
0.0
 10
182.57158
 20
-30.47397
 30
0.0
 10
182.57158
 20
-30.47397
 30
0.0
 10
182.31632
 20
-30.47397
 30
0.0
 10
182.10807
 20
-30.40281
 30
0.0
 10
181.94682
 20
-30.25984
 30
0.0
 10
181.94682
 20
-30.25984
 30
0.0
 10
181.78557
 20
-30.11686
 30
0.0
 10
181.69352
 20
-29.92754
 30
0.0
 10
181.67067
 20
-29.69187
 30
0.0
  0
SPLINE
  5
6A
330
1F
100
AcDbEntity
  8
layer 1
 62
   250
100
AcDbSpline
210
0.0
220
0.0
230
1.0
 70
    11
 71
     3
 72
    28
 73
    24
 74
     0
 42
0.0000000001
 43
0.0000000001
 40
0.0
 40
0.0
 40
0.0
 40
0.0
 40
0.1666666666666667
 40
0.1666666666666667
 40
0.1666666666666667
 40
0.1666666666666667
 40
0.3333333333333333
 40
0.3333333333333333
 40
0.3333333333333333
 40
0.3333333333333333
 40
0.5
 40
0.5
 40
0.5
 40
0.5
 40
0.6666666666666666
 40
0.6666666666666666
 40
0.6666666666666666
 40
0.6666666666666666
 40
0.8333333333333333
 40
0.8333333333333333
 40
0.8333333333333333
 40
0.8333333333333333
 40
1.0
 40
1.0
 40
1.0
 40
1.0
 10
173.70943
 20
-29.99021
 30
0.0
 10
173.7956
 20
-30.04636
 30
0.0
 10
173.83673
 20
-30.12274
 30
0.0
 10
173.83151
 20
-30.22001
 30
0.0
 10
173.83151
 20
-30.22001
 30
0.0
 10
173.82629
 20
-30.31663
 30
0.0
 10
173.78059
 20
-30.3904
 30
0.0
 10
173.69376
 20
-30.44133
 30
0.0
 10
173.69376
 20
-30.44133
 30
0.0
 10
173.60693
 20
-30.4929
 30
0.0
 10
173.52011
 20
-30.4929
 30
0.0
 10
173.43393
 20
-30.44133
 30
0.0
 10
173.43393
 20
-30.44133
 30
0.0
 10
173.3471
 20
-30.3904
 30
0.0
 10
173.30141
 20
-30.31402
 30
0.0
 10
173.29618
 20
-30.21218
 30
0.0
 10
173.29618
 20
-30.21218
 30
0.0
 10
173.29096
 20
-30.11034
 30
0.0
 10
173.33666
 20
-30.0333
 30
0.0
 10
173.43393
 20
-29.98238
 30
0.0
 10
173.43393
 20
-29.98238
 30
0.0
 10
173.53055
 20
-29.93146
 30
0.0
 10
173.6226
 20
-29.93407
 30
0.0
 10
173.70943
 20
-29.99021
 30
0.0
  0
SPLINE
  5
6B
330
1F
100
AcDbEntity
  8
layer 1
 62
   250
100
AcDbSpline
210
0.0
220
0.0
230
1.0
 70
    11
 71
     3
 72
    28
 73
    24
 74
     0
 42
0.0000000001
 43
0.0000000001
 40
0.0
 40
0.0
 40
0.0
 40
0.0
 40
0.1666666666666667
 40
0.1666666666666667
 40
0.1666666666666667
 40
0.1666666666666667
 40
0.3333333333333333
 40
0.3333333333333333
 40
0.3333333333333333
 40
0.3333333333333333
 40
0.5
 40
0.5
 40
0.5
 40
0.5
 40
0.6666666666666666
 40
0.6666666666666666
 40
0.6666666666666666
 40
0.6666666666666666
 40
0.8333333333333333
 40
0.8333333333333333
 40
0.8333333333333333
 40
0.8333333333333333
 40
1.0
 40
1.0
 40
1.0
 40
1.0
 10
173.71661
 20
-29.07232
 30
0.0
 10
173.80866
 20
-29.11802
 30
0.0
 10
173.85436
 20
-29.1944
 30
0.0
 10
173.85436
 20
-29.30147
 30
0.0
 10
173.85436
 20
-29.30147
 30
0.0
 10
173.85436
 20
-29.40854
 30
0.0
 10
173.80083
 20
-29.48557
 30
0.0
 10
173.69376
 20
-29.53127
 30
0.0
 10
173.69376
 20
-29.53127
 30
0.0
 10
173.5867
 20
-29.57697
 30
0.0
 10
173.49269
 20
-29.57174
 30
0.0
 10
173.41108
 20
-29.5156
 30
0.0
 10
173.41108
 20
-29.5156
 30
0.0
 10
173.32948
 20
-29.46011
 30
0.0
 10
173.29096
 20
-29.38307
 30
0.0
 10
173.29618
 20
-29.28645
 30
0.0
 10
173.29618
 20
-29.28645
 30
0.0
 10
173.30141
 20
-29.18918
 30
0.0
 10
173.34972
 20
-29.11802
 30
0.0
 10
173.44111
 20
-29.07232
 30
0.0
 10
173.44111
 20
-29.07232
 30
0.0
 10
173.53316
 20
-29.02597
 30
0.0
 10
173.62521
 20
-29.02597
 30
0.0
 10
173.71661
 20
-29.07232
 30
0.0
  0
SPLINE
  5
6C
330
1F
100
AcDbEntity
  8
layer 1
 62
   250
100
AcDbSpline
210
0.0
220
0.0
230
1.0
 70
    11
 71
     3
 72
   212
 73
   208
 74
     0
 42
0.0000000001
 43
0.0000000001
 40
0.0
 40
0.0
 40
0.0
 40
0.0
 40
0.0192307692307692
 40
0.0192307692307692
 40
0.0192307692307692
 40
0.0192307692307692
 40
0.0384615384615385
 40
0.0384615384615385
 40
0.0384615384615385
 40
0.0384615384615385
 40
0.0576923076923077
 40
0.0576923076923077
 40
0.0576923076923077
 40
0.0576923076923077
 40
0.0769230769230769
 40
0.0769230769230769
 40
0.0769230769230769
 40
0.0769230769230769
 40
0.0961538461538462
 40
0.0961538461538462
 40
0.0961538461538462
 40
0.0961538461538462
 40
0.1153846153846154
 40
0.1153846153846154
 40
0.1153846153846154
 40
0.1153846153846154
 40
0.1346153846153846
 40
0.1346153846153846
 40
0.1346153846153846
 40
0.1346153846153846
 40
0.1538461538461539
 40
0.1538461538461539
 40
0.1538461538461539
 40
0.1538461538461539
 40
0.1730769230769231
 40
0.1730769230769231
 40
0.1730769230769231
 40
0.1730769230769231
 40
0.1923076923076923
 40
0.1923076923076923
 40
0.1923076923076923
 40
0.1923076923076923
 40
0.2115384615384615
 40
0.2115384615384615
 40
0.2115384615384615
 40
0.2115384615384615
 40
0.2307692307692307
 40
0.2307692307692307
 40
0.2307692307692307
 40
0.2307692307692307
 40
0.2499999999999999
 40
0.2499999999999999
 40
0.2499999999999999
 40
0.2499999999999999
 40
0.2692307692307692
 40
0.2692307692307692
 40
0.2692307692307692
 40
0.2692307692307692
 40
0.2884615384615384
 40
0.2884615384615384
 40
0.2884615384615384
 40
0.2884615384615384
 40
0.3076923076923076
 40
0.3076923076923076
 40
0.3076923076923076
 40
0.3076923076923076
 40
0.3269230769230768
 40
0.3269230769230768
 40
0.3269230769230768
 40
0.3269230769230768
 40
0.346153846153846
 40
0.346153846153846
 40
0.346153846153846
 40
0.346153846153846
 40
0.3653846153846153
 40
0.3653846153846153
 40
0.3653846153846153
 40
0.3653846153846153
 40
0.3846153846153845
 40
0.3846153846153845
 40
0.3846153846153845
 40
0.3846153846153845
 40
0.4038461538461537
 40
0.4038461538461537
 40
0.4038461538461537
 40
0.4038461538461537
 40
0.4230769230769229
 40
0.4230769230769229
 40
0.4230769230769229
 40
0.4230769230769229
 40
0.4423076923076921
 40
0.4423076923076921
 40
0.4423076923076921
 40
0.4423076923076921
 40
0.4615384615384613
 40
0.4615384615384613
 40
0.4615384615384613
 40
0.4615384615384613
 40
0.4807692307692306
 40
0.4807692307692306
 40
0.4807692307692306
 40
0.4807692307692306
 40
0.4999999999999998
 40
0.4999999999999998
 40
0.4999999999999998
 40
0.4999999999999998
 40
0.519230769230769
 40
0.519230769230769
 40
0.519230769230769
 40
0.519230769230769
 40
0.5384615384615383
 40
0.5384615384615383
 40
0.5384615384615383
 40
0.5384615384615383
 40
0.5576923076923076
 40
0.5576923076923076
 40
0.5576923076923076
 40
0.5576923076923076
 40
0.5769230769230769
 40
0.5769230769230769
 40
0.5769230769230769
 40
0.5769230769230769
 40
0.5961538461538461
 40
0.5961538461538461
 40
0.5961538461538461
 40
0.5961538461538461
 40
0.6153846153846154
 40
0.6153846153846154
 40
0.6153846153846154
 40
0.6153846153846154
 40
0.6346153846153847
 40
0.6346153846153847
 40
0.6346153846153847
 40
0.6346153846153847
 40
0.653846153846154
 40
0.653846153846154
 40
0.653846153846154
 40
0.653846153846154
 40
0.6730769230769232
 40
0.6730769230769232
 40
0.6730769230769232
 40
0.6730769230769232
 40
0.6923076923076925
 40
0.6923076923076925
 40
0.6923076923076925
 40
0.6923076923076925
 40
0.7115384615384618
 40
0.7115384615384618
 40
0.7115384615384618
 40
0.7115384615384618
 40
0.7307692307692311
 40
0.7307692307692311
 40
0.7307692307692311
 40
0.7307692307692311
 40
0.7500000000000003
 40
0.7500000000000003
 40
0.7500000000000003
 40
0.7500000000000003
 40
0.7692307692307696
 40
0.7692307692307696
 40
0.7692307692307696
 40
0.7692307692307696
 40
0.7884615384615389
 40
0.7884615384615389
 40
0.7884615384615389
 40
0.7884615384615389
 40
0.8076923076923082
 40
0.8076923076923082
 40
0.8076923076923082
 40
0.8076923076923082
 40
0.8269230769230774
 40
0.8269230769230774
 40
0.8269230769230774
 40
0.8269230769230774
 40
0.8461538461538467
 40
0.8461538461538467
 40
0.8461538461538467
 40
0.8461538461538467
 40
0.865384615384616
 40
0.865384615384616
 40
0.865384615384616
 40
0.865384615384616
 40
0.8846153846153852
 40
0.8846153846153852
 40
0.8846153846153852
 40
0.8846153846153852
 40
0.9038461538461545
 40
0.9038461538461545
 40
0.9038461538461545
 40
0.9038461538461545
 40
0.9230769230769238
 40
0.9230769230769238
 40
0.9230769230769238
 40
0.9230769230769238
 40
0.9423076923076931
 40
0.9423076923076931
 40
0.9423076923076931
 40
0.9423076923076931
 40
0.9615384615384623
 40
0.9615384615384623
 40
0.9615384615384623
 40
0.9615384615384623
 40
0.9807692307692316
 40
0.9807692307692316
 40
0.9807692307692316
 40
0.9807692307692316
 40
1.0
 40
1.0
 40
1.0
 40
1.0
 10
190.15065
 20
-28.81967
 30
0.0
 10
190.15065
 20
-28.81967
 30
0.0
 10
189.63034
 20
-29.01814
 30
0.0
 10
189.63034
 20
-29.01814
 30
0.0
 10
189.63034
 20
-29.01814
 30
0.0
 10
189.63034
 20
-29.01814
 30
0.0
 10
190.15065
 20
-29.21725
 30
0.0
 10
190.15065
 20
-29.21725
 30
0.0
 10
190.15065
 20
-29.21725
 30
0.0
 10
190.28318
 20
-29.26817
 30
0.0
 10
190.35956
 20
-29.3093
 30
0.0
 10
190.3798
 20
-29.33999
 30
0.0
 10
190.3798
 20
-29.33999
 30
0.0
 10
190.40004
 20
-29.37067
 30
0.0
 10
190.41048
 20
-29.4007
 30
0.0
 10
190.41048
 20
-29.43138
 30
0.0
 10
190.41048
 20
-29.43138
 30
0.0
 10
190.41048
 20
-29.51299
 30
0.0
 10
190.39547
 20
-29.55934
 30
0.0
 10
190.36544
 20
-29.56913
 30
0.0
 10
190.36544
 20
-29.56913
 30
0.0
 10
190.3354
 20
-29.57958
 30
0.0
 10
190.30537
 20
-29.5848
 30
0.0
 10
190.27534
 20
-29.5848
 30
0.0
 10
190.27534
 20
-29.5848
 30
0.0
 10
190.24531
 20
-29.5848
 30
0.0
 10
190.21528
 20
-29.57697
 30
0.0
 10
190.18525
 20
-29.56195
 30
0.0
 10
190.18525
 20
-29.56195
 30
0.0
 10
190.15522
 20
-29.54628
 30
0.0
 10
190.11997
 20
-29.52343
 30
0.0
 10
190.08014
 20
-29.49275
 30
0.0
 10
190.08014
 20
-29.49275
 30
0.0
 10
190.08014
 20
-29.49275
 30
0.0
 10
189.61467
 20
-29.06449
 30
0.0
 10
189.61467
 20
-29.06449
 30
0.0
 10
189.61467
 20
-29.06449
 30
0.0
 10
189.61467
 20
-29.06449
 30
0.0
 10
189.71978
 20
-29.70688
 30
0.0
 10
189.71978
 20
-29.70688
 30
0.0
 10
189.71978
 20
-29.70688
 30
0.0
 10
189.72957
 20
-29.73757
 30
0.0
 10
189.73479
 20
-29.76564
 30
0.0
 10
189.73479
 20
-29.7911
 30
0.0
 10
189.73479
 20
-29.7911
 30
0.0
 10
189.73479
 20
-29.81656
 30
0.0
 10
189.73479
 20
-29.83484
 30
0.0
 10
189.73479
 20
-29.84463
 30
0.0
 10
189.73479
 20
-29.84463
 30
0.0
 10
189.73479
 20
-29.906
 30
0.0
 10
189.71978
 20
-29.94909
 30
0.0
 10
189.68975
 20
-29.97455
 30
0.0
 10
189.68975
 20
-29.97455
 30
0.0
 10
189.65972
 20
-30.00001
 30
0.0
 10
189.62446
 20
-30.01306
 30
0.0
 10
189.58464
 20
-30.01306
 30
0.0
 10
189.58464
 20
-30.01306
 30
0.0
 10
189.5533
 20
-30.01306
 30
0.0
 10
189.51936
 20
-30.00262
 30
0.0
 10
189.4828
 20
-29.98238
 30
0.0
 10
189.4828
 20
-29.98238
 30
0.0
 10
189.44689
 20
-29.96214
 30
0.0
 10
189.42861
 20
-29.91644
 30
0.0
 10
189.42861
 20
-29.84463
 30
0.0
 10
189.42861
 20
-29.84463
 30
0.0
 10
189.42861
 20
-29.82439
 30
0.0
 10
189.43122
 20
-29.80416
 30
0.0
 10
189.43645
 20
-29.78326
 30
0.0
 10
189.43645
 20
-29.78326
 30
0.0
 10
189.44167
 20
-29.76303
 30
0.0
 10
189.44428
 20
-29.73757
 30
0.0
 10
189.44428
 20
-29.70688
 30
0.0
 10
189.44428
 20
-29.70688
 30
0.0
 10
189.44428
 20
-29.70688
 30
0.0
 10
189.56897
 20
-29.06449
 30
0.0
 10
189.56897
 20
-29.06449
 30
0.0
 10
189.56897
 20
-29.06449
 30
0.0
 10
189.56897
 20
-29.06449
 30
0.0
 10
189.08522
 20
-29.49275
 30
0.0
 10
189.08522
 20
-29.49275
 30
0.0
 10
189.08522
 20
-29.49275
 30
0.0
 10
189.05454
 20
-29.51299
 30
0.0
 10
189.02059
 20
-29.53388
 30
0.0
 10
188.98403
 20
-29.55412
 30
0.0
 10
188.98403
 20
-29.55412
 30
0.0
 10
188.94747
 20
-29.57436
 30
0.0
 10
188.91418
 20
-29.5848
 30
0.0
 10
188.88284
 20
-29.5848
 30
0.0
 10
188.88284
 20
-29.5848
 30
0.0
 10
188.8515
 20
-29.5848
 30
0.0
 10
188.82017
 20
-29.57436
 30
0.0
 10
188.78948
 20
-29.55412
 30
0.0
 10
188.78948
 20
-29.55412
 30
0.0
 10
188.75815
 20
-29.53388
 30
0.0
 10
188.74248
 20
-29.49275
 30
0.0
 10
188.74248
 20
-29.43138
 30
0.0
 10
188.74248
 20
-29.43138
 30
0.0
 10
188.74248
 20
-29.39091
 30
0.0
 10
188.75749
 20
-29.355
 30
0.0
 10
188.78818
 20
-29.32432
 30
0.0
 10
188.78818
 20
-29.32432
 30
0.0
 10
188.81886
 20
-29.29364
 30
0.0
 10
188.89067
 20
-29.25838
 30
0.0
 10
189.00231
 20
-29.21725
 30
0.0
 10
189.00231
 20
-29.21725
 30
0.0
 10
189.00231
 20
-29.21725
 30
0.0
 10
189.52262
 20
-29.01814
 30
0.0
 10
189.52262
 20
-29.01814
 30
0.0
 10
189.52262
 20
-29.01814
 30
0.0
 10
189.52262
 20
-29.01814
 30
0.0
 10
189.00231
 20
-28.81967
 30
0.0
 10
189.00231
 20
-28.81967
 30
0.0
 10
189.00231
 20
-28.81967
 30
0.0
 10
188.93115
 20
-28.78899
 30
0.0
 10
188.86978
 20
-28.76092
 30
0.0
 10
188.81886
 20
-28.73546
 30
0.0
 10
188.81886
 20
-28.73546
 30
0.0
 10
188.76794
 20
-28.71
 30
0.0
 10
188.74248
 20
-28.66626
 30
0.0
 10
188.74248
 20
-28.60554
 30
0.0
 10
188.74248
 20
-28.60554
 30
0.0
 10
188.74248
 20
-28.55462
 30
0.0
 10
188.75749
 20
-28.51611
 30
0.0
 10
188.78818
 20
-28.49064
 30
0.0
 10
188.78818
 20
-28.49064
 30
0.0
 10
188.81886
 20
-28.46518
 30
0.0
 10
188.84954
 20
-28.45213
 30
0.0
 10
188.88023
 20
-28.45213
 30
0.0
 10
188.88023
 20
-28.45213
 30
0.0
 10
188.91091
 20
-28.45213
 30
0.0
 10
188.94421
 20
-28.45996
 30
0.0
 10
188.97946
 20
-28.47498
 30
0.0
 10
188.97946
 20
-28.47498
 30
0.0
 10
189.01537
 20
-28.49064
 30
0.0
 10
189.04866
 20
-28.51349
 30
0.0
 10
189.07934
 20
-28.54418
 30
0.0
 10
189.07934
 20
-28.54418
 30
0.0
 10
189.07934
 20
-28.54418
 30
0.0
 10
189.55396
 20
-28.97244
 30
0.0
 10
189.55396
 20
-28.97244
 30
0.0
 10
189.55396
 20
-28.97244
 30
0.0
 10
189.55396
 20
-28.97244
 30
0.0
 10
189.44624
 20
-28.33005
 30
0.0
 10
189.44624
 20
-28.33005
 30
0.0
 10
189.44624
 20
-28.33005
 30
0.0
 10
189.44624
 20
-28.29936
 30
0.0
 10
189.44428
 20
-28.2739
 30
0.0
 10
189.43906
 20
-28.25366
 30
0.0
 10
189.43906
 20
-28.25366
 30
0.0
 10
189.43383
 20
-28.23277
 30
0.0
 10
189.43122
 20
-28.21254
 30
0.0
 10
189.43122
 20
-28.1923
 30
0.0
 10
189.43122
 20
-28.1923
 30
0.0
 10
189.43122
 20
-28.15117
 30
0.0
 10
189.44624
 20
-28.1133
 30
0.0
 10
189.47692
 20
-28.0774
 30
0.0
 10
189.47692
 20
-28.0774
 30
0.0
 10
189.50761
 20
-28.04149
 30
0.0
 10
189.54351
 20
-28.02386
 30
0.0
 10
189.58464
 20
-28.02386
 30
0.0
 10
189.58464
 20
-28.02386
 30
0.0
 10
189.64535
 20
-28.02386
 30
0.0
 10
189.68648
 20
-28.0441
 30
0.0
 10
189.70672
 20
-28.08523
 30
0.0
 10
189.70672
 20
-28.08523
 30
0.0
 10
189.72696
 20
-28.12571
 30
0.0
 10
189.7374
 20
-28.16161
 30
0.0
 10
189.7374
 20
-28.1923
 30
0.0
 10
189.7374
 20
-28.1923
 30
0.0
 10
189.7374
 20
-28.21254
 30
0.0
 10
189.7374
 20
-28.23538
 30
0.0
 10
189.7374
 20
-28.26085
 30
0.0
 10
189.7374
 20
-28.26085
 30
0.0
 10
189.7374
 20
-28.28631
 30
0.0
 10
189.73218
 20
-28.30981
 30
0.0
 10
189.72174
 20
-28.33005
 30
0.0
 10
189.72174
 20
-28.33005
 30
0.0
 10
189.72174
 20
-28.33005
 30
0.0
 10
189.59966
 20
-28.97244
 30
0.0
 10
189.59966
 20
-28.97244
 30
0.0
 10
189.59966
 20
-28.97244
 30
0.0
 10
189.59966
 20
-28.97244
 30
0.0
 10
190.07362
 20
-28.54418
 30
0.0
 10
190.07362
 20
-28.54418
 30
0.0
 10
190.07362
 20
-28.54418
 30
0.0
 10
190.11475
 20
-28.50305
 30
0.0
 10
190.15065
 20
-28.47759
 30
0.0
 10
190.18068
 20
-28.46779
 30
0.0
 10
190.18068
 20
-28.46779
 30
0.0
 10
190.21137
 20
-28.45735
 30
0.0
 10
190.24205
 20
-28.45213
 30
0.0
 10
190.27273
 20
-28.45213
 30
0.0
 10
190.27273
 20
-28.45213
 30
0.0
 10
190.31386
 20
-28.45213
 30
0.0
 10
190.3465
 20
-28.46779
 30
0.0
 10
190.37196
 20
-28.49848
 30
0.0
 10
190.37196
 20
-28.49848
 30
0.0
 10
190.39742
 20
-28.52851
 30
0.0
 10
190.41048
 20
-28.56442
 30
0.0
 10
190.41048
 20
-28.60554
 30
0.0
 10
190.41048
 20
-28.60554
 30
0.0
 10
190.41048
 20
-28.64602
 30
0.0
 10
190.40004
 20
-28.67931
 30
0.0
 10
190.3798
 20
-28.70478
 30
0.0
 10
190.3798
 20
-28.70478
 30
0.0
 10
190.35956
 20
-28.73024
 30
0.0
 10
190.28318
 20
-28.76875
 30
0.0
 10
190.15065
 20
-28.81967
 30
0.0
  0
SPLINE
  5
6D
330
1F
100
AcDbEntity
  8
layer 1
 62
   250
100
AcDbSpline
210
0.0
220
0.0
230
1.0
 70
    11
 71
     3
 72
   236
 73
   232
 74
     0
 42
0.0000000001
 43
0.0000000001
 40
0.0
 40
0.0
 40
0.0
 40
0.0
 40
0.0172413793103448
 40
0.0172413793103448
 40
0.0172413793103448
 40
0.0172413793103448
 40
0.0344827586206897
 40
0.0344827586206897
 40
0.0344827586206897
 40
0.0344827586206897
 40
0.0517241379310345
 40
0.0517241379310345
 40
0.0517241379310345
 40
0.0517241379310345
 40
0.0689655172413793
 40
0.0689655172413793
 40
0.0689655172413793
 40
0.0689655172413793
 40
0.0862068965517241
 40
0.0862068965517241
 40
0.0862068965517241
 40
0.0862068965517241
 40
0.103448275862069
 40
0.103448275862069
 40
0.103448275862069
 40
0.103448275862069
 40
0.1206896551724138
 40
0.1206896551724138
 40
0.1206896551724138
 40
0.1206896551724138
 40
0.1379310344827586
 40
0.1379310344827586
 40
0.1379310344827586
 40
0.1379310344827586
 40
0.1551724137931035
 40
0.1551724137931035
 40
0.1551724137931035
 40
0.1551724137931035
 40
0.1724137931034483
 40
0.1724137931034483
 40
0.1724137931034483
 40
0.1724137931034483
 40
0.1896551724137931
 40
0.1896551724137931
 40
0.1896551724137931
 40
0.1896551724137931
 40
0.206896551724138
 40
0.206896551724138
 40
0.206896551724138
 40
0.206896551724138
 40
0.2241379310344828
 40
0.2241379310344828
 40
0.2241379310344828
 40
0.2241379310344828
 40
0.2413793103448277
 40
0.2413793103448277
 40
0.2413793103448277
 40
0.2413793103448277
 40
0.2586206896551725
 40
0.2586206896551725
 40
0.2586206896551725
 40
0.2586206896551725
 40
0.2758620689655173
 40
0.2758620689655173
 40
0.2758620689655173
 40
0.2758620689655173
 40
0.2931034482758621
 40
0.2931034482758621
 40
0.2931034482758621
 40
0.2931034482758621
 40
0.3103448275862069
 40
0.3103448275862069
 40
0.3103448275862069
 40
0.3103448275862069
 40
0.3275862068965517
 40
0.3275862068965517
 40
0.3275862068965517
 40
0.3275862068965517
 40
0.3448275862068965
 40
0.3448275862068965
 40
0.3448275862068965
 40
0.3448275862068965
 40
0.3620689655172413
 40
0.3620689655172413
 40
0.3620689655172413
 40
0.3620689655172413
 40
0.3793103448275861
 40
0.3793103448275861
 40
0.3793103448275861
 40
0.3793103448275861
 40
0.3965517241379309
 40
0.3965517241379309
 40
0.3965517241379309
 40
0.3965517241379309
 40
0.4137931034482757
 40
0.4137931034482757
 40
0.4137931034482757
 40
0.4137931034482757
 40
0.4310344827586206
 40
0.4310344827586206
 40
0.4310344827586206
 40
0.4310344827586206
 40
0.4482758620689654
 40
0.4482758620689654
 40
0.4482758620689654
 40
0.4482758620689654
 40
0.4655172413793102
 40
0.4655172413793102
 40
0.4655172413793102
 40
0.4655172413793102
 40
0.482758620689655
 40
0.482758620689655
 40
0.482758620689655
 40
0.482758620689655
 40
0.4999999999999998
 40
0.4999999999999998
 40
0.4999999999999998
 40
0.4999999999999998
 40
0.5172413793103446
 40
0.5172413793103446
 40
0.5172413793103446
 40
0.5172413793103446
 40
0.5344827586206895
 40
0.5344827586206895
 40
0.5344827586206895
 40
0.5344827586206895
 40
0.5517241379310344
 40
0.5517241379310344
 40
0.5517241379310344
 40
0.5517241379310344
 40
0.5689655172413792
 40
0.5689655172413792
 40
0.5689655172413792
 40
0.5689655172413792
 40
0.5862068965517241
 40
0.5862068965517241
 40
0.5862068965517241
 40
0.5862068965517241
 40
0.603448275862069
 40
0.603448275862069
 40
0.603448275862069
 40
0.603448275862069
 40
0.6206896551724138
 40
0.6206896551724138
 40
0.6206896551724138
 40
0.6206896551724138
 40
0.6379310344827587
 40
0.6379310344827587
 40
0.6379310344827587
 40
0.6379310344827587
 40
0.6551724137931035
 40
0.6551724137931035
 40
0.6551724137931035
 40
0.6551724137931035
 40
0.6724137931034484
 40
0.6724137931034484
 40
0.6724137931034484
 40
0.6724137931034484
 40
0.6896551724137933
 40
0.6896551724137933
 40
0.6896551724137933
 40
0.6896551724137933
 40
0.7068965517241381
 40
0.7068965517241381
 40
0.7068965517241381
 40
0.7068965517241381
 40
0.724137931034483
 40
0.724137931034483
 40
0.724137931034483
 40
0.724137931034483
 40
0.7413793103448278
 40
0.7413793103448278
 40
0.7413793103448278
 40
0.7413793103448278
 40
0.7586206896551727
 40
0.7586206896551727
 40
0.7586206896551727
 40
0.7586206896551727
 40
0.7758620689655176
 40
0.7758620689655176
 40
0.7758620689655176
 40
0.7758620689655176
 40
0.7931034482758624
 40
0.7931034482758624
 40
0.7931034482758624
 40
0.7931034482758624
 40
0.8103448275862073
 40
0.8103448275862073
 40
0.8103448275862073
 40
0.8103448275862073
 40
0.8275862068965522
 40
0.8275862068965522
 40
0.8275862068965522
 40
0.8275862068965522
 40
0.844827586206897
 40
0.844827586206897
 40
0.844827586206897
 40
0.844827586206897
 40
0.8620689655172419
 40
0.8620689655172419
 40
0.8620689655172419
 40
0.8620689655172419
 40
0.8793103448275867
 40
0.8793103448275867
 40
0.8793103448275867
 40
0.8793103448275867
 40
0.8965517241379316
 40
0.8965517241379316
 40
0.8965517241379316
 40
0.8965517241379316
 40
0.9137931034482765
 40
0.9137931034482765
 40
0.9137931034482765
 40
0.9137931034482765
 40
0.9310344827586213
 40
0.9310344827586213
 40
0.9310344827586213
 40
0.9310344827586213
 40
0.9482758620689662
 40
0.9482758620689662
 40
0.9482758620689662
 40
0.9482758620689662
 40
0.965517241379311
 40
0.965517241379311
 40
0.965517241379311
 40
0.965517241379311
 40
0.9827586206896559
 40
0.9827586206896559
 40
0.9827586206896559
 40
0.9827586206896559
 40
1.0
 40
1.0
 40
1.0
 40
1.0
 10
183.9983
 20
-28.65124
 30
0.0
 10
184.05183
 20
-28.65124
 30
0.0
 10
184.10471
 20
-28.64602
 30
0.0
 10
184.15824
 20
-28.63557
 30
0.0
 10
184.15824
 20
-28.63557
 30
0.0
 10
184.21112
 20
-28.62578
 30
0.0
 10
184.25356
 20
-28.61011
 30
0.0
 10
184.28555
 20
-28.58988
 30
0.0
 10
184.28555
 20
-28.58988
 30
0.0
 10
184.28555
 20
-28.58988
 30
0.0
 10
184.31754
 20
-28.58988
 30
0.0
 10
184.31754
 20
-28.58988
 30
0.0
 10
184.31754
 20
-28.58988
 30
0.0
 10
184.31754
 20
-28.58988
 30
0.0
 10
184.31754
 20
-28.85036
 30
0.0
 10
184.31754
 20
-28.85036
 30
0.0
 10
184.31754
 20
-28.85036
 30
0.0
 10
184.36846
 20
-28.76875
 30
0.0
 10
184.4246
 20
-28.71
 30
0.0
 10
184.48597
 20
-28.67409
 30
0.0
 10
184.48597
 20
-28.67409
 30
0.0
 10
184.54734
 20
-28.63819
 30
0.0
 10
184.61327
 20
-28.62056
 30
0.0
 10
184.68508
 20
-28.62056
 30
0.0
 10
184.68508
 20
-28.62056
 30
0.0
 10
184.77648
 20
-28.62056
 30
0.0
 10
184.84829
 20
-28.63819
 30
0.0
 10
184.89922
 20
-28.67409
 30
0.0
 10
184.89922
 20
-28.67409
 30
0.0
 10
184.95014
 20
-28.71
 30
0.0
 10
184.98082
 20
-28.76875
 30
0.0
 10
184.99127
 20
-28.85036
 30
0.0
 10
184.99127
 20
-28.85036
 30
0.0
 10
185.04219
 20
-28.76875
 30
0.0
 10
185.10094
 20
-28.71
 30
0.0
 10
185.16688
 20
-28.67409
 30
0.0
 10
185.16688
 20
-28.67409
 30
0.0
 10
185.23347
 20
-28.63819
 30
0.0
 10
185.30202
 20
-28.62056
 30
0.0
 10
185.37383
 20
-28.62056
 30
0.0
 10
185.37383
 20
-28.62056
 30
0.0
 10
185.49591
 20
-28.62056
 30
0.0
 10
185.58013
 20
-28.65647
 30
0.0
 10
185.62648
 20
-28.72762
 30
0.0
 10
185.62648
 20
-28.72762
 30
0.0
 10
185.67218
 20
-28.79878
 30
0.0
 10
185.69503
 20
-28.89083
 30
0.0
 10
185.69503
 20
-29.00312
 30
0.0
 10
185.69503
 20
-29.00312
 30
0.0
 10
185.69503
 20
-29.00312
 30
0.0
 10
185.69503
 20
-30.16583
 30
0.0
 10
185.69503
 20
-30.16583
 30
0.0
 10
185.69503
 20
-30.16583
 30
0.0
 10
185.69503
 20
-30.2063
 30
0.0
 10
185.70547
 20
-30.23438
 30
0.0
 10
185.72571
 20
-30.25004
 30
0.0
 10
185.72571
 20
-30.25004
 30
0.0
 10
185.74595
 20
-30.26506
 30
0.0
 10
185.77663
 20
-30.27289
 30
0.0
 10
185.81711
 20
-30.27289
 30
0.0
 10
185.81711
 20
-30.27289
 30
0.0
 10
185.81711
 20
-30.27289
 30
0.0
 10
185.84779
 20
-30.27289
 30
0.0
 10
185.84779
 20
-30.27289
 30
0.0
 10
185.84779
 20
-30.27289
 30
0.0
 10
185.84779
 20
-30.27289
 30
0.0
 10
185.84779
 20
-30.36494
 30
0.0
 10
185.84779
 20
-30.36494
 30
0.0
 10
185.84779
 20
-30.36494
 30
0.0
 10
185.84779
 20
-30.36494
 30
0.0
 10
185.32813
 20
-30.36494
 30
0.0
 10
185.32813
 20
-30.36494
 30
0.0
 10
185.32813
 20
-30.36494
 30
0.0
 10
185.32813
 20
-30.36494
 30
0.0
 10
185.32813
 20
-30.27289
 30
0.0
 10
185.32813
 20
-30.27289
 30
0.0
 10
185.32813
 20
-30.27289
 30
0.0
 10
185.32813
 20
-30.27289
 30
0.0
 10
185.35881
 20
-30.27289
 30
0.0
 10
185.35881
 20
-30.27289
 30
0.0
 10
185.35881
 20
-30.27289
 30
0.0
 10
185.39929
 20
-30.27289
 30
0.0
 10
185.42997
 20
-30.26506
 30
0.0
 10
185.45021
 20
-30.25004
 30
0.0
 10
185.45021
 20
-30.25004
 30
0.0
 10
185.47045
 20
-30.23438
 30
0.0
 10
185.48089
 20
-30.2063
 30
0.0
 10
185.48089
 20
-30.16583
 30
0.0
 10
185.48089
 20
-30.16583
 30
0.0
 10
185.48089
 20
-30.16583
 30
0.0
 10
185.48089
 20
-29.01879
 30
0.0
 10
185.48089
 20
-29.01879
 30
0.0
 10
185.48089
 20
-29.01879
 30
0.0
 10
185.48089
 20
-28.9065
 30
0.0
 10
185.46784
 20
-28.83273
 30
0.0
 10
185.44238
 20
-28.79683
 30
0.0
 10
185.44238
 20
-28.79683
 30
0.0
 10
185.41692
 20
-28.76092
 30
0.0
 10
185.37905
 20
-28.74329
 30
0.0
 10
185.32748
 20
-28.74329
 30
0.0
 10
185.32748
 20
-28.74329
 30
0.0
 10
185.25632
 20
-28.74329
 30
0.0
 10
185.19234
 20
-28.76875
 30
0.0
 10
185.1362
 20
-28.81967
 30
0.0
 10
185.1362
 20
-28.81967
 30
0.0
 10
185.08005
 20
-28.8706
 30
0.0
 10
185.03696
 20
-28.94241
 30
0.0
 10
185.00628
 20
-29.03381
 30
0.0
 10
185.00628
 20
-29.03381
 30
0.0
 10
185.00628
 20
-29.03381
 30
0.0
 10
185.00628
 20
-30.16583
 30
0.0
 10
185.00628
 20
-30.16583
 30
0.0
 10
185.00628
 20
-30.16583
 30
0.0
 10
185.00628
 20
-30.2063
 30
0.0
 10
185.01673
 20
-30.23438
 30
0.0
 10
185.03696
 20
-30.25004
 30
0.0
 10
185.03696
 20
-30.25004
 30
0.0
 10
185.0572
 20
-30.26506
 30
0.0
 10
185.08789
 20
-30.27289
 30
0.0
 10
185.12836
 20
-30.27289
 30
0.0
 10
185.12836
 20
-30.27289
 30
0.0
 10
185.12836
 20
-30.27289
 30
0.0
 10
185.15905
 20
-30.27289
 30
0.0
 10
185.15905
 20
-30.27289
 30
0.0
 10
185.15905
 20
-30.27289
 30
0.0
 10
185.15905
 20
-30.27289
 30
0.0
 10
185.15905
 20
-30.36494
 30
0.0
 10
185.15905
 20
-30.36494
 30
0.0
 10
185.15905
 20
-30.36494
 30
0.0
 10
185.15905
 20
-30.36494
 30
0.0
 10
184.63939
 20
-30.36494
 30
0.0
 10
184.63939
 20
-30.36494
 30
0.0
 10
184.63939
 20
-30.36494
 30
0.0
 10
184.63939
 20
-30.36494
 30
0.0
 10
184.63939
 20
-30.27289
 30
0.0
 10
184.63939
 20
-30.27289
 30
0.0
 10
184.63939
 20
-30.27289
 30
0.0
 10
184.63939
 20
-30.27289
 30
0.0
 10
184.67007
 20
-30.27289
 30
0.0
 10
184.67007
 20
-30.27289
 30
0.0
 10
184.67007
 20
-30.27289
 30
0.0
 10
184.71055
 20
-30.27289
 30
0.0
 10
184.74123
 20
-30.26506
 30
0.0
 10
184.76147
 20
-30.25004
 30
0.0
 10
184.76147
 20
-30.25004
 30
0.0
 10
184.7817
 20
-30.23438
 30
0.0
 10
184.79215
 20
-30.2063
 30
0.0
 10
184.79215
 20
-30.16583
 30
0.0
 10
184.79215
 20
-30.16583
 30
0.0
 10
184.79215
 20
-30.16583
 30
0.0
 10
184.79215
 20
-29.01879
 30
0.0
 10
184.79215
 20
-29.01879
 30
0.0
 10
184.79215
 20
-29.01879
 30
0.0
 10
184.79215
 20
-28.92674
 30
0.0
 10
184.7817
 20
-28.85819
 30
0.0
 10
184.76147
 20
-28.81184
 30
0.0
 10
184.76147
 20
-28.81184
 30
0.0
 10
184.74123
 20
-28.76614
 30
0.0
 10
184.7001
 20
-28.74329
 30
0.0
 10
184.63873
 20
-28.74329
 30
0.0
 10
184.63873
 20
-28.74329
 30
0.0
 10
184.56757
 20
-28.74329
 30
0.0
 10
184.5036
 20
-28.76875
 30
0.0
 10
184.44745
 20
-28.81967
 30
0.0
 10
184.44745
 20
-28.81967
 30
0.0
 10
184.39131
 20
-28.8706
 30
0.0
 10
184.34822
 20
-28.94698
 30
0.0
 10
184.31754
 20
-29.04947
 30
0.0
 10
184.31754
 20
-29.04947
 30
0.0
 10
184.31754
 20
-29.04947
 30
0.0
 10
184.31754
 20
-30.16583
 30
0.0
 10
184.31754
 20
-30.16583
 30
0.0
 10
184.31754
 20
-30.16583
 30
0.0
 10
184.31754
 20
-30.2063
 30
0.0
 10
184.32798
 20
-30.23438
 30
0.0
 10
184.34822
 20
-30.25004
 30
0.0
 10
184.34822
 20
-30.25004
 30
0.0
 10
184.36846
 20
-30.26506
 30
0.0
 10
184.39914
 20
-30.27289
 30
0.0
 10
184.43962
 20
-30.27289
 30
0.0
 10
184.43962
 20
-30.27289
 30
0.0
 10
184.43962
 20
-30.27289
 30
0.0
 10
184.4703
 20
-30.27289
 30
0.0
 10
184.4703
 20
-30.27289
 30
0.0
 10
184.4703
 20
-30.27289
 30
0.0
 10
184.4703
 20
-30.27289
 30
0.0
 10
184.4703
 20
-30.36494
 30
0.0
 10
184.4703
 20
-30.36494
 30
0.0
 10
184.4703
 20
-30.36494
 30
0.0
 10
184.4703
 20
-30.36494
 30
0.0
 10
183.95064
 20
-30.36494
 30
0.0
 10
183.95064
 20
-30.36494
 30
0.0
 10
183.95064
 20
-30.36494
 30
0.0
 10
183.95064
 20
-30.36494
 30
0.0
 10
183.95064
 20
-30.27289
 30
0.0
 10
183.95064
 20
-30.27289
 30
0.0
 10
183.95064
 20
-30.27289
 30
0.0
 10
183.95064
 20
-30.27289
 30
0.0
 10
183.98132
 20
-30.27289
 30
0.0
 10
183.98132
 20
-30.27289
 30
0.0
 10
183.98132
 20
-30.27289
 30
0.0
 10
184.0218
 20
-30.27289
 30
0.0
 10
184.05248
 20
-30.26506
 30
0.0
 10
184.07272
 20
-30.25004
 30
0.0
 10
184.07272
 20
-30.25004
 30
0.0
 10
184.09296
 20
-30.23438
 30
0.0
 10
184.10341
 20
-30.2063
 30
0.0
 10
184.10341
 20
-30.16583
 30
0.0
 10
184.10341
 20
-30.16583
 30
0.0
 10
184.10341
 20
-30.16583
 30
0.0
 10
184.10341
 20
-28.83534
 30
0.0
 10
184.10341
 20
-28.83534
 30
0.0
 10
184.10341
 20
-28.83534
 30
0.0
 10
184.10341
 20
-28.80466
 30
0.0
 10
184.09753
 20
-28.78181
 30
0.0
 10
184.08643
 20
-28.76614
 30
0.0
 10
184.08643
 20
-28.76614
 30
0.0
 10
184.07533
 20
-28.75113
 30
0.0
 10
184.05248
 20
-28.74329
 30
0.0
 10
184.01854
 20
-28.74329
 30
0.0
 10
184.01854
 20
-28.74329
 30
0.0
 10
184.01854
 20
-28.74329
 30
0.0
 10
183.95064
 20
-28.74329
 30
0.0
 10
183.95064
 20
-28.74329
 30
0.0
 10
183.95064
 20
-28.74329
 30
0.0
 10
183.95064
 20
-28.74329
 30
0.0
 10
183.95064
 20
-28.65124
 30
0.0
 10
183.95064
 20
-28.65124
 30
0.0
 10
183.95064
 20
-28.65124
 30
0.0
 10
183.95064
 20
-28.65124
 30
0.0
 10
183.9983
 20
-28.65124
 30
0.0
 10
183.9983
 20
-28.65124
 30
0.0
  0
SPLINE
  5
6E
330
1F
100
AcDbEntity
  8
layer 1
 62
   250
100
AcDbSpline
210
0.0
220
0.0
230
1.0
 70
    11
 71
     3
 72
   236
 73
   232
 74
     0
 42
0.0000000001
 43
0.0000000001
 40
0.0
 40
0.0
 40
0.0
 40
0.0
 40
0.0172413793103448
 40
0.0172413793103448
 40
0.0172413793103448
 40
0.0172413793103448
 40
0.0344827586206897
 40
0.0344827586206897
 40
0.0344827586206897
 40
0.0344827586206897
 40
0.0517241379310345
 40
0.0517241379310345
 40
0.0517241379310345
 40
0.0517241379310345
 40
0.0689655172413793
 40
0.0689655172413793
 40
0.0689655172413793
 40
0.0689655172413793
 40
0.0862068965517241
 40
0.0862068965517241
 40
0.0862068965517241
 40
0.0862068965517241
 40
0.103448275862069
 40
0.103448275862069
 40
0.103448275862069
 40
0.103448275862069
 40
0.1206896551724138
 40
0.1206896551724138
 40
0.1206896551724138
 40
0.1206896551724138
 40
0.1379310344827586
 40
0.1379310344827586
 40
0.1379310344827586
 40
0.1379310344827586
 40
0.1551724137931035
 40
0.1551724137931035
 40
0.1551724137931035
 40
0.1551724137931035
 40
0.1724137931034483
 40
0.1724137931034483
 40
0.1724137931034483
 40
0.1724137931034483
 40
0.1896551724137931
 40
0.1896551724137931
 40
0.1896551724137931
 40
0.1896551724137931
 40
0.206896551724138
 40
0.206896551724138
 40
0.206896551724138
 40
0.206896551724138
 40
0.2241379310344828
 40
0.2241379310344828
 40
0.2241379310344828
 40
0.2241379310344828
 40
0.2413793103448277
 40
0.2413793103448277
 40
0.2413793103448277
 40
0.2413793103448277
 40
0.2586206896551725
 40
0.2586206896551725
 40
0.2586206896551725
 40
0.2586206896551725
 40
0.2758620689655173
 40
0.2758620689655173
 40
0.2758620689655173
 40
0.2758620689655173
 40
0.2931034482758621
 40
0.2931034482758621
 40
0.2931034482758621
 40
0.2931034482758621
 40
0.3103448275862069
 40
0.3103448275862069
 40
0.3103448275862069
 40
0.3103448275862069
 40
0.3275862068965517
 40
0.3275862068965517
 40
0.3275862068965517
 40
0.3275862068965517
 40
0.3448275862068965
 40
0.3448275862068965
 40
0.3448275862068965
 40
0.3448275862068965
 40
0.3620689655172413
 40
0.3620689655172413
 40
0.3620689655172413
 40
0.3620689655172413
 40
0.3793103448275861
 40
0.3793103448275861
 40
0.3793103448275861
 40
0.3793103448275861
 40
0.3965517241379309
 40
0.3965517241379309
 40
0.3965517241379309
 40
0.3965517241379309
 40
0.4137931034482757
 40
0.4137931034482757
 40
0.4137931034482757
 40
0.4137931034482757
 40
0.4310344827586206
 40
0.4310344827586206
 40
0.4310344827586206
 40
0.4310344827586206
 40
0.4482758620689654
 40
0.4482758620689654
 40
0.4482758620689654
 40
0.4482758620689654
 40
0.4655172413793102
 40
0.4655172413793102
 40
0.4655172413793102
 40
0.4655172413793102
 40
0.482758620689655
 40
0.482758620689655
 40
0.482758620689655
 40
0.482758620689655
 40
0.4999999999999998
 40
0.4999999999999998
 40
0.4999999999999998
 40
0.4999999999999998
 40
0.5172413793103446
 40
0.5172413793103446
 40
0.5172413793103446
 40
0.5172413793103446
 40
0.5344827586206895
 40
0.5344827586206895
 40
0.5344827586206895
 40
0.5344827586206895
 40
0.5517241379310344
 40
0.5517241379310344
 40
0.5517241379310344
 40
0.5517241379310344
 40
0.5689655172413792
 40
0.5689655172413792
 40
0.5689655172413792
 40
0.5689655172413792
 40
0.5862068965517241
 40
0.5862068965517241
 40
0.5862068965517241
 40
0.5862068965517241
 40
0.603448275862069
 40
0.603448275862069
 40
0.603448275862069
 40
0.603448275862069
 40
0.6206896551724138
 40
0.6206896551724138
 40
0.6206896551724138
 40
0.6206896551724138
 40
0.6379310344827587
 40
0.6379310344827587
 40
0.6379310344827587
 40
0.6379310344827587
 40
0.6551724137931035
 40
0.6551724137931035
 40
0.6551724137931035
 40
0.6551724137931035
 40
0.6724137931034484
 40
0.6724137931034484
 40
0.6724137931034484
 40
0.6724137931034484
 40
0.6896551724137933
 40
0.6896551724137933
 40
0.6896551724137933
 40
0.6896551724137933
 40
0.7068965517241381
 40
0.7068965517241381
 40
0.7068965517241381
 40
0.7068965517241381
 40
0.724137931034483
 40
0.724137931034483
 40
0.724137931034483
 40
0.724137931034483
 40
0.7413793103448278
 40
0.7413793103448278
 40
0.7413793103448278
 40
0.7413793103448278
 40
0.7586206896551727
 40
0.7586206896551727
 40
0.7586206896551727
 40
0.7586206896551727
 40
0.7758620689655176
 40
0.7758620689655176
 40
0.7758620689655176
 40
0.7758620689655176
 40
0.7931034482758624
 40
0.7931034482758624
 40
0.7931034482758624
 40
0.7931034482758624
 40
0.8103448275862073
 40
0.8103448275862073
 40
0.8103448275862073
 40
0.8103448275862073
 40
0.8275862068965522
 40
0.8275862068965522
 40
0.8275862068965522
 40
0.8275862068965522
 40
0.844827586206897
 40
0.844827586206897
 40
0.844827586206897
 40
0.844827586206897
 40
0.8620689655172419
 40
0.8620689655172419
 40
0.8620689655172419
 40
0.8620689655172419
 40
0.8793103448275867
 40
0.8793103448275867
 40
0.8793103448275867
 40
0.8793103448275867
 40
0.8965517241379316
 40
0.8965517241379316
 40
0.8965517241379316
 40
0.8965517241379316
 40
0.9137931034482765
 40
0.9137931034482765
 40
0.9137931034482765
 40
0.9137931034482765
 40
0.9310344827586213
 40
0.9310344827586213
 40
0.9310344827586213
 40
0.9310344827586213
 40
0.9482758620689662
 40
0.9482758620689662
 40
0.9482758620689662
 40
0.9482758620689662
 40
0.965517241379311
 40
0.965517241379311
 40
0.965517241379311
 40
0.965517241379311
 40
0.9827586206896559
 40
0.9827586206896559
 40
0.9827586206896559
 40
0.9827586206896559
 40
1.0
 40
1.0
 40
1.0
 40
1.0
 10
186.34852
 20
-28.65124
 30
0.0
 10
186.40205
 20
-28.65124
 30
0.0
 10
186.45493
 20
-28.64602
 30
0.0
 10
186.50846
 20
-28.63557
 30
0.0
 10
186.50846
 20
-28.63557
 30
0.0
 10
186.56134
 20
-28.62578
 30
0.0
 10
186.60378
 20
-28.61011
 30
0.0
 10
186.63577
 20
-28.58988
 30
0.0
 10
186.63577
 20
-28.58988
 30
0.0
 10
186.63577
 20
-28.58988
 30
0.0
 10
186.66776
 20
-28.58988
 30
0.0
 10
186.66776
 20
-28.58988
 30
0.0
 10
186.66776
 20
-28.58988
 30
0.0
 10
186.66776
 20
-28.58988
 30
0.0
 10
186.66776
 20
-28.85036
 30
0.0
 10
186.66776
 20
-28.85036
 30
0.0
 10
186.66776
 20
-28.85036
 30
0.0
 10
186.71868
 20
-28.76875
 30
0.0
 10
186.77482
 20
-28.71
 30
0.0
 10
186.83619
 20
-28.67409
 30
0.0
 10
186.83619
 20
-28.67409
 30
0.0
 10
186.89756
 20
-28.63819
 30
0.0
 10
186.96349
 20
-28.62056
 30
0.0
 10
187.0353
 20
-28.62056
 30
0.0
 10
187.0353
 20
-28.62056
 30
0.0
 10
187.1267
 20
-28.62056
 30
0.0
 10
187.19851
 20
-28.63819
 30
0.0
 10
187.24944
 20
-28.67409
 30
0.0
 10
187.24944
 20
-28.67409
 30
0.0
 10
187.30036
 20
-28.71
 30
0.0
 10
187.33104
 20
-28.76875
 30
0.0
 10
187.34149
 20
-28.85036
 30
0.0
 10
187.34149
 20
-28.85036
 30
0.0
 10
187.39241
 20
-28.76875
 30
0.0
 10
187.45116
 20
-28.71
 30
0.0
 10
187.5171
 20
-28.67409
 30
0.0
 10
187.5171
 20
-28.67409
 30
0.0
 10
187.58369
 20
-28.63819
 30
0.0
 10
187.65224
 20
-28.62056
 30
0.0
 10
187.72405
 20
-28.62056
 30
0.0
 10
187.72405
 20
-28.62056
 30
0.0
 10
187.84613
 20
-28.62056
 30
0.0
 10
187.93035
 20
-28.65647
 30
0.0
 10
187.9767
 20
-28.72762
 30
0.0
 10
187.9767
 20
-28.72762
 30
0.0
 10
188.0224
 20
-28.79878
 30
0.0
 10
188.04525
 20
-28.89083
 30
0.0
 10
188.04525
 20
-29.00312
 30
0.0
 10
188.04525
 20
-29.00312
 30
0.0
 10
188.04525
 20
-29.00312
 30
0.0
 10
188.04525
 20
-30.16583
 30
0.0
 10
188.04525
 20
-30.16583
 30
0.0
 10
188.04525
 20
-30.16583
 30
0.0
 10
188.04525
 20
-30.2063
 30
0.0
 10
188.05569
 20
-30.23438
 30
0.0
 10
188.07593
 20
-30.25004
 30
0.0
 10
188.07593
 20
-30.25004
 30
0.0
 10
188.09617
 20
-30.26506
 30
0.0
 10
188.12685
 20
-30.27289
 30
0.0
 10
188.16733
 20
-30.27289
 30
0.0
 10
188.16733
 20
-30.27289
 30
0.0
 10
188.16733
 20
-30.27289
 30
0.0
 10
188.19801
 20
-30.27289
 30
0.0
 10
188.19801
 20
-30.27289
 30
0.0
 10
188.19801
 20
-30.27289
 30
0.0
 10
188.19801
 20
-30.27289
 30
0.0
 10
188.19801
 20
-30.36494
 30
0.0
 10
188.19801
 20
-30.36494
 30
0.0
 10
188.19801
 20
-30.36494
 30
0.0
 10
188.19801
 20
-30.36494
 30
0.0
 10
187.67835
 20
-30.36494
 30
0.0
 10
187.67835
 20
-30.36494
 30
0.0
 10
187.67835
 20
-30.36494
 30
0.0
 10
187.67835
 20
-30.36494
 30
0.0
 10
187.67835
 20
-30.27289
 30
0.0
 10
187.67835
 20
-30.27289
 30
0.0
 10
187.67835
 20
-30.27289
 30
0.0
 10
187.67835
 20
-30.27289
 30
0.0
 10
187.70903
 20
-30.27289
 30
0.0
 10
187.70903
 20
-30.27289
 30
0.0
 10
187.70903
 20
-30.27289
 30
0.0
 10
187.74951
 20
-30.27289
 30
0.0
 10
187.78019
 20
-30.26506
 30
0.0
 10
187.80043
 20
-30.25004
 30
0.0
 10
187.80043
 20
-30.25004
 30
0.0
 10
187.82067
 20
-30.23438
 30
0.0
 10
187.83111
 20
-30.2063
 30
0.0
 10
187.83111
 20
-30.16583
 30
0.0
 10
187.83111
 20
-30.16583
 30
0.0
 10
187.83111
 20
-30.16583
 30
0.0
 10
187.83111
 20
-29.01879
 30
0.0
 10
187.83111
 20
-29.01879
 30
0.0
 10
187.83111
 20
-29.01879
 30
0.0
 10
187.83111
 20
-28.9065
 30
0.0
 10
187.81806
 20
-28.83273
 30
0.0
 10
187.7926
 20
-28.79683
 30
0.0
 10
187.7926
 20
-28.79683
 30
0.0
 10
187.76714
 20
-28.76092
 30
0.0
 10
187.72927
 20
-28.74329
 30
0.0
 10
187.6777
 20
-28.74329
 30
0.0
 10
187.6777
 20
-28.74329
 30
0.0
 10
187.60654
 20
-28.74329
 30
0.0
 10
187.54256
 20
-28.76875
 30
0.0
 10
187.48642
 20
-28.81967
 30
0.0
 10
187.48642
 20
-28.81967
 30
0.0
 10
187.43027
 20
-28.8706
 30
0.0
 10
187.38718
 20
-28.94241
 30
0.0
 10
187.3565
 20
-29.03381
 30
0.0
 10
187.3565
 20
-29.03381
 30
0.0
 10
187.3565
 20
-29.03381
 30
0.0
 10
187.3565
 20
-30.16583
 30
0.0
 10
187.3565
 20
-30.16583
 30
0.0
 10
187.3565
 20
-30.16583
 30
0.0
 10
187.3565
 20
-30.2063
 30
0.0
 10
187.36695
 20
-30.23438
 30
0.0
 10
187.38718
 20
-30.25004
 30
0.0
 10
187.38718
 20
-30.25004
 30
0.0
 10
187.40742
 20
-30.26506
 30
0.0
 10
187.43811
 20
-30.27289
 30
0.0
 10
187.47858
 20
-30.27289
 30
0.0
 10
187.47858
 20
-30.27289
 30
0.0
 10
187.47858
 20
-30.27289
 30
0.0
 10
187.50927
 20
-30.27289
 30
0.0
 10
187.50927
 20
-30.27289
 30
0.0
 10
187.50927
 20
-30.27289
 30
0.0
 10
187.50927
 20
-30.27289
 30
0.0
 10
187.50927
 20
-30.36494
 30
0.0
 10
187.50927
 20
-30.36494
 30
0.0
 10
187.50927
 20
-30.36494
 30
0.0
 10
187.50927
 20
-30.36494
 30
0.0
 10
186.98961
 20
-30.36494
 30
0.0
 10
186.98961
 20
-30.36494
 30
0.0
 10
186.98961
 20
-30.36494
 30
0.0
 10
186.98961
 20
-30.36494
 30
0.0
 10
186.98961
 20
-30.27289
 30
0.0
 10
186.98961
 20
-30.27289
 30
0.0
 10
186.98961
 20
-30.27289
 30
0.0
 10
186.98961
 20
-30.27289
 30
0.0
 10
187.02029
 20
-30.27289
 30
0.0
 10
187.02029
 20
-30.27289
 30
0.0
 10
187.02029
 20
-30.27289
 30
0.0
 10
187.06077
 20
-30.27289
 30
0.0
 10
187.09145
 20
-30.26506
 30
0.0
 10
187.11169
 20
-30.25004
 30
0.0
 10
187.11169
 20
-30.25004
 30
0.0
 10
187.13192
 20
-30.23438
 30
0.0
 10
187.14237
 20
-30.2063
 30
0.0
 10
187.14237
 20
-30.16583
 30
0.0
 10
187.14237
 20
-30.16583
 30
0.0
 10
187.14237
 20
-30.16583
 30
0.0
 10
187.14237
 20
-29.01879
 30
0.0
 10
187.14237
 20
-29.01879
 30
0.0
 10
187.14237
 20
-29.01879
 30
0.0
 10
187.14237
 20
-28.92674
 30
0.0
 10
187.13192
 20
-28.85819
 30
0.0
 10
187.11169
 20
-28.81184
 30
0.0
 10
187.11169
 20
-28.81184
 30
0.0
 10
187.09145
 20
-28.76614
 30
0.0
 10
187.05032
 20
-28.74329
 30
0.0
 10
186.98895
 20
-28.74329
 30
0.0
 10
186.98895
 20
-28.74329
 30
0.0
 10
186.91779
 20
-28.74329
 30
0.0
 10
186.85382
 20
-28.76875
 30
0.0
 10
186.79767
 20
-28.81967
 30
0.0
 10
186.79767
 20
-28.81967
 30
0.0
 10
186.74153
 20
-28.8706
 30
0.0
 10
186.69844
 20
-28.94698
 30
0.0
 10
186.66776
 20
-29.04947
 30
0.0
 10
186.66776
 20
-29.04947
 30
0.0
 10
186.66776
 20
-29.04947
 30
0.0
 10
186.66776
 20
-30.16583
 30
0.0
 10
186.66776
 20
-30.16583
 30
0.0
 10
186.66776
 20
-30.16583
 30
0.0
 10
186.66776
 20
-30.2063
 30
0.0
 10
186.6782
 20
-30.23438
 30
0.0
 10
186.69844
 20
-30.25004
 30
0.0
 10
186.69844
 20
-30.25004
 30
0.0
 10
186.71868
 20
-30.26506
 30
0.0
 10
186.74936
 20
-30.27289
 30
0.0
 10
186.78984
 20
-30.27289
 30
0.0
 10
186.78984
 20
-30.27289
 30
0.0
 10
186.78984
 20
-30.27289
 30
0.0
 10
186.82052
 20
-30.27289
 30
0.0
 10
186.82052
 20
-30.27289
 30
0.0
 10
186.82052
 20
-30.27289
 30
0.0
 10
186.82052
 20
-30.27289
 30
0.0
 10
186.82052
 20
-30.36494
 30
0.0
 10
186.82052
 20
-30.36494
 30
0.0
 10
186.82052
 20
-30.36494
 30
0.0
 10
186.82052
 20
-30.36494
 30
0.0
 10
186.30086
 20
-30.36494
 30
0.0
 10
186.30086
 20
-30.36494
 30
0.0
 10
186.30086
 20
-30.36494
 30
0.0
 10
186.30086
 20
-30.36494
 30
0.0
 10
186.30086
 20
-30.27289
 30
0.0
 10
186.30086
 20
-30.27289
 30
0.0
 10
186.30086
 20
-30.27289
 30
0.0
 10
186.30086
 20
-30.27289
 30
0.0
 10
186.33154
 20
-30.27289
 30
0.0
 10
186.33154
 20
-30.27289
 30
0.0
 10
186.33154
 20
-30.27289
 30
0.0
 10
186.37202
 20
-30.27289
 30
0.0
 10
186.4027
 20
-30.26506
 30
0.0
 10
186.42294
 20
-30.25004
 30
0.0
 10
186.42294
 20
-30.25004
 30
0.0
 10
186.44318
 20
-30.23438
 30
0.0
 10
186.45363
 20
-30.2063
 30
0.0
 10
186.45363
 20
-30.16583
 30
0.0
 10
186.45363
 20
-30.16583
 30
0.0
 10
186.45363
 20
-30.16583
 30
0.0
 10
186.45363
 20
-28.83534
 30
0.0
 10
186.45363
 20
-28.83534
 30
0.0
 10
186.45363
 20
-28.83534
 30
0.0
 10
186.45363
 20
-28.80466
 30
0.0
 10
186.44775
 20
-28.78181
 30
0.0
 10
186.43665
 20
-28.76614
 30
0.0
 10
186.43665
 20
-28.76614
 30
0.0
 10
186.42555
 20
-28.75113
 30
0.0
 10
186.4027
 20
-28.74329
 30
0.0
 10
186.36876
 20
-28.74329
 30
0.0
 10
186.36876
 20
-28.74329
 30
0.0
 10
186.36876
 20
-28.74329
 30
0.0
 10
186.30086
 20
-28.74329
 30
0.0
 10
186.30086
 20
-28.74329
 30
0.0
 10
186.30086
 20
-28.74329
 30
0.0
 10
186.30086
 20
-28.74329
 30
0.0
 10
186.30086
 20
-28.65124
 30
0.0
 10
186.30086
 20
-28.65124
 30
0.0
 10
186.30086
 20
-28.65124
 30
0.0
 10
186.30086
 20
-28.65124
 30
0.0
 10
186.34852
 20
-28.65124
 30
0.0
 10
186.34852
 20
-28.65124
 30
0.0
  0
SPLINE
  5
6F
330
1F
100
AcDbEntity
  8
layer 1
 62
   250
100
AcDbSpline
210
0.0
220
0.0
230
1.0
 70
    11
 71
     3
 72
   120
 73
   116
 74
     0
 42
0.0000000001
 43
0.0000000001
 40
0.0
 40
0.0
 40
0.0
 40
0.0
 40
0.0344827586206897
 40
0.0344827586206897
 40
0.0344827586206897
 40
0.0344827586206897
 40
0.0689655172413793
 40
0.0689655172413793
 40
0.0689655172413793
 40
0.0689655172413793
 40
0.103448275862069
 40
0.103448275862069
 40
0.103448275862069
 40
0.103448275862069
 40
0.1379310344827586
 40
0.1379310344827586
 40
0.1379310344827586
 40
0.1379310344827586
 40
0.1724137931034483
 40
0.1724137931034483
 40
0.1724137931034483
 40
0.1724137931034483
 40
0.206896551724138
 40
0.206896551724138
 40
0.206896551724138
 40
0.206896551724138
 40
0.2413793103448276
 40
0.2413793103448276
 40
0.2413793103448276
 40
0.2413793103448276
 40
0.2758620689655173
 40
0.2758620689655173
 40
0.2758620689655173
 40
0.2758620689655173
 40
0.310344827586207
 40
0.310344827586207
 40
0.310344827586207
 40
0.310344827586207
 40
0.3448275862068966
 40
0.3448275862068966
 40
0.3448275862068966
 40
0.3448275862068966
 40
0.3793103448275863
 40
0.3793103448275863
 40
0.3793103448275863
 40
0.3793103448275863
 40
0.413793103448276
 40
0.413793103448276
 40
0.413793103448276
 40
0.413793103448276
 40
0.4482758620689656
 40
0.4482758620689656
 40
0.4482758620689656
 40
0.4482758620689656
 40
0.4827586206896553
 40
0.4827586206896553
 40
0.4827586206896553
 40
0.4827586206896553
 40
0.517241379310345
 40
0.517241379310345
 40
0.517241379310345
 40
0.517241379310345
 40
0.5517241379310346
 40
0.5517241379310346
 40
0.5517241379310346
 40
0.5517241379310346
 40
0.5862068965517242
 40
0.5862068965517242
 40
0.5862068965517242
 40
0.5862068965517242
 40
0.6206896551724138
 40
0.6206896551724138
 40
0.6206896551724138
 40
0.6206896551724138
 40
0.6551724137931034
 40
0.6551724137931034
 40
0.6551724137931034
 40
0.6551724137931034
 40
0.689655172413793
 40
0.689655172413793
 40
0.689655172413793
 40
0.689655172413793
 40
0.7241379310344827
 40
0.7241379310344827
 40
0.7241379310344827
 40
0.7241379310344827
 40
0.7586206896551723
 40
0.7586206896551723
 40
0.7586206896551723
 40
0.7586206896551723
 40
0.7931034482758619
 40
0.7931034482758619
 40
0.7931034482758619
 40
0.7931034482758619
 40
0.8275862068965515
 40
0.8275862068965515
 40
0.8275862068965515
 40
0.8275862068965515
 40
0.8620689655172411
 40
0.8620689655172411
 40
0.8620689655172411
 40
0.8620689655172411
 40
0.8965517241379307
 40
0.8965517241379307
 40
0.8965517241379307
 40
0.8965517241379307
 40
0.9310344827586203
 40
0.9310344827586203
 40
0.9310344827586203
 40
0.9310344827586203
 40
0.9655172413793099
 40
0.9655172413793099
 40
0.9655172413793099
 40
0.9655172413793099
 40
1.0
 40
1.0
 40
1.0
 40
1.0
 10
192.37814
 20
-28.39076
 30
0.0
 10
192.37814
 20
-28.20731
 30
0.0
 10
192.33701
 20
-28.06695
 30
0.0
 10
192.2554
 20
-27.97033
 30
0.0
 10
192.2554
 20
-27.97033
 30
0.0
 10
192.1738
 20
-27.87306
 30
0.0
 10
192.05172
 20
-27.82475
 30
0.0
 10
191.88851
 20
-27.82475
 30
0.0
 10
191.88851
 20
-27.82475
 30
0.0
 10
191.76578
 20
-27.82475
 30
0.0
 10
191.66132
 20
-27.85804
 30
0.0
 10
191.57449
 20
-27.92398
 30
0.0
 10
191.57449
 20
-27.92398
 30
0.0
 10
191.48767
 20
-27.99057
 30
0.0
 10
191.44458
 20
-28.07479
 30
0.0
 10
191.44458
 20
-28.17663
 30
0.0
 10
191.44458
 20
-28.17663
 30
0.0
 10
191.44458
 20
-28.238
 30
0.0
 10
191.46221
 20
-28.28892
 30
0.0
 10
191.49811
 20
-28.32939
 30
0.0
 10
191.49811
 20
-28.32939
 30
0.0
 10
191.53402
 20
-28.37052
 30
0.0
 10
191.55164
 20
-28.411
 30
0.0
 10
191.55164
 20
-28.45213
 30
0.0
 10
191.55164
 20
-28.45213
 30
0.0
 10
191.55164
 20
-28.50305
 30
0.0
 10
191.53859
 20
-28.54091
 30
0.0
 10
191.51313
 20
-28.56637
 30
0.0
 10
191.51313
 20
-28.56637
 30
0.0
 10
191.48767
 20
-28.59183
 30
0.0
 10
191.4498
 20
-28.60489
 30
0.0
 10
191.39888
 20
-28.60489
 30
0.0
 10
191.39888
 20
-28.60489
 30
0.0
 10
191.33751
 20
-28.60489
 30
0.0
 10
191.2892
 20
-28.58726
 30
0.0
 10
191.2533
 20
-28.55136
 30
0.0
 10
191.2533
 20
-28.55136
 30
0.0
 10
191.21739
 20
-28.51545
 30
0.0
 10
191.19976
 20
-28.4567
 30
0.0
 10
191.19976
 20
-28.37574
 30
0.0
 10
191.19976
 20
-28.37574
 30
0.0
 10
191.19976
 20
-28.16096
 30
0.0
 10
191.27615
 20
-27.9984
 30
0.0
 10
191.42956
 20
-27.88612
 30
0.0
 10
191.42956
 20
-27.88612
 30
0.0
 10
191.58233
 20
-27.77383
 30
0.0
 10
191.74554
 20
-27.71768
 30
0.0
 10
191.91919
 20
-27.71768
 30
0.0
 10
191.91919
 20
-27.71768
 30
0.0
 10
192.16335
 20
-27.71768
 30
0.0
 10
192.34484
 20
-27.77905
 30
0.0
 10
192.4617
 20
-27.90113
 30
0.0
 10
192.4617
 20
-27.90113
 30
0.0
 10
192.57921
 20
-28.02386
 30
0.0
 10
192.63797
 20
-28.17663
 30
0.0
 10
192.63797
 20
-28.36008
 30
0.0
 10
192.63797
 20
-28.36008
 30
0.0
 10
192.63797
 20
-28.48281
 30
0.0
 10
192.6099
 20
-28.60489
 30
0.0
 10
192.55375
 20
-28.72762
 30
0.0
 10
192.55375
 20
-28.72762
 30
0.0
 10
192.49761
 20
-28.85036
 30
0.0
 10
192.40882
 20
-28.96722
 30
0.0
 10
192.28609
 20
-29.0795
 30
0.0
 10
192.28609
 20
-29.0795
 30
0.0
 10
191.99035
 20
-29.36545
 30
0.0
 10
191.76382
 20
-29.59721
 30
0.0
 10
191.60518
 20
-29.77543
 30
0.0
 10
191.60518
 20
-29.77543
 30
0.0
 10
191.44719
 20
-29.95431
 30
0.0
 10
191.35318
 20
-30.07378
 30
0.0
 10
191.3225
 20
-30.13514
 30
0.0
 10
191.3225
 20
-30.13514
 30
0.0
 10
191.3225
 20
-30.13514
 30
0.0
 10
192.22472
 20
-30.13514
 30
0.0
 10
192.22472
 20
-30.13514
 30
0.0
 10
192.22472
 20
-30.13514
 30
0.0
 10
192.31677
 20
-30.13514
 30
0.0
 10
192.39315
 20
-30.09924
 30
0.0
 10
192.45452
 20
-30.02808
 30
0.0
 10
192.45452
 20
-30.02808
 30
0.0
 10
192.51589
 20
-29.95692
 30
0.0
 10
192.55636
 20
-29.84985
 30
0.0
 10
192.5766
 20
-29.70688
 30
0.0
 10
192.5766
 20
-29.70688
 30
0.0
 10
192.5766
 20
-29.70688
 30
0.0
 10
192.66865
 20
-29.70688
 30
0.0
 10
192.66865
 20
-29.70688
 30
0.0
 10
192.66865
 20
-29.70688
 30
0.0
 10
192.66865
 20
-29.70688
 30
0.0
 10
192.5766
 20
-30.36494
 30
0.0
 10
192.5766
 20
-30.36494
 30
0.0
 10
192.5766
 20
-30.36494
 30
0.0
 10
192.5766
 20
-30.36494
 30
0.0
 10
191.15407
 20
-30.36494
 30
0.0
 10
191.15407
 20
-30.36494
 30
0.0
 10
191.15407
 20
-30.36494
 30
0.0
 10
191.15407
 20
-30.36494
 30
0.0
 10
191.15407
 20
-30.16583
 30
0.0
 10
191.15407
 20
-30.16583
 30
0.0
 10
191.15407
 20
-30.16583
 30
0.0
 10
191.20499
 20
-30.07378
 30
0.0
 10
191.2892
 20
-29.95692
 30
0.0
 10
191.40671
 20
-29.81395
 30
0.0
 10
191.40671
 20
-29.81395
 30
0.0
 10
191.52357
 20
-29.67098
 30
0.0
 10
191.6796
 20
-29.5032
 30
0.0
 10
191.87284
 20
-29.3093
 30
0.0
 10
191.87284
 20
-29.3093
 30
0.0
 10
192.0465
 20
-29.13565
 30
0.0
 10
192.1738
 20
-28.97244
 30
0.0
 10
192.2554
 20
-28.81967
 30
0.0
 10
192.2554
 20
-28.81967
 30
0.0
 10
192.33701
 20
-28.66626
 30
0.0
 10
192.37814
 20
-28.52329
 30
0.0
 10
192.37814
 20
-28.39076
 30
0.0
  0
SPLINE
  5
70
330
1F
100
AcDbEntity
  8
layer 1
 62
   250
100
AcDbSpline
210
0.0
220
0.0
230
1.0
 70
    11
 71
     3
 72
    80
 73
    76
 74
     0
 42
0.0000000001
 43
0.0000000001
 40
0.0
 40
0.0
 40
0.0
 40
0.0
 40
0.0526315789473684
 40
0.0526315789473684
 40
0.0526315789473684
 40
0.0526315789473684
 40
0.1052631578947368
 40
0.1052631578947368
 40
0.1052631578947368
 40
0.1052631578947368
 40
0.1578947368421053
 40
0.1578947368421053
 40
0.1578947368421053
 40
0.1578947368421053
 40
0.2105263157894737
 40
0.2105263157894737
 40
0.2105263157894737
 40
0.2105263157894737
 40
0.2631578947368421
 40
0.2631578947368421
 40
0.2631578947368421
 40
0.2631578947368421
 40
0.3157894736842105
 40
0.3157894736842105
 40
0.3157894736842105
 40
0.3157894736842105
 40
0.3684210526315789
 40
0.3684210526315789
 40
0.3684210526315789
 40
0.3684210526315789
 40
0.4210526315789473
 40
0.4210526315789473
 40
0.4210526315789473
 40
0.4210526315789473
 40
0.4736842105263158
 40
0.4736842105263158
 40
0.4736842105263158
 40
0.4736842105263158
 40
0.5263157894736842
 40
0.5263157894736842
 40
0.5263157894736842
 40
0.5263157894736842
 40
0.5789473684210527
 40
0.5789473684210527
 40
0.5789473684210527
 40
0.5789473684210527
 40
0.631578947368421
 40
0.631578947368421
 40
0.631578947368421
 40
0.631578947368421
 40
0.6842105263157894
 40
0.6842105263157894
 40
0.6842105263157894
 40
0.6842105263157894
 40
0.7368421052631577
 40
0.7368421052631577
 40
0.7368421052631577
 40
0.7368421052631577
 40
0.7894736842105261
 40
0.7894736842105261
 40
0.7894736842105261
 40
0.7894736842105261
 40
0.8421052631578945
 40
0.8421052631578945
 40
0.8421052631578945
 40
0.8421052631578945
 40
0.8947368421052628
 40
0.8947368421052628
 40
0.8947368421052628
 40
0.8947368421052628
 40
0.9473684210526312
 40
0.9473684210526312
 40
0.9473684210526312
 40
0.9473684210526312
 40
1.0
 40
1.0
 40
1.0
 40
1.0
 10
194.71269
 20
-30.07443
 30
0.0
 10
194.71269
 20
-30.14559
 30
0.0
 10
194.73358
 20
-30.19651
 30
0.0
 10
194.77406
 20
-30.22719
 30
0.0
 10
194.77406
 20
-30.22719
 30
0.0
 10
194.81519
 20
-30.25788
 30
0.0
 10
194.87068
 20
-30.27355
 30
0.0
 10
194.94249
 20
-30.27355
 30
0.0
 10
194.94249
 20
-30.27355
 30
0.0
 10
194.94249
 20
-30.27355
 30
0.0
 10
195.08024
 20
-30.27355
 30
0.0
 10
195.08024
 20
-30.27355
 30
0.0
 10
195.08024
 20
-30.27355
 30
0.0
 10
195.08024
 20
-30.27355
 30
0.0
 10
195.08024
 20
-30.36494
 30
0.0
 10
195.08024
 20
-30.36494
 30
0.0
 10
195.08024
 20
-30.36494
 30
0.0
 10
195.08024
 20
-30.36494
 30
0.0
 10
194.0703
 20
-30.36494
 30
0.0
 10
194.0703
 20
-30.36494
 30
0.0
 10
194.0703
 20
-30.36494
 30
0.0
 10
194.0703
 20
-30.36494
 30
0.0
 10
194.0703
 20
-30.27355
 30
0.0
 10
194.0703
 20
-30.27355
 30
0.0
 10
194.0703
 20
-30.27355
 30
0.0
 10
194.0703
 20
-30.27355
 30
0.0
 10
194.23873
 20
-30.27355
 30
0.0
 10
194.23873
 20
-30.27355
 30
0.0
 10
194.23873
 20
-30.27355
 30
0.0
 10
194.32033
 20
-30.27355
 30
0.0
 10
194.37909
 20
-30.25788
 30
0.0
 10
194.41434
 20
-30.22719
 30
0.0
 10
194.41434
 20
-30.22719
 30
0.0
 10
194.45025
 20
-30.19651
 30
0.0
 10
194.46788
 20
-30.14559
 30
0.0
 10
194.46788
 20
-30.07443
 30
0.0
 10
194.46788
 20
-30.07443
 30
0.0
 10
194.46788
 20
-30.07443
 30
0.0
 10
194.46788
 20
-29.56913
 30
0.0
 10
194.46788
 20
-29.56913
 30
0.0
 10
194.46788
 20
-29.56913
 30
0.0
 10
194.46788
 20
-29.56913
 30
0.0
 10
193.44292
 20
-29.56913
 30
0.0
 10
193.44292
 20
-29.56913
 30
0.0
 10
193.44292
 20
-29.56913
 30
0.0
 10
193.44292
 20
-29.56913
 30
0.0
 10
193.44292
 20
-29.49275
 30
0.0
 10
193.44292
 20
-29.49275
 30
0.0
 10
193.44292
 20
-29.49275
 30
0.0
 10
193.44292
 20
-29.49275
 30
0.0
 10
194.55993
 20
-27.71834
 30
0.0
 10
194.55993
 20
-27.71834
 30
0.0
 10
194.55993
 20
-27.71834
 30
0.0
 10
194.55993
 20
-27.71834
 30
0.0
 10
194.71269
 20
-27.71834
 30
0.0
 10
194.71269
 20
-27.71834
 30
0.0
 10
194.71269
 20
-27.71834
 30
0.0
 10
194.71269
 20
-27.71834
 30
0.0
 10
194.71269
 20
-29.47774
 30
0.0
 10
194.71269
 20
-29.47774
 30
0.0
 10
194.71269
 20
-29.47774
 30
0.0
 10
194.71269
 20
-29.47774
 30
0.0
 10
195.12594
 20
-29.47774
 30
0.0
 10
195.12594
 20
-29.47774
 30
0.0
 10
195.12594
 20
-29.47774
 30
0.0
 10
195.12594
 20
-29.47774
 30
0.0
 10
195.12594
 20
-29.56913
 30
0.0
 10
195.12594
 20
-29.56913
 30
0.0
 10
195.12594
 20
-29.56913
 30
0.0
 10
195.12594
 20
-29.56913
 30
0.0
 10
194.71269
 20
-29.56913
 30
0.0
 10
194.71269
 20
-29.56913
 30
0.0
 10
194.71269
 20
-29.56913
 30
0.0
 10
194.71269
 20
-29.56913
 30
0.0
 10
194.71269
 20
-30.07443
 30
0.0
 10
194.71269
 20
-30.07443
 30
0.0
  0
SPLINE
  5
71
330
1F
100
AcDbEntity
  8
layer 1
 62
   250
100
AcDbSpline
210
0.0
220
0.0
230
1.0
 70
    11
 71
     3
 72
    20
 73
    16
 74
     0
 42
0.0000000001
 43
0.0000000001
 40
0.0
 40
0.0
 40
0.0
 40
0.0
 40
0.25
 40
0.25
 40
0.25
 40
0.25
 40
0.5
 40
0.5
 40
0.5
 40
0.5
 40
0.75
 40
0.75
 40
0.75
 40
0.75
 40
1.0
 40
1.0
 40
1.0
 40
1.0
 10
194.45286
 20
-28.10025
 30
0.0
 10
194.45286
 20
-28.10025
 30
0.0
 10
193.58067
 20
-29.47774
 30
0.0
 10
193.58067
 20
-29.47774
 30
0.0
 10
193.58067
 20
-29.47774
 30
0.0
 10
193.58067
 20
-29.47774
 30
0.0
 10
194.46788
 20
-29.47774
 30
0.0
 10
194.46788
 20
-29.47774
 30
0.0
 10
194.46788
 20
-29.47774
 30
0.0
 10
194.46788
 20
-29.47774
 30
0.0
 10
194.46788
 20
-28.10025
 30
0.0
 10
194.46788
 20
-28.10025
 30
0.0
 10
194.46788
 20
-28.10025
 30
0.0
 10
194.46788
 20
-28.10025
 30
0.0
 10
194.45286
 20
-28.10025
 30
0.0
 10
194.45286
 20
-28.10025
 30
0.0
  0
SPLINE
  5
72
330
1F
100
AcDbEntity
  8
layer 1
 62
   250
100
AcDbSpline
210
0.0
220
0.0
230
1.0
 70
    11
 71
     3
 72
    36
 73
    32
 74
     0
 42
0.0000000001
 43
0.0000000001
 40
0.0
 40
0.0
 40
0.0
 40
0.0
 40
0.125
 40
0.125
 40
0.125
 40
0.125
 40
0.25
 40
0.25
 40
0.25
 40
0.25
 40
0.375
 40
0.375
 40
0.375
 40
0.375
 40
0.5
 40
0.5
 40
0.5
 40
0.5
 40
0.625
 40
0.625
 40
0.625
 40
0.625
 40
0.75
 40
0.75
 40
0.75
 40
0.75
 40
0.875
 40
0.875
 40
0.875
 40
0.875
 40
1.0
 40
1.0
 40
1.0
 40
1.0
 10
196.63465
 20
-27.84042
 30
0.0
 10
196.49168
 20
-27.84042
 30
0.0
 10
196.37155
 20
-27.95009
 30
0.0
 10
196.27493
 20
-28.16945
 30
0.0
 10
196.27493
 20
-28.16945
 30
0.0
 10
196.17766
 20
-28.3888
 30
0.0
 10
196.12935
 20
-28.68193
 30
0.0
 10
196.12935
 20
-29.04882
 30
0.0
 10
196.12935
 20
-29.04882
 30
0.0
 10
196.12935
 20
-29.43661
 30
0.0
 10
196.17766
 20
-29.73757
 30
0.0
 10
196.27493
 20
-29.9517
 30
0.0
 10
196.27493
 20
-29.9517
 30
0.0
 10
196.37155
 20
-30.16583
 30
0.0
 10
196.49168
 20
-30.27289
 30
0.0
 10
196.63465
 20
-30.27289
 30
0.0
 10
196.63465
 20
-30.27289
 30
0.0
 10
196.78741
 20
-30.27289
 30
0.0
 10
196.90753
 20
-30.16583
 30
0.0
 10
196.99436
 20
-29.9517
 30
0.0
 10
196.99436
 20
-29.9517
 30
0.0
 10
197.08119
 20
-29.73757
 30
0.0
 10
197.12428
 20
-29.43661
 30
0.0
 10
197.12428
 20
-29.04882
 30
0.0
 10
197.12428
 20
-29.04882
 30
0.0
 10
197.12428
 20
-28.68193
 30
0.0
 10
197.08315
 20
-28.3888
 30
0.0
 10
197.00154
 20
-28.16945
 30
0.0
 10
197.00154
 20
-28.16945
 30
0.0
 10
196.91994
 20
-27.95009
 30
0.0
 10
196.79786
 20
-27.84042
 30
0.0
 10
196.63465
 20
-27.84042
 30
0.0
  0
SPLINE
  5
73
330
1F
100
AcDbEntity
  8
layer 1
 62
   250
100
AcDbSpline
210
0.0
220
0.0
230
1.0
 70
    11
 71
     3
 72
    36
 73
    32
 74
     0
 42
0.0000000001
 43
0.0000000001
 40
0.0
 40
0.0
 40
0.0
 40
0.0
 40
0.125
 40
0.125
 40
0.125
 40
0.125
 40
0.25
 40
0.25
 40
0.25
 40
0.25
 40
0.375
 40
0.375
 40
0.375
 40
0.375
 40
0.5
 40
0.5
 40
0.5
 40
0.5
 40
0.625
 40
0.625
 40
0.625
 40
0.625
 40
0.75
 40
0.75
 40
0.75
 40
0.75
 40
0.875
 40
0.875
 40
0.875
 40
0.875
 40
1.0
 40
1.0
 40
1.0
 40
1.0
 10
196.63465
 20
-30.39563
 30
0.0
 10
196.41007
 20
-30.39563
 30
0.0
 10
196.2214
 20
-30.27812
 30
0.0
 10
196.06864
 20
-30.04375
 30
0.0
 10
196.06864
 20
-30.04375
 30
0.0
 10
195.91522
 20
-29.80872
 30
0.0
 10
195.83884
 20
-29.47774
 30
0.0
 10
195.83884
 20
-29.04882
 30
0.0
 10
195.83884
 20
-29.04882
 30
0.0
 10
195.83884
 20
-28.65124
 30
0.0
 10
195.91261
 20
-28.33005
 30
0.0
 10
196.0608
 20
-28.08523
 30
0.0
 10
196.0608
 20
-28.08523
 30
0.0
 10
196.20834
 20
-27.84042
 30
0.0
 10
196.39963
 20
-27.71768
 30
0.0
 10
196.63465
 20
-27.71768
 30
0.0
 10
196.63465
 20
-27.71768
 30
0.0
 10
196.85857
 20
-27.71768
 30
0.0
 10
197.04528
 20
-27.83519
 30
0.0
 10
197.19282
 20
-28.06956
 30
0.0
 10
197.19282
 20
-28.06956
 30
0.0
 10
197.34102
 20
-28.30459
 30
0.0
 10
197.41479
 20
-28.631
 30
0.0
 10
197.41479
 20
-29.04882
 30
0.0
 10
197.41479
 20
-29.04882
 30
0.0
 10
197.41479
 20
-29.46729
 30
0.0
 10
197.34102
 20
-29.79632
 30
0.0
 10
197.19282
 20
-30.03591
 30
0.0
 10
197.19282
 20
-30.03591
 30
0.0
 10
197.04528
 20
-30.2755
 30
0.0
 10
196.85857
 20
-30.39563
 30
0.0
 10
196.63465
 20
-30.39563
 30
0.0
  0
SPLINE
  5
74
330
1F
100
AcDbEntity
  8
layer 1
 62
   250
100
AcDbSpline
210
0.0
220
0.0
230
1.0
 70
    11
 71
     3
 72
   236
 73
   232
 74
     0
 42
0.0000000001
 43
0.0000000001
 40
0.0
 40
0.0
 40
0.0
 40
0.0
 40
0.0172413793103448
 40
0.0172413793103448
 40
0.0172413793103448
 40
0.0172413793103448
 40
0.0344827586206897
 40
0.0344827586206897
 40
0.0344827586206897
 40
0.0344827586206897
 40
0.0517241379310345
 40
0.0517241379310345
 40
0.0517241379310345
 40
0.0517241379310345
 40
0.0689655172413793
 40
0.0689655172413793
 40
0.0689655172413793
 40
0.0689655172413793
 40
0.0862068965517241
 40
0.0862068965517241
 40
0.0862068965517241
 40
0.0862068965517241
 40
0.103448275862069
 40
0.103448275862069
 40
0.103448275862069
 40
0.103448275862069
 40
0.1206896551724138
 40
0.1206896551724138
 40
0.1206896551724138
 40
0.1206896551724138
 40
0.1379310344827586
 40
0.1379310344827586
 40
0.1379310344827586
 40
0.1379310344827586
 40
0.1551724137931035
 40
0.1551724137931035
 40
0.1551724137931035
 40
0.1551724137931035
 40
0.1724137931034483
 40
0.1724137931034483
 40
0.1724137931034483
 40
0.1724137931034483
 40
0.1896551724137931
 40
0.1896551724137931
 40
0.1896551724137931
 40
0.1896551724137931
 40
0.206896551724138
 40
0.206896551724138
 40
0.206896551724138
 40
0.206896551724138
 40
0.2241379310344828
 40
0.2241379310344828
 40
0.2241379310344828
 40
0.2241379310344828
 40
0.2413793103448277
 40
0.2413793103448277
 40
0.2413793103448277
 40
0.2413793103448277
 40
0.2586206896551725
 40
0.2586206896551725
 40
0.2586206896551725
 40
0.2586206896551725
 40
0.2758620689655173
 40
0.2758620689655173
 40
0.2758620689655173
 40
0.2758620689655173
 40
0.2931034482758621
 40
0.2931034482758621
 40
0.2931034482758621
 40
0.2931034482758621
 40
0.3103448275862069
 40
0.3103448275862069
 40
0.3103448275862069
 40
0.3103448275862069
 40
0.3275862068965517
 40
0.3275862068965517
 40
0.3275862068965517
 40
0.3275862068965517
 40
0.3448275862068965
 40
0.3448275862068965
 40
0.3448275862068965
 40
0.3448275862068965
 40
0.3620689655172413
 40
0.3620689655172413
 40
0.3620689655172413
 40
0.3620689655172413
 40
0.3793103448275861
 40
0.3793103448275861
 40
0.3793103448275861
 40
0.3793103448275861
 40
0.3965517241379309
 40
0.3965517241379309
 40
0.3965517241379309
 40
0.3965517241379309
 40
0.4137931034482757
 40
0.4137931034482757
 40
0.4137931034482757
 40
0.4137931034482757
 40
0.4310344827586206
 40
0.4310344827586206
 40
0.4310344827586206
 40
0.4310344827586206
 40
0.4482758620689654
 40
0.4482758620689654
 40
0.4482758620689654
 40
0.4482758620689654
 40
0.4655172413793102
 40
0.4655172413793102
 40
0.4655172413793102
 40
0.4655172413793102
 40
0.482758620689655
 40
0.482758620689655
 40
0.482758620689655
 40
0.482758620689655
 40
0.4999999999999998
 40
0.4999999999999998
 40
0.4999999999999998
 40
0.4999999999999998
 40
0.5172413793103446
 40
0.5172413793103446
 40
0.5172413793103446
 40
0.5172413793103446
 40
0.5344827586206895
 40
0.5344827586206895
 40
0.5344827586206895
 40
0.5344827586206895
 40
0.5517241379310344
 40
0.5517241379310344
 40
0.5517241379310344
 40
0.5517241379310344
 40
0.5689655172413792
 40
0.5689655172413792
 40
0.5689655172413792
 40
0.5689655172413792
 40
0.5862068965517241
 40
0.5862068965517241
 40
0.5862068965517241
 40
0.5862068965517241
 40
0.603448275862069
 40
0.603448275862069
 40
0.603448275862069
 40
0.603448275862069
 40
0.6206896551724138
 40
0.6206896551724138
 40
0.6206896551724138
 40
0.6206896551724138
 40
0.6379310344827587
 40
0.6379310344827587
 40
0.6379310344827587
 40
0.6379310344827587
 40
0.6551724137931035
 40
0.6551724137931035
 40
0.6551724137931035
 40
0.6551724137931035
 40
0.6724137931034484
 40
0.6724137931034484
 40
0.6724137931034484
 40
0.6724137931034484
 40
0.6896551724137933
 40
0.6896551724137933
 40
0.6896551724137933
 40
0.6896551724137933
 40
0.7068965517241381
 40
0.7068965517241381
 40
0.7068965517241381
 40
0.7068965517241381
 40
0.724137931034483
 40
0.724137931034483
 40
0.724137931034483
 40
0.724137931034483
 40
0.7413793103448278
 40
0.7413793103448278
 40
0.7413793103448278
 40
0.7413793103448278
 40
0.7586206896551727
 40
0.7586206896551727
 40
0.7586206896551727
 40
0.7586206896551727
 40
0.7758620689655176
 40
0.7758620689655176
 40
0.7758620689655176
 40
0.7758620689655176
 40
0.7931034482758624
 40
0.7931034482758624
 40
0.7931034482758624
 40
0.7931034482758624
 40
0.8103448275862073
 40
0.8103448275862073
 40
0.8103448275862073
 40
0.8103448275862073
 40
0.8275862068965522
 40
0.8275862068965522
 40
0.8275862068965522
 40
0.8275862068965522
 40
0.844827586206897
 40
0.844827586206897
 40
0.844827586206897
 40
0.844827586206897
 40
0.8620689655172419
 40
0.8620689655172419
 40
0.8620689655172419
 40
0.8620689655172419
 40
0.8793103448275867
 40
0.8793103448275867
 40
0.8793103448275867
 40
0.8793103448275867
 40
0.8965517241379316
 40
0.8965517241379316
 40
0.8965517241379316
 40
0.8965517241379316
 40
0.9137931034482765
 40
0.9137931034482765
 40
0.9137931034482765
 40
0.9137931034482765
 40
0.9310344827586213
 40
0.9310344827586213
 40
0.9310344827586213
 40
0.9310344827586213
 40
0.9482758620689662
 40
0.9482758620689662
 40
0.9482758620689662
 40
0.9482758620689662
 40
0.965517241379311
 40
0.965517241379311
 40
0.965517241379311
 40
0.965517241379311
 40
0.9827586206896559
 40
0.9827586206896559
 40
0.9827586206896559
 40
0.9827586206896559
 40
1.0
 40
1.0
 40
1.0
 40
1.0
 10
198.09962
 20
-28.65124
 30
0.0
 10
198.15315
 20
-28.65124
 30
0.0
 10
198.20603
 20
-28.64602
 30
0.0
 10
198.25956
 20
-28.63557
 30
0.0
 10
198.25956
 20
-28.63557
 30
0.0
 10
198.31244
 20
-28.62578
 30
0.0
 10
198.35488
 20
-28.61011
 30
0.0
 10
198.38687
 20
-28.58988
 30
0.0
 10
198.38687
 20
-28.58988
 30
0.0
 10
198.38687
 20
-28.58988
 30
0.0
 10
198.41886
 20
-28.58988
 30
0.0
 10
198.41886
 20
-28.58988
 30
0.0
 10
198.41886
 20
-28.58988
 30
0.0
 10
198.41886
 20
-28.58988
 30
0.0
 10
198.41886
 20
-28.85036
 30
0.0
 10
198.41886
 20
-28.85036
 30
0.0
 10
198.41886
 20
-28.85036
 30
0.0
 10
198.46978
 20
-28.76875
 30
0.0
 10
198.52592
 20
-28.71
 30
0.0
 10
198.58729
 20
-28.67409
 30
0.0
 10
198.58729
 20
-28.67409
 30
0.0
 10
198.64866
 20
-28.63819
 30
0.0
 10
198.71459
 20
-28.62056
 30
0.0
 10
198.7864
 20
-28.62056
 30
0.0
 10
198.7864
 20
-28.62056
 30
0.0
 10
198.8778
 20
-28.62056
 30
0.0
 10
198.94961
 20
-28.63819
 30
0.0
 10
199.00054
 20
-28.67409
 30
0.0
 10
199.00054
 20
-28.67409
 30
0.0
 10
199.05146
 20
-28.71
 30
0.0
 10
199.08214
 20
-28.76875
 30
0.0
 10
199.09259
 20
-28.85036
 30
0.0
 10
199.09259
 20
-28.85036
 30
0.0
 10
199.14351
 20
-28.76875
 30
0.0
 10
199.20226
 20
-28.71
 30
0.0
 10
199.2682
 20
-28.67409
 30
0.0
 10
199.2682
 20
-28.67409
 30
0.0
 10
199.33479
 20
-28.63819
 30
0.0
 10
199.40334
 20
-28.62056
 30
0.0
 10
199.47515
 20
-28.62056
 30
0.0
 10
199.47515
 20
-28.62056
 30
0.0
 10
199.59723
 20
-28.62056
 30
0.0
 10
199.68145
 20
-28.65647
 30
0.0
 10
199.7278
 20
-28.72762
 30
0.0
 10
199.7278
 20
-28.72762
 30
0.0
 10
199.7735
 20
-28.79878
 30
0.0
 10
199.79635
 20
-28.89083
 30
0.0
 10
199.79635
 20
-29.00312
 30
0.0
 10
199.79635
 20
-29.00312
 30
0.0
 10
199.79635
 20
-29.00312
 30
0.0
 10
199.79635
 20
-30.16583
 30
0.0
 10
199.79635
 20
-30.16583
 30
0.0
 10
199.79635
 20
-30.16583
 30
0.0
 10
199.79635
 20
-30.2063
 30
0.0
 10
199.80679
 20
-30.23438
 30
0.0
 10
199.82703
 20
-30.25004
 30
0.0
 10
199.82703
 20
-30.25004
 30
0.0
 10
199.84727
 20
-30.26506
 30
0.0
 10
199.87795
 20
-30.27289
 30
0.0
 10
199.91843
 20
-30.27289
 30
0.0
 10
199.91843
 20
-30.27289
 30
0.0
 10
199.91843
 20
-30.27289
 30
0.0
 10
199.94911
 20
-30.27289
 30
0.0
 10
199.94911
 20
-30.27289
 30
0.0
 10
199.94911
 20
-30.27289
 30
0.0
 10
199.94911
 20
-30.27289
 30
0.0
 10
199.94911
 20
-30.36494
 30
0.0
 10
199.94911
 20
-30.36494
 30
0.0
 10
199.94911
 20
-30.36494
 30
0.0
 10
199.94911
 20
-30.36494
 30
0.0
 10
199.42945
 20
-30.36494
 30
0.0
 10
199.42945
 20
-30.36494
 30
0.0
 10
199.42945
 20
-30.36494
 30
0.0
 10
199.42945
 20
-30.36494
 30
0.0
 10
199.42945
 20
-30.27289
 30
0.0
 10
199.42945
 20
-30.27289
 30
0.0
 10
199.42945
 20
-30.27289
 30
0.0
 10
199.42945
 20
-30.27289
 30
0.0
 10
199.46013
 20
-30.27289
 30
0.0
 10
199.46013
 20
-30.27289
 30
0.0
 10
199.46013
 20
-30.27289
 30
0.0
 10
199.50061
 20
-30.27289
 30
0.0
 10
199.53129
 20
-30.26506
 30
0.0
 10
199.55153
 20
-30.25004
 30
0.0
 10
199.55153
 20
-30.25004
 30
0.0
 10
199.57177
 20
-30.23438
 30
0.0
 10
199.58221
 20
-30.2063
 30
0.0
 10
199.58221
 20
-30.16583
 30
0.0
 10
199.58221
 20
-30.16583
 30
0.0
 10
199.58221
 20
-30.16583
 30
0.0
 10
199.58221
 20
-29.01879
 30
0.0
 10
199.58221
 20
-29.01879
 30
0.0
 10
199.58221
 20
-29.01879
 30
0.0
 10
199.58221
 20
-28.9065
 30
0.0
 10
199.56916
 20
-28.83273
 30
0.0
 10
199.5437
 20
-28.79683
 30
0.0
 10
199.5437
 20
-28.79683
 30
0.0
 10
199.51824
 20
-28.76092
 30
0.0
 10
199.48037
 20
-28.74329
 30
0.0
 10
199.4288
 20
-28.74329
 30
0.0
 10
199.4288
 20
-28.74329
 30
0.0
 10
199.35764
 20
-28.74329
 30
0.0
 10
199.29366
 20
-28.76875
 30
0.0
 10
199.23752
 20
-28.81967
 30
0.0
 10
199.23752
 20
-28.81967
 30
0.0
 10
199.18137
 20
-28.8706
 30
0.0
 10
199.13828
 20
-28.94241
 30
0.0
 10
199.1076
 20
-29.03381
 30
0.0
 10
199.1076
 20
-29.03381
 30
0.0
 10
199.1076
 20
-29.03381
 30
0.0
 10
199.1076
 20
-30.16583
 30
0.0
 10
199.1076
 20
-30.16583
 30
0.0
 10
199.1076
 20
-30.16583
 30
0.0
 10
199.1076
 20
-30.2063
 30
0.0
 10
199.11805
 20
-30.23438
 30
0.0
 10
199.13828
 20
-30.25004
 30
0.0
 10
199.13828
 20
-30.25004
 30
0.0
 10
199.15852
 20
-30.26506
 30
0.0
 10
199.18921
 20
-30.27289
 30
0.0
 10
199.22968
 20
-30.27289
 30
0.0
 10
199.22968
 20
-30.27289
 30
0.0
 10
199.22968
 20
-30.27289
 30
0.0
 10
199.26037
 20
-30.27289
 30
0.0
 10
199.26037
 20
-30.27289
 30
0.0
 10
199.26037
 20
-30.27289
 30
0.0
 10
199.26037
 20
-30.27289
 30
0.0
 10
199.26037
 20
-30.36494
 30
0.0
 10
199.26037
 20
-30.36494
 30
0.0
 10
199.26037
 20
-30.36494
 30
0.0
 10
199.26037
 20
-30.36494
 30
0.0
 10
198.74071
 20
-30.36494
 30
0.0
 10
198.74071
 20
-30.36494
 30
0.0
 10
198.74071
 20
-30.36494
 30
0.0
 10
198.74071
 20
-30.36494
 30
0.0
 10
198.74071
 20
-30.27289
 30
0.0
 10
198.74071
 20
-30.27289
 30
0.0
 10
198.74071
 20
-30.27289
 30
0.0
 10
198.74071
 20
-30.27289
 30
0.0
 10
198.77139
 20
-30.27289
 30
0.0
 10
198.77139
 20
-30.27289
 30
0.0
 10
198.77139
 20
-30.27289
 30
0.0
 10
198.81187
 20
-30.27289
 30
0.0
 10
198.84255
 20
-30.26506
 30
0.0
 10
198.86279
 20
-30.25004
 30
0.0
 10
198.86279
 20
-30.25004
 30
0.0
 10
198.88302
 20
-30.23438
 30
0.0
 10
198.89347
 20
-30.2063
 30
0.0
 10
198.89347
 20
-30.16583
 30
0.0
 10
198.89347
 20
-30.16583
 30
0.0
 10
198.89347
 20
-30.16583
 30
0.0
 10
198.89347
 20
-29.01879
 30
0.0
 10
198.89347
 20
-29.01879
 30
0.0
 10
198.89347
 20
-29.01879
 30
0.0
 10
198.89347
 20
-28.92674
 30
0.0
 10
198.88302
 20
-28.85819
 30
0.0
 10
198.86279
 20
-28.81184
 30
0.0
 10
198.86279
 20
-28.81184
 30
0.0
 10
198.84255
 20
-28.76614
 30
0.0
 10
198.80142
 20
-28.74329
 30
0.0
 10
198.74005
 20
-28.74329
 30
0.0
 10
198.74005
 20
-28.74329
 30
0.0
 10
198.66889
 20
-28.74329
 30
0.0
 10
198.60492
 20
-28.76875
 30
0.0
 10
198.54877
 20
-28.81967
 30
0.0
 10
198.54877
 20
-28.81967
 30
0.0
 10
198.49263
 20
-28.8706
 30
0.0
 10
198.44954
 20
-28.94698
 30
0.0
 10
198.41886
 20
-29.04947
 30
0.0
 10
198.41886
 20
-29.04947
 30
0.0
 10
198.41886
 20
-29.04947
 30
0.0
 10
198.41886
 20
-30.16583
 30
0.0
 10
198.41886
 20
-30.16583
 30
0.0
 10
198.41886
 20
-30.16583
 30
0.0
 10
198.41886
 20
-30.2063
 30
0.0
 10
198.4293
 20
-30.23438
 30
0.0
 10
198.44954
 20
-30.25004
 30
0.0
 10
198.44954
 20
-30.25004
 30
0.0
 10
198.46978
 20
-30.26506
 30
0.0
 10
198.50046
 20
-30.27289
 30
0.0
 10
198.54094
 20
-30.27289
 30
0.0
 10
198.54094
 20
-30.27289
 30
0.0
 10
198.54094
 20
-30.27289
 30
0.0
 10
198.57162
 20
-30.27289
 30
0.0
 10
198.57162
 20
-30.27289
 30
0.0
 10
198.57162
 20
-30.27289
 30
0.0
 10
198.57162
 20
-30.27289
 30
0.0
 10
198.57162
 20
-30.36494
 30
0.0
 10
198.57162
 20
-30.36494
 30
0.0
 10
198.57162
 20
-30.36494
 30
0.0
 10
198.57162
 20
-30.36494
 30
0.0
 10
198.05196
 20
-30.36494
 30
0.0
 10
198.05196
 20
-30.36494
 30
0.0
 10
198.05196
 20
-30.36494
 30
0.0
 10
198.05196
 20
-30.36494
 30
0.0
 10
198.05196
 20
-30.27289
 30
0.0
 10
198.05196
 20
-30.27289
 30
0.0
 10
198.05196
 20
-30.27289
 30
0.0
 10
198.05196
 20
-30.27289
 30
0.0
 10
198.08264
 20
-30.27289
 30
0.0
 10
198.08264
 20
-30.27289
 30
0.0
 10
198.08264
 20
-30.27289
 30
0.0
 10
198.12312
 20
-30.27289
 30
0.0
 10
198.1538
 20
-30.26506
 30
0.0
 10
198.17404
 20
-30.25004
 30
0.0
 10
198.17404
 20
-30.25004
 30
0.0
 10
198.19428
 20
-30.23438
 30
0.0
 10
198.20473
 20
-30.2063
 30
0.0
 10
198.20473
 20
-30.16583
 30
0.0
 10
198.20473
 20
-30.16583
 30
0.0
 10
198.20473
 20
-30.16583
 30
0.0
 10
198.20473
 20
-28.83534
 30
0.0
 10
198.20473
 20
-28.83534
 30
0.0
 10
198.20473
 20
-28.83534
 30
0.0
 10
198.20473
 20
-28.80466
 30
0.0
 10
198.19885
 20
-28.78181
 30
0.0
 10
198.18775
 20
-28.76614
 30
0.0
 10
198.18775
 20
-28.76614
 30
0.0
 10
198.17665
 20
-28.75113
 30
0.0
 10
198.1538
 20
-28.74329
 30
0.0
 10
198.11986
 20
-28.74329
 30
0.0
 10
198.11986
 20
-28.74329
 30
0.0
 10
198.11986
 20
-28.74329
 30
0.0
 10
198.05196
 20
-28.74329
 30
0.0
 10
198.05196
 20
-28.74329
 30
0.0
 10
198.05196
 20
-28.74329
 30
0.0
 10
198.05196
 20
-28.74329
 30
0.0
 10
198.05196
 20
-28.65124
 30
0.0
 10
198.05196
 20
-28.65124
 30
0.0
 10
198.05196
 20
-28.65124
 30
0.0
 10
198.05196
 20
-28.65124
 30
0.0
 10
198.09962
 20
-28.65124
 30
0.0
 10
198.09962
 20
-28.65124
 30
0.0
  0
SPLINE
  5
75
330
1F
100
AcDbEntity
  8
layer 1
 62
   250
100
AcDbSpline
210
0.0
220
0.0
230
1.0
 70
    11
 71
     3
 72
   236
 73
   232
 74
     0
 42
0.0000000001
 43
0.0000000001
 40
0.0
 40
0.0
 40
0.0
 40
0.0
 40
0.0172413793103448
 40
0.0172413793103448
 40
0.0172413793103448
 40
0.0172413793103448
 40
0.0344827586206897
 40
0.0344827586206897
 40
0.0344827586206897
 40
0.0344827586206897
 40
0.0517241379310345
 40
0.0517241379310345
 40
0.0517241379310345
 40
0.0517241379310345
 40
0.0689655172413793
 40
0.0689655172413793
 40
0.0689655172413793
 40
0.0689655172413793
 40
0.0862068965517241
 40
0.0862068965517241
 40
0.0862068965517241
 40
0.0862068965517241
 40
0.103448275862069
 40
0.103448275862069
 40
0.103448275862069
 40
0.103448275862069
 40
0.1206896551724138
 40
0.1206896551724138
 40
0.1206896551724138
 40
0.1206896551724138
 40
0.1379310344827586
 40
0.1379310344827586
 40
0.1379310344827586
 40
0.1379310344827586
 40
0.1551724137931035
 40
0.1551724137931035
 40
0.1551724137931035
 40
0.1551724137931035
 40
0.1724137931034483
 40
0.1724137931034483
 40
0.1724137931034483
 40
0.1724137931034483
 40
0.1896551724137931
 40
0.1896551724137931
 40
0.1896551724137931
 40
0.1896551724137931
 40
0.206896551724138
 40
0.206896551724138
 40
0.206896551724138
 40
0.206896551724138
 40
0.2241379310344828
 40
0.2241379310344828
 40
0.2241379310344828
 40
0.2241379310344828
 40
0.2413793103448277
 40
0.2413793103448277
 40
0.2413793103448277
 40
0.2413793103448277
 40
0.2586206896551725
 40
0.2586206896551725
 40
0.2586206896551725
 40
0.2586206896551725
 40
0.2758620689655173
 40
0.2758620689655173
 40
0.2758620689655173
 40
0.2758620689655173
 40
0.2931034482758621
 40
0.2931034482758621
 40
0.2931034482758621
 40
0.2931034482758621
 40
0.3103448275862069
 40
0.3103448275862069
 40
0.3103448275862069
 40
0.3103448275862069
 40
0.3275862068965517
 40
0.3275862068965517
 40
0.3275862068965517
 40
0.3275862068965517
 40
0.3448275862068965
 40
0.3448275862068965
 40
0.3448275862068965
 40
0.3448275862068965
 40
0.3620689655172413
 40
0.3620689655172413
 40
0.3620689655172413
 40
0.3620689655172413
 40
0.3793103448275861
 40
0.3793103448275861
 40
0.3793103448275861
 40
0.3793103448275861
 40
0.3965517241379309
 40
0.3965517241379309
 40
0.3965517241379309
 40
0.3965517241379309
 40
0.4137931034482757
 40
0.4137931034482757
 40
0.4137931034482757
 40
0.4137931034482757
 40
0.4310344827586206
 40
0.4310344827586206
 40
0.4310344827586206
 40
0.4310344827586206
 40
0.4482758620689654
 40
0.4482758620689654
 40
0.4482758620689654
 40
0.4482758620689654
 40
0.4655172413793102
 40
0.4655172413793102
 40
0.4655172413793102
 40
0.4655172413793102
 40
0.482758620689655
 40
0.482758620689655
 40
0.482758620689655
 40
0.482758620689655
 40
0.4999999999999998
 40
0.4999999999999998
 40
0.4999999999999998
 40
0.4999999999999998
 40
0.5172413793103446
 40
0.5172413793103446
 40
0.5172413793103446
 40
0.5172413793103446
 40
0.5344827586206895
 40
0.5344827586206895
 40
0.5344827586206895
 40
0.5344827586206895
 40
0.5517241379310344
 40
0.5517241379310344
 40
0.5517241379310344
 40
0.5517241379310344
 40
0.5689655172413792
 40
0.5689655172413792
 40
0.5689655172413792
 40
0.5689655172413792
 40
0.5862068965517241
 40
0.5862068965517241
 40
0.5862068965517241
 40
0.5862068965517241
 40
0.603448275862069
 40
0.603448275862069
 40
0.603448275862069
 40
0.603448275862069
 40
0.6206896551724138
 40
0.6206896551724138
 40
0.6206896551724138
 40
0.6206896551724138
 40
0.6379310344827587
 40
0.6379310344827587
 40
0.6379310344827587
 40
0.6379310344827587
 40
0.6551724137931035
 40
0.6551724137931035
 40
0.6551724137931035
 40
0.6551724137931035
 40
0.6724137931034484
 40
0.6724137931034484
 40
0.6724137931034484
 40
0.6724137931034484
 40
0.6896551724137933
 40
0.6896551724137933
 40
0.6896551724137933
 40
0.6896551724137933
 40
0.7068965517241381
 40
0.7068965517241381
 40
0.7068965517241381
 40
0.7068965517241381
 40
0.724137931034483
 40
0.724137931034483
 40
0.724137931034483
 40
0.724137931034483
 40
0.7413793103448278
 40
0.7413793103448278
 40
0.7413793103448278
 40
0.7413793103448278
 40
0.7586206896551727
 40
0.7586206896551727
 40
0.7586206896551727
 40
0.7586206896551727
 40
0.7758620689655176
 40
0.7758620689655176
 40
0.7758620689655176
 40
0.7758620689655176
 40
0.7931034482758624
 40
0.7931034482758624
 40
0.7931034482758624
 40
0.7931034482758624
 40
0.8103448275862073
 40
0.8103448275862073
 40
0.8103448275862073
 40
0.8103448275862073
 40
0.8275862068965522
 40
0.8275862068965522
 40
0.8275862068965522
 40
0.8275862068965522
 40
0.844827586206897
 40
0.844827586206897
 40
0.844827586206897
 40
0.844827586206897
 40
0.8620689655172419
 40
0.8620689655172419
 40
0.8620689655172419
 40
0.8620689655172419
 40
0.8793103448275867
 40
0.8793103448275867
 40
0.8793103448275867
 40
0.8793103448275867
 40
0.8965517241379316
 40
0.8965517241379316
 40
0.8965517241379316
 40
0.8965517241379316
 40
0.9137931034482765
 40
0.9137931034482765
 40
0.9137931034482765
 40
0.9137931034482765
 40
0.9310344827586213
 40
0.9310344827586213
 40
0.9310344827586213
 40
0.9310344827586213
 40
0.9482758620689662
 40
0.9482758620689662
 40
0.9482758620689662
 40
0.9482758620689662
 40
0.965517241379311
 40
0.965517241379311
 40
0.965517241379311
 40
0.965517241379311
 40
0.9827586206896559
 40
0.9827586206896559
 40
0.9827586206896559
 40
0.9827586206896559
 40
1.0
 40
1.0
 40
1.0
 40
1.0
 10
200.44984
 20
-28.65124
 30
0.0
 10
200.50337
 20
-28.65124
 30
0.0
 10
200.55625
 20
-28.64602
 30
0.0
 10
200.60978
 20
-28.63557
 30
0.0
 10
200.60978
 20
-28.63557
 30
0.0
 10
200.66266
 20
-28.62578
 30
0.0
 10
200.7051
 20
-28.61011
 30
0.0
 10
200.73709
 20
-28.58988
 30
0.0
 10
200.73709
 20
-28.58988
 30
0.0
 10
200.73709
 20
-28.58988
 30
0.0
 10
200.76908
 20
-28.58988
 30
0.0
 10
200.76908
 20
-28.58988
 30
0.0
 10
200.76908
 20
-28.58988
 30
0.0
 10
200.76908
 20
-28.58988
 30
0.0
 10
200.76908
 20
-28.85036
 30
0.0
 10
200.76908
 20
-28.85036
 30
0.0
 10
200.76908
 20
-28.85036
 30
0.0
 10
200.82
 20
-28.76875
 30
0.0
 10
200.87614
 20
-28.71
 30
0.0
 10
200.93751
 20
-28.67409
 30
0.0
 10
200.93751
 20
-28.67409
 30
0.0
 10
200.99888
 20
-28.63819
 30
0.0
 10
201.06481
 20
-28.62056
 30
0.0
 10
201.13662
 20
-28.62056
 30
0.0
 10
201.13662
 20
-28.62056
 30
0.0
 10
201.22802
 20
-28.62056
 30
0.0
 10
201.29983
 20
-28.63819
 30
0.0
 10
201.35076
 20
-28.67409
 30
0.0
 10
201.35076
 20
-28.67409
 30
0.0
 10
201.40168
 20
-28.71
 30
0.0
 10
201.43236
 20
-28.76875
 30
0.0
 10
201.44281
 20
-28.85036
 30
0.0
 10
201.44281
 20
-28.85036
 30
0.0
 10
201.49373
 20
-28.76875
 30
0.0
 10
201.55248
 20
-28.71
 30
0.0
 10
201.61842
 20
-28.67409
 30
0.0
 10
201.61842
 20
-28.67409
 30
0.0
 10
201.68501
 20
-28.63819
 30
0.0
 10
201.75356
 20
-28.62056
 30
0.0
 10
201.82537
 20
-28.62056
 30
0.0
 10
201.82537
 20
-28.62056
 30
0.0
 10
201.94745
 20
-28.62056
 30
0.0
 10
202.03167
 20
-28.65647
 30
0.0
 10
202.07802
 20
-28.72762
 30
0.0
 10
202.07802
 20
-28.72762
 30
0.0
 10
202.12372
 20
-28.79878
 30
0.0
 10
202.14657
 20
-28.89083
 30
0.0
 10
202.14657
 20
-29.00312
 30
0.0
 10
202.14657
 20
-29.00312
 30
0.0
 10
202.14657
 20
-29.00312
 30
0.0
 10
202.14657
 20
-30.16583
 30
0.0
 10
202.14657
 20
-30.16583
 30
0.0
 10
202.14657
 20
-30.16583
 30
0.0
 10
202.14657
 20
-30.2063
 30
0.0
 10
202.15701
 20
-30.23438
 30
0.0
 10
202.17725
 20
-30.25004
 30
0.0
 10
202.17725
 20
-30.25004
 30
0.0
 10
202.19749
 20
-30.26506
 30
0.0
 10
202.22817
 20
-30.27289
 30
0.0
 10
202.26865
 20
-30.27289
 30
0.0
 10
202.26865
 20
-30.27289
 30
0.0
 10
202.26865
 20
-30.27289
 30
0.0
 10
202.29933
 20
-30.27289
 30
0.0
 10
202.29933
 20
-30.27289
 30
0.0
 10
202.29933
 20
-30.27289
 30
0.0
 10
202.29933
 20
-30.27289
 30
0.0
 10
202.29933
 20
-30.36494
 30
0.0
 10
202.29933
 20
-30.36494
 30
0.0
 10
202.29933
 20
-30.36494
 30
0.0
 10
202.29933
 20
-30.36494
 30
0.0
 10
201.77967
 20
-30.36494
 30
0.0
 10
201.77967
 20
-30.36494
 30
0.0
 10
201.77967
 20
-30.36494
 30
0.0
 10
201.77967
 20
-30.36494
 30
0.0
 10
201.77967
 20
-30.27289
 30
0.0
 10
201.77967
 20
-30.27289
 30
0.0
 10
201.77967
 20
-30.27289
 30
0.0
 10
201.77967
 20
-30.27289
 30
0.0
 10
201.81035
 20
-30.27289
 30
0.0
 10
201.81035
 20
-30.27289
 30
0.0
 10
201.81035
 20
-30.27289
 30
0.0
 10
201.85083
 20
-30.27289
 30
0.0
 10
201.88151
 20
-30.26506
 30
0.0
 10
201.90175
 20
-30.25004
 30
0.0
 10
201.90175
 20
-30.25004
 30
0.0
 10
201.92199
 20
-30.23438
 30
0.0
 10
201.93243
 20
-30.2063
 30
0.0
 10
201.93243
 20
-30.16583
 30
0.0
 10
201.93243
 20
-30.16583
 30
0.0
 10
201.93243
 20
-30.16583
 30
0.0
 10
201.93243
 20
-29.01879
 30
0.0
 10
201.93243
 20
-29.01879
 30
0.0
 10
201.93243
 20
-29.01879
 30
0.0
 10
201.93243
 20
-28.9065
 30
0.0
 10
201.91938
 20
-28.83273
 30
0.0
 10
201.89392
 20
-28.79683
 30
0.0
 10
201.89392
 20
-28.79683
 30
0.0
 10
201.86846
 20
-28.76092
 30
0.0
 10
201.83059
 20
-28.74329
 30
0.0
 10
201.77902
 20
-28.74329
 30
0.0
 10
201.77902
 20
-28.74329
 30
0.0
 10
201.70786
 20
-28.74329
 30
0.0
 10
201.64388
 20
-28.76875
 30
0.0
 10
201.58774
 20
-28.81967
 30
0.0
 10
201.58774
 20
-28.81967
 30
0.0
 10
201.53159
 20
-28.8706
 30
0.0
 10
201.4885
 20
-28.94241
 30
0.0
 10
201.45782
 20
-29.03381
 30
0.0
 10
201.45782
 20
-29.03381
 30
0.0
 10
201.45782
 20
-29.03381
 30
0.0
 10
201.45782
 20
-30.16583
 30
0.0
 10
201.45782
 20
-30.16583
 30
0.0
 10
201.45782
 20
-30.16583
 30
0.0
 10
201.45782
 20
-30.2063
 30
0.0
 10
201.46827
 20
-30.23438
 30
0.0
 10
201.4885
 20
-30.25004
 30
0.0
 10
201.4885
 20
-30.25004
 30
0.0
 10
201.50874
 20
-30.26506
 30
0.0
 10
201.53943
 20
-30.27289
 30
0.0
 10
201.5799
 20
-30.27289
 30
0.0
 10
201.5799
 20
-30.27289
 30
0.0
 10
201.5799
 20
-30.27289
 30
0.0
 10
201.61059
 20
-30.27289
 30
0.0
 10
201.61059
 20
-30.27289
 30
0.0
 10
201.61059
 20
-30.27289
 30
0.0
 10
201.61059
 20
-30.27289
 30
0.0
 10
201.61059
 20
-30.36494
 30
0.0
 10
201.61059
 20
-30.36494
 30
0.0
 10
201.61059
 20
-30.36494
 30
0.0
 10
201.61059
 20
-30.36494
 30
0.0
 10
201.09093
 20
-30.36494
 30
0.0
 10
201.09093
 20
-30.36494
 30
0.0
 10
201.09093
 20
-30.36494
 30
0.0
 10
201.09093
 20
-30.36494
 30
0.0
 10
201.09093
 20
-30.27289
 30
0.0
 10
201.09093
 20
-30.27289
 30
0.0
 10
201.09093
 20
-30.27289
 30
0.0
 10
201.09093
 20
-30.27289
 30
0.0
 10
201.12161
 20
-30.27289
 30
0.0
 10
201.12161
 20
-30.27289
 30
0.0
 10
201.12161
 20
-30.27289
 30
0.0
 10
201.16209
 20
-30.27289
 30
0.0
 10
201.19277
 20
-30.26506
 30
0.0
 10
201.21301
 20
-30.25004
 30
0.0
 10
201.21301
 20
-30.25004
 30
0.0
 10
201.23324
 20
-30.23438
 30
0.0
 10
201.24369
 20
-30.2063
 30
0.0
 10
201.24369
 20
-30.16583
 30
0.0
 10
201.24369
 20
-30.16583
 30
0.0
 10
201.24369
 20
-30.16583
 30
0.0
 10
201.24369
 20
-29.01879
 30
0.0
 10
201.24369
 20
-29.01879
 30
0.0
 10
201.24369
 20
-29.01879
 30
0.0
 10
201.24369
 20
-28.92674
 30
0.0
 10
201.23324
 20
-28.85819
 30
0.0
 10
201.21301
 20
-28.81184
 30
0.0
 10
201.21301
 20
-28.81184
 30
0.0
 10
201.19277
 20
-28.76614
 30
0.0
 10
201.15164
 20
-28.74329
 30
0.0
 10
201.09027
 20
-28.74329
 30
0.0
 10
201.09027
 20
-28.74329
 30
0.0
 10
201.01911
 20
-28.74329
 30
0.0
 10
200.95514
 20
-28.76875
 30
0.0
 10
200.89899
 20
-28.81967
 30
0.0
 10
200.89899
 20
-28.81967
 30
0.0
 10
200.84285
 20
-28.8706
 30
0.0
 10
200.79976
 20
-28.94698
 30
0.0
 10
200.76908
 20
-29.04947
 30
0.0
 10
200.76908
 20
-29.04947
 30
0.0
 10
200.76908
 20
-29.04947
 30
0.0
 10
200.76908
 20
-30.16583
 30
0.0
 10
200.76908
 20
-30.16583
 30
0.0
 10
200.76908
 20
-30.16583
 30
0.0
 10
200.76908
 20
-30.2063
 30
0.0
 10
200.77952
 20
-30.23438
 30
0.0
 10
200.79976
 20
-30.25004
 30
0.0
 10
200.79976
 20
-30.25004
 30
0.0
 10
200.82
 20
-30.26506
 30
0.0
 10
200.85068
 20
-30.27289
 30
0.0
 10
200.89116
 20
-30.27289
 30
0.0
 10
200.89116
 20
-30.27289
 30
0.0
 10
200.89116
 20
-30.27289
 30
0.0
 10
200.92184
 20
-30.27289
 30
0.0
 10
200.92184
 20
-30.27289
 30
0.0
 10
200.92184
 20
-30.27289
 30
0.0
 10
200.92184
 20
-30.27289
 30
0.0
 10
200.92184
 20
-30.36494
 30
0.0
 10
200.92184
 20
-30.36494
 30
0.0
 10
200.92184
 20
-30.36494
 30
0.0
 10
200.92184
 20
-30.36494
 30
0.0
 10
200.40218
 20
-30.36494
 30
0.0
 10
200.40218
 20
-30.36494
 30
0.0
 10
200.40218
 20
-30.36494
 30
0.0
 10
200.40218
 20
-30.36494
 30
0.0
 10
200.40218
 20
-30.27289
 30
0.0
 10
200.40218
 20
-30.27289
 30
0.0
 10
200.40218
 20
-30.27289
 30
0.0
 10
200.40218
 20
-30.27289
 30
0.0
 10
200.43286
 20
-30.27289
 30
0.0
 10
200.43286
 20
-30.27289
 30
0.0
 10
200.43286
 20
-30.27289
 30
0.0
 10
200.47334
 20
-30.27289
 30
0.0
 10
200.50402
 20
-30.26506
 30
0.0
 10
200.52426
 20
-30.25004
 30
0.0
 10
200.52426
 20
-30.25004
 30
0.0
 10
200.5445
 20
-30.23438
 30
0.0
 10
200.55495
 20
-30.2063
 30
0.0
 10
200.55495
 20
-30.16583
 30
0.0
 10
200.55495
 20
-30.16583
 30
0.0
 10
200.55495
 20
-30.16583
 30
0.0
 10
200.55495
 20
-28.83534
 30
0.0
 10
200.55495
 20
-28.83534
 30
0.0
 10
200.55495
 20
-28.83534
 30
0.0
 10
200.55495
 20
-28.80466
 30
0.0
 10
200.54907
 20
-28.78181
 30
0.0
 10
200.53797
 20
-28.76614
 30
0.0
 10
200.53797
 20
-28.76614
 30
0.0
 10
200.52687
 20
-28.75113
 30
0.0
 10
200.50402
 20
-28.74329
 30
0.0
 10
200.47008
 20
-28.74329
 30
0.0
 10
200.47008
 20
-28.74329
 30
0.0
 10
200.47008
 20
-28.74329
 30
0.0
 10
200.40218
 20
-28.74329
 30
0.0
 10
200.40218
 20
-28.74329
 30
0.0
 10
200.40218
 20
-28.74329
 30
0.0
 10
200.40218
 20
-28.74329
 30
0.0
 10
200.40218
 20
-28.65124
 30
0.0
 10
200.40218
 20
-28.65124
 30
0.0
 10
200.40218
 20
-28.65124
 30
0.0
 10
200.40218
 20
-28.65124
 30
0.0
 10
200.44984
 20
-28.65124
 30
0.0
 10
200.44984
 20
-28.65124
 30
0.0
  0
SPLINE
  5
76
330
1F
100
AcDbEntity
  8
layer 1
 62
   250
100
AcDbSpline
210
0.0
220
0.0
230
1.0
 70
    11
 71
     3
 72
    64
 73
    60
 74
     0
 42
0.0000000001
 43
0.0000000001
 40
0.0
 40
0.0
 40
0.0
 40
0.0
 40
0.0666666666666667
 40
0.0666666666666667
 40
0.0666666666666667
 40
0.0666666666666667
 40
0.1333333333333333
 40
0.1333333333333333
 40
0.1333333333333333
 40
0.1333333333333333
 40
0.2
 40
0.2
 40
0.2
 40
0.2
 40
0.2666666666666667
 40
0.2666666666666667
 40
0.2666666666666667
 40
0.2666666666666667
 40
0.3333333333333333
 40
0.3333333333333333
 40
0.3333333333333333
 40
0.3333333333333333
 40
0.4
 40
0.4
 40
0.4
 40
0.4
 40
0.4666666666666666
 40
0.4666666666666666
 40
0.4666666666666666
 40
0.4666666666666666
 40
0.5333333333333333
 40
0.5333333333333333
 40
0.5333333333333333
 40
0.5333333333333333
 40
0.6
 40
0.6
 40
0.6
 40
0.6
 40
0.6666666666666666
 40
0.6666666666666666
 40
0.6666666666666666
 40
0.6666666666666666
 40
0.7333333333333333
 40
0.7333333333333333
 40
0.7333333333333333
 40
0.7333333333333333
 40
0.7999999999999999
 40
0.7999999999999999
 40
0.7999999999999999
 40
0.7999999999999999
 40
0.8666666666666666
 40
0.8666666666666666
 40
0.8666666666666666
 40
0.8666666666666666
 40
0.9333333333333332
 40
0.9333333333333332
 40
0.9333333333333332
 40
0.9333333333333332
 40
1.0
 40
1.0
 40
1.0
 40
1.0
 10
172.27526
 20
-15.02672
 30
0.0
 10
172.27526
 20
-15.02672
 30
0.0
 10
172.27526
 20
-13.53966
 30
0.0
 10
172.27526
 20
-13.53966
 30
0.0
 10
172.27526
 20
-13.53966
 30
0.0
 10
172.27526
 20
-13.53966
 30
0.0
 10
172.57341
 20
-13.53966
 30
0.0
 10
172.57341
 20
-13.53966
 30
0.0
 10
172.57341
 20
-13.53966
 30
0.0
 10
172.57341
 20
-13.53966
 30
0.0
 10
172.92727
 20
-14.59255
 30
0.0
 10
172.92727
 20
-14.59255
 30
0.0
 10
172.92727
 20
-14.59255
 30
0.0
 10
172.96001
 20
-14.69053
 30
0.0
 10
172.98404
 20
-14.76393
 30
0.0
 10
172.99867
 20
-14.81275
 30
0.0
 10
172.99867
 20
-14.81275
 30
0.0
 10
173.01574
 20
-14.75874
 30
0.0
 10
173.04221
 20
-14.67911
 30
0.0
 10
173.07843
 20
-14.5742
 30
0.0
 10
173.07843
 20
-14.5742
 30
0.0
 10
173.07843
 20
-14.5742
 30
0.0
 10
173.43648
 20
-13.53966
 30
0.0
 10
173.43648
 20
-13.53966
 30
0.0
 10
173.43648
 20
-13.53966
 30
0.0
 10
173.43648
 20
-13.53966
 30
0.0
 10
173.70293
 20
-13.53966
 30
0.0
 10
173.70293
 20
-13.53966
 30
0.0
 10
173.70293
 20
-13.53966
 30
0.0
 10
173.70293
 20
-13.53966
 30
0.0
 10
173.70293
 20
-15.02672
 30
0.0
 10
173.70293
 20
-15.02672
 30
0.0
 10
173.70293
 20
-15.02672
 30
0.0
 10
173.70293
 20
-15.02672
 30
0.0
 10
173.51207
 20
-15.02672
 30
0.0
 10
173.51207
 20
-15.02672
 30
0.0
 10
173.51207
 20
-15.02672
 30
0.0
 10
173.51207
 20
-15.02672
 30
0.0
 10
173.51207
 20
-13.78202
 30
0.0
 10
173.51207
 20
-13.78202
 30
0.0
 10
173.51207
 20
-13.78202
 30
0.0
 10
173.51207
 20
-13.78202
 30
0.0
 10
173.07739
 20
-15.02672
 30
0.0
 10
173.07739
 20
-15.02672
 30
0.0
 10
173.07739
 20
-15.02672
 30
0.0
 10
173.07739
 20
-15.02672
 30
0.0
 10
172.89871
 20
-15.02672
 30
0.0
 10
172.89871
 20
-15.02672
 30
0.0
 10
172.89871
 20
-15.02672
 30
0.0
 10
172.89871
 20
-15.02672
 30
0.0
 10
172.46613
 20
-13.7609
 30
0.0
 10
172.46613
 20
-13.7609
 30
0.0
 10
172.46613
 20
-13.7609
 30
0.0
 10
172.46613
 20
-13.7609
 30
0.0
 10
172.46613
 20
-15.02672
 30
0.0
 10
172.46613
 20
-15.02672
 30
0.0
 10
172.46613
 20
-15.02672
 30
0.0
 10
172.46613
 20
-15.02672
 30
0.0
 10
172.27526
 20
-15.02672
 30
0.0
 10
172.27526
 20
-15.02672
 30
0.0
  0
SPLINE
  5
77
330
1F
100
AcDbEntity
  8
layer 1
 62
   250
100
AcDbSpline
210
0.0
220
0.0
230
1.0
 70
    11
 71
     3
 72
    40
 73
    36
 74
     0
 42
0.0000000001
 43
0.0000000001
 40
0.0
 40
0.0
 40
0.0
 40
0.0
 40
0.1111111111111111
 40
0.1111111111111111
 40
0.1111111111111111
 40
0.1111111111111111
 40
0.2222222222222222
 40
0.2222222222222222
 40
0.2222222222222222
 40
0.2222222222222222
 40
0.3333333333333333
 40
0.3333333333333333
 40
0.3333333333333333
 40
0.3333333333333333
 40
0.4444444444444444
 40
0.4444444444444444
 40
0.4444444444444444
 40
0.4444444444444444
 40
0.5555555555555556
 40
0.5555555555555556
 40
0.5555555555555556
 40
0.5555555555555556
 40
0.6666666666666667
 40
0.6666666666666667
 40
0.6666666666666667
 40
0.6666666666666667
 40
0.7777777777777779
 40
0.7777777777777779
 40
0.7777777777777779
 40
0.7777777777777779
 40
0.8888888888888891
 40
0.8888888888888891
 40
0.8888888888888891
 40
0.8888888888888891
 40
1.0
 40
1.0
 40
1.0
 40
1.0
 10
174.04649
 20
-14.48799
 30
0.0
 10
174.04649
 20
-14.28856
 30
0.0
 10
174.10222
 20
-14.14072
 30
0.0
 10
174.21403
 20
-14.04481
 30
0.0
 10
174.21403
 20
-14.04481
 30
0.0
 10
174.30702
 20
-13.96518
 30
0.0
 10
174.42056
 20
-13.92502
 30
0.0
 10
174.55466
 20
-13.92502
 30
0.0
 10
174.55466
 20
-13.92502
 30
0.0
 10
174.70373
 20
-13.92502
 30
0.0
 10
174.82563
 20
-13.97349
 30
0.0
 10
174.92001
 20
-14.07078
 30
0.0
 10
174.92001
 20
-14.07078
 30
0.0
 10
175.01476
 20
-14.16772
 30
0.0
 10
175.06177
 20
-14.30171
 30
0.0
 10
175.06177
 20
-14.47275
 30
0.0
 10
175.06177
 20
-14.47275
 30
0.0
 10
175.06177
 20
-14.61159
 30
0.0
 10
175.04088
 20
-14.72065
 30
0.0
 10
174.99908
 20
-14.79994
 30
0.0
 10
174.99908
 20
-14.79994
 30
0.0
 10
174.95728
 20
-14.87957
 30
0.0
 10
174.89633
 20
-14.9412
 30
0.0
 10
174.81657
 20
-14.98517
 30
0.0
 10
174.81657
 20
-14.98517
 30
0.0
 10
174.73646
 20
-15.02914
 30
0.0
 10
174.64939
 20
-15.05096
 30
0.0
 10
174.55466
 20
-15.05096
 30
0.0
 10
174.55466
 20
-15.05096
 30
0.0
 10
174.40315
 20
-15.05096
 30
0.0
 10
174.28055
 20
-15.00283
 30
0.0
 10
174.18685
 20
-14.90589
 30
0.0
 10
174.18685
 20
-14.90589
 30
0.0
 10
174.09316
 20
-14.80929
 30
0.0
 10
174.04649
 20
-14.6701
 30
0.0
 10
174.04649
 20
-14.48799
 30
0.0
  0
SPLINE
  5
78
330
1F
100
AcDbEntity
  8
layer 1
 62
   250
100
AcDbSpline
210
0.0
220
0.0
230
1.0
 70
    11
 71
     3
 72
    36
 73
    32
 74
     0
 42
0.0000000001
 43
0.0000000001
 40
0.0
 40
0.0
 40
0.0
 40
0.0
 40
0.125
 40
0.125
 40
0.125
 40
0.125
 40
0.25
 40
0.25
 40
0.25
 40
0.25
 40
0.375
 40
0.375
 40
0.375
 40
0.375
 40
0.5
 40
0.5
 40
0.5
 40
0.5
 40
0.625
 40
0.625
 40
0.625
 40
0.625
 40
0.75
 40
0.75
 40
0.75
 40
0.75
 40
0.875
 40
0.875
 40
0.875
 40
0.875
 40
1.0
 40
1.0
 40
1.0
 40
1.0
 10
174.23527
 20
-14.48799
 30
0.0
 10
174.23527
 20
-14.62613
 30
0.0
 10
174.26557
 20
-14.72931
 30
0.0
 10
174.32617
 20
-14.79786
 30
0.0
 10
174.32617
 20
-14.79786
 30
0.0
 10
174.38678
 20
-14.86676
 30
0.0
 10
174.46305
 20
-14.90104
 30
0.0
 10
174.55466
 20
-14.90104
 30
0.0
 10
174.55466
 20
-14.90104
 30
0.0
 10
174.64591
 20
-14.90104
 30
0.0
 10
174.72184
 20
-14.86642
 30
0.0
 10
174.78244
 20
-14.79752
 30
0.0
 10
174.78244
 20
-14.79752
 30
0.0
 10
174.84269
 20
-14.72862
 30
0.0
 10
174.87299
 20
-14.62336
 30
0.0
 10
174.87299
 20
-14.4821
 30
0.0
 10
174.87299
 20
-14.4821
 30
0.0
 10
174.87299
 20
-14.3488
 30
0.0
 10
174.84269
 20
-14.2477
 30
0.0
 10
174.78174
 20
-14.17915
 30
0.0
 10
174.78174
 20
-14.17915
 30
0.0
 10
174.72079
 20
-14.1106
 30
0.0
 10
174.64521
 20
-14.07632
 30
0.0
 10
174.55466
 20
-14.07632
 30
0.0
 10
174.55466
 20
-14.07632
 30
0.0
 10
174.46305
 20
-14.07632
 30
0.0
 10
174.38678
 20
-14.1106
 30
0.0
 10
174.32617
 20
-14.1788
 30
0.0
 10
174.32617
 20
-14.1788
 30
0.0
 10
174.26557
 20
-14.24701
 30
0.0
 10
174.23527
 20
-14.35019
 30
0.0
 10
174.23527
 20
-14.48799
 30
0.0
  0
SPLINE
  5
79
330
1F
100
AcDbEntity
  8
layer 1
 62
   250
100
AcDbSpline
210
0.0
220
0.0
230
1.0
 70
    11
 71
     3
 72
    60
 73
    56
 74
     0
 42
0.0000000001
 43
0.0000000001
 40
0.0
 40
0.0
 40
0.0
 40
0.0
 40
0.0714285714285714
 40
0.0714285714285714
 40
0.0714285714285714
 40
0.0714285714285714
 40
0.1428571428571428
 40
0.1428571428571428
 40
0.1428571428571428
 40
0.1428571428571428
 40
0.2142857142857143
 40
0.2142857142857143
 40
0.2142857142857143
 40
0.2142857142857143
 40
0.2857142857142857
 40
0.2857142857142857
 40
0.2857142857142857
 40
0.2857142857142857
 40
0.3571428571428571
 40
0.3571428571428571
 40
0.3571428571428571
 40
0.3571428571428571
 40
0.4285714285714285
 40
0.4285714285714285
 40
0.4285714285714285
 40
0.4285714285714285
 40
0.4999999999999999
 40
0.4999999999999999
 40
0.4999999999999999
 40
0.4999999999999999
 40
0.5714285714285713
 40
0.5714285714285713
 40
0.5714285714285713
 40
0.5714285714285713
 40
0.6428571428571427
 40
0.6428571428571427
 40
0.6428571428571427
 40
0.6428571428571427
 40
0.7142857142857141
 40
0.7142857142857141
 40
0.7142857142857141
 40
0.7142857142857141
 40
0.7857142857142855
 40
0.7857142857142855
 40
0.7857142857142855
 40
0.7857142857142855
 40
0.8571428571428569
 40
0.8571428571428569
 40
0.8571428571428569
 40
0.8571428571428569
 40
0.9285714285714283
 40
0.9285714285714283
 40
0.9285714285714283
 40
0.9285714285714283
 40
1.0
 40
1.0
 40
1.0
 40
1.0
 10
176.09635
 20
-15.02672
 30
0.0
 10
176.09635
 20
-15.02672
 30
0.0
 10
176.09635
 20
-14.89065
 30
0.0
 10
176.09635
 20
-14.89065
 30
0.0
 10
176.09635
 20
-14.89065
 30
0.0
 10
176.02773
 20
-14.99764
 30
0.0
 10
175.92673
 20
-15.05096
 30
0.0
 10
175.79333
 20
-15.05096
 30
0.0
 10
175.79333
 20
-15.05096
 30
0.0
 10
175.70695
 20
-15.05096
 30
0.0
 10
175.62754
 20
-15.02741
 30
0.0
 10
175.5551
 20
-14.97998
 30
0.0
 10
175.5551
 20
-14.97998
 30
0.0
 10
175.48265
 20
-14.93289
 30
0.0
 10
175.42657
 20
-14.86676
 30
0.0
 10
175.38652
 20
-14.78159
 30
0.0
 10
175.38652
 20
-14.78159
 30
0.0
 10
175.34681
 20
-14.69676
 30
0.0
 10
175.32696
 20
-14.59947
 30
0.0
 10
175.32696
 20
-14.48902
 30
0.0
 10
175.32696
 20
-14.48902
 30
0.0
 10
175.32696
 20
-14.38169
 30
0.0
 10
175.34507
 20
-14.28406
 30
0.0
 10
175.38094
 20
-14.19646
 30
0.0
 10
175.38094
 20
-14.19646
 30
0.0
 10
175.41717
 20
-14.10886
 30
0.0
 10
175.47116
 20
-14.0417
 30
0.0
 10
175.54326
 20
-13.9953
 30
0.0
 10
175.54326
 20
-13.9953
 30
0.0
 10
175.61535
 20
-13.94856
 30
0.0
 10
175.69615
 20
-13.92502
 30
0.0
 10
175.78532
 20
-13.92502
 30
0.0
 10
175.78532
 20
-13.92502
 30
0.0
 10
175.85045
 20
-13.92502
 30
0.0
 10
175.90861
 20
-13.93887
 30
0.0
 10
175.95947
 20
-13.96622
 30
0.0
 10
175.95947
 20
-13.96622
 30
0.0
 10
176.01067
 20
-13.99357
 30
0.0
 10
176.05212
 20
-14.02923
 30
0.0
 10
176.08416
 20
-14.0732
 30
0.0
 10
176.08416
 20
-14.0732
 30
0.0
 10
176.08416
 20
-14.0732
 30
0.0
 10
176.08416
 20
-13.53966
 30
0.0
 10
176.08416
 20
-13.53966
 30
0.0
 10
176.08416
 20
-13.53966
 30
0.0
 10
176.08416
 20
-13.53966
 30
0.0
 10
176.26667
 20
-13.53966
 30
0.0
 10
176.26667
 20
-13.53966
 30
0.0
 10
176.26667
 20
-13.53966
 30
0.0
 10
176.26667
 20
-13.53966
 30
0.0
 10
176.26667
 20
-15.02672
 30
0.0
 10
176.26667
 20
-15.02672
 30
0.0
 10
176.26667
 20
-15.02672
 30
0.0
 10
176.26667
 20
-15.02672
 30
0.0
 10
176.09635
 20
-15.02672
 30
0.0
 10
176.09635
 20
-15.02672
 30
0.0
  0
SPLINE
  5
7A
330
1F
100
AcDbEntity
  8
layer 1
 62
   250
100
AcDbSpline
210
0.0
220
0.0
230
1.0
 70
    11
 71
     3
 72
    36
 73
    32
 74
     0
 42
0.0000000001
 43
0.0000000001
 40
0.0
 40
0.0
 40
0.0
 40
0.0
 40
0.125
 40
0.125
 40
0.125
 40
0.125
 40
0.25
 40
0.25
 40
0.25
 40
0.25
 40
0.375
 40
0.375
 40
0.375
 40
0.375
 40
0.5
 40
0.5
 40
0.5
 40
0.5
 40
0.625
 40
0.625
 40
0.625
 40
0.625
 40
0.75
 40
0.75
 40
0.75
 40
0.75
 40
0.875
 40
0.875
 40
0.875
 40
0.875
 40
1.0
 40
1.0
 40
1.0
 40
1.0
 10
175.51573
 20
-14.48902
 30
0.0
 10
175.51573
 20
-14.62717
 30
0.0
 10
175.545
 20
-14.73035
 30
0.0
 10
175.6035
 20
-14.79855
 30
0.0
 10
175.6035
 20
-14.79855
 30
0.0
 10
175.66202
 20
-14.86676
 30
0.0
 10
175.73098
 20
-14.90104
 30
0.0
 10
175.81074
 20
-14.90104
 30
0.0
 10
175.81074
 20
-14.90104
 30
0.0
 10
175.89085
 20
-14.90104
 30
0.0
 10
175.95911
 20
-14.86815
 30
0.0
 10
176.0152
 20
-14.80306
 30
0.0
 10
176.0152
 20
-14.80306
 30
0.0
 10
176.07127
 20
-14.73796
 30
0.0
 10
176.09949
 20
-14.63825
 30
0.0
 10
176.09949
 20
-14.50426
 30
0.0
 10
176.09949
 20
-14.50426
 30
0.0
 10
176.09949
 20
-14.35676
 30
0.0
 10
176.07092
 20
-14.24874
 30
0.0
 10
176.0138
 20
-14.17984
 30
0.0
 10
176.0138
 20
-14.17984
 30
0.0
 10
175.95668
 20
-14.1106
 30
0.0
 10
175.88632
 20
-14.07632
 30
0.0
 10
175.80238
 20
-14.07632
 30
0.0
 10
175.80238
 20
-14.07632
 30
0.0
 10
175.72088
 20
-14.07632
 30
0.0
 10
175.65262
 20
-14.10956
 30
0.0
 10
175.59793
 20
-14.17569
 30
0.0
 10
175.59793
 20
-14.17569
 30
0.0
 10
175.54326
 20
-14.24182
 30
0.0
 10
175.51573
 20
-14.34638
 30
0.0
 10
175.51573
 20
-14.48902
 30
0.0
  0
SPLINE
  5
7B
330
1F
100
AcDbEntity
  8
layer 1
 62
   250
100
AcDbSpline
210
0.0
220
0.0
230
1.0
 70
    11
 71
     3
 72
    64
 73
    60
 74
     0
 42
0.0000000001
 43
0.0000000001
 40
0.0
 40
0.0
 40
0.0
 40
0.0
 40
0.0666666666666667
 40
0.0666666666666667
 40
0.0666666666666667
 40
0.0666666666666667
 40
0.1333333333333333
 40
0.1333333333333333
 40
0.1333333333333333
 40
0.1333333333333333
 40
0.2
 40
0.2
 40
0.2
 40
0.2
 40
0.2666666666666667
 40
0.2666666666666667
 40
0.2666666666666667
 40
0.2666666666666667
 40
0.3333333333333333
 40
0.3333333333333333
 40
0.3333333333333333
 40
0.3333333333333333
 40
0.4
 40
0.4
 40
0.4
 40
0.4
 40
0.4666666666666666
 40
0.4666666666666666
 40
0.4666666666666666
 40
0.4666666666666666
 40
0.5333333333333333
 40
0.5333333333333333
 40
0.5333333333333333
 40
0.5333333333333333
 40
0.6
 40
0.6
 40
0.6
 40
0.6
 40
0.6666666666666666
 40
0.6666666666666666
 40
0.6666666666666666
 40
0.6666666666666666
 40
0.7333333333333333
 40
0.7333333333333333
 40
0.7333333333333333
 40
0.7333333333333333
 40
0.7999999999999999
 40
0.7999999999999999
 40
0.7999999999999999
 40
0.7999999999999999
 40
0.8666666666666666
 40
0.8666666666666666
 40
0.8666666666666666
 40
0.8666666666666666
 40
0.9333333333333332
 40
0.9333333333333332
 40
0.9333333333333332
 40
0.9333333333333332
 40
1.0
 40
1.0
 40
1.0
 40
1.0
 10
177.41339
 20
-14.6798
 30
0.0
 10
177.41339
 20
-14.6798
 30
0.0
 10
177.60321
 20
-14.70299
 30
0.0
 10
177.60321
 20
-14.70299
 30
0.0
 10
177.60321
 20
-14.70299
 30
0.0
 10
177.57326
 20
-14.81344
 30
0.0
 10
177.51788
 20
-14.89896
 30
0.0
 10
177.43707
 20
-14.9599
 30
0.0
 10
177.43707
 20
-14.9599
 30
0.0
 10
177.35592
 20
-15.02049
 30
0.0
 10
177.25247
 20
-15.05096
 30
0.0
 10
177.12674
 20
-15.05096
 30
0.0
 10
177.12674
 20
-15.05096
 30
0.0
 10
176.96827
 20
-15.05096
 30
0.0
 10
176.84253
 20
-15.00248
 30
0.0
 10
176.74988
 20
-14.90554
 30
0.0
 10
176.74988
 20
-14.90554
 30
0.0
 10
176.65689
 20
-14.8086
 30
0.0
 10
176.61056
 20
-14.67253
 30
0.0
 10
176.61056
 20
-14.49733
 30
0.0
 10
176.61056
 20
-14.49733
 30
0.0
 10
176.61056
 20
-14.31591
 30
0.0
 10
176.65758
 20
-14.17534
 30
0.0
 10
176.75128
 20
-14.07528
 30
0.0
 10
176.75128
 20
-14.07528
 30
0.0
 10
176.84532
 20
-13.97522
 30
0.0
 10
176.96687
 20
-13.92502
 30
0.0
 10
177.11664
 20
-13.92502
 30
0.0
 10
177.11664
 20
-13.92502
 30
0.0
 10
177.26153
 20
-13.92502
 30
0.0
 10
177.37995
 20
-13.97418
 30
0.0
 10
177.47155
 20
-14.07216
 30
0.0
 10
177.47155
 20
-14.07216
 30
0.0
 10
177.56351
 20
-14.17015
 30
0.0
 10
177.60948
 20
-14.30829
 30
0.0
 10
177.60948
 20
-14.48591
 30
0.0
 10
177.60948
 20
-14.48591
 30
0.0
 10
177.60948
 20
-14.49699
 30
0.0
 10
177.60913
 20
-14.51326
 30
0.0
 10
177.60843
 20
-14.53473
 30
0.0
 10
177.60843
 20
-14.53473
 30
0.0
 10
177.60843
 20
-14.53473
 30
0.0
 10
176.80039
 20
-14.53473
 30
0.0
 10
176.80039
 20
-14.53473
 30
0.0
 10
176.80039
 20
-14.53473
 30
0.0
 10
176.807
 20
-14.65314
 30
0.0
 10
176.84079
 20
-14.74385
 30
0.0
 10
176.90139
 20
-14.80652
 30
0.0
 10
176.90139
 20
-14.80652
 30
0.0
 10
176.962
 20
-14.86953
 30
0.0
 10
177.03723
 20
-14.90104
 30
0.0
 10
177.12778
 20
-14.90104
 30
0.0
 10
177.12778
 20
-14.90104
 30
0.0
 10
177.195
 20
-14.90104
 30
0.0
 10
177.25247
 20
-14.88338
 30
0.0
 10
177.3002
 20
-14.84807
 30
0.0
 10
177.3002
 20
-14.84807
 30
0.0
 10
177.34791
 20
-14.8131
 30
0.0
 10
177.38552
 20
-14.75701
 30
0.0
 10
177.41339
 20
-14.6798
 30
0.0
  0
SPLINE
  5
7C
330
1F
100
AcDbEntity
  8
layer 1
 62
   250
100
AcDbSpline
210
0.0
220
0.0
230
1.0
 70
    11
 71
     3
 72
    24
 73
    20
 74
     0
 42
0.0000000001
 43
0.0000000001
 40
0.0
 40
0.0
 40
0.0
 40
0.0
 40
0.2
 40
0.2
 40
0.2
 40
0.2
 40
0.4
 40
0.4
 40
0.4
 40
0.4
 40
0.6000000000000001
 40
0.6000000000000001
 40
0.6000000000000001
 40
0.6000000000000001
 40
0.8
 40
0.8
 40
0.8
 40
0.8
 40
1.0
 40
1.0
 40
1.0
 40
1.0
 10
176.81049
 20
-14.38446
 30
0.0
 10
176.81049
 20
-14.38446
 30
0.0
 10
177.41548
 20
-14.38446
 30
0.0
 10
177.41548
 20
-14.38446
 30
0.0
 10
177.41548
 20
-14.38446
 30
0.0
 10
177.40746
 20
-14.2941
 30
0.0
 10
177.38413
 20
-14.22589
 30
0.0
 10
177.34617
 20
-14.18088
 30
0.0
 10
177.34617
 20
-14.18088
 30
0.0
 10
177.28765
 20
-14.1106
 30
0.0
 10
177.21172
 20
-14.07528
 30
0.0
 10
177.11873
 20
-14.07528
 30
0.0
 10
177.11873
 20
-14.07528
 30
0.0
 10
177.03444
 20
-14.07528
 30
0.0
 10
176.96339
 20
-14.10332
 30
0.0
 10
176.90592
 20
-14.15941
 30
0.0
 10
176.90592
 20
-14.15941
 30
0.0
 10
176.84846
 20
-14.2155
 30
0.0
 10
176.81676
 20
-14.29064
 30
0.0
 10
176.81049
 20
-14.38446
 30
0.0
  0
SPLINE
  5
7D
330
1F
100
AcDbEntity
  8
layer 1
 62
   250
100
AcDbSpline
210
0.0
220
0.0
230
1.0
 70
    11
 71
     3
 72
    20
 73
    16
 74
     0
 42
0.0000000001
 43
0.0000000001
 40
0.0
 40
0.0
 40
0.0
 40
0.0
 40
0.25
 40
0.25
 40
0.25
 40
0.25
 40
0.5
 40
0.5
 40
0.5
 40
0.5
 40
0.75
 40
0.75
 40
0.75
 40
0.75
 40
1.0
 40
1.0
 40
1.0
 40
1.0
 10
177.94607
 20
-15.02672
 30
0.0
 10
177.94607
 20
-15.02672
 30
0.0
 10
177.94607
 20
-13.53966
 30
0.0
 10
177.94607
 20
-13.53966
 30
0.0
 10
177.94607
 20
-13.53966
 30
0.0
 10
177.94607
 20
-13.53966
 30
0.0
 10
178.12963
 20
-13.53966
 30
0.0
 10
178.12963
 20
-13.53966
 30
0.0
 10
178.12963
 20
-13.53966
 30
0.0
 10
178.12963
 20
-13.53966
 30
0.0
 10
178.12963
 20
-15.02672
 30
0.0
 10
178.12963
 20
-15.02672
 30
0.0
 10
178.12963
 20
-15.02672
 30
0.0
 10
178.12963
 20
-15.02672
 30
0.0
 10
177.94607
 20
-15.02672
 30
0.0
 10
177.94607
 20
-15.02672
 30
0.0
  0
SPLINE
  5
7E
330
1F
100
AcDbEntity
  8
layer 1
 62
   250
100
AcDbSpline
210
0.0
220
0.0
230
1.0
 70
    11
 71
     3
 72
    40
 73
    36
 74
     0
 42
0.0000000001
 43
0.0000000001
 40
0.0
 40
0.0
 40
0.0
 40
0.0
 40
0.1111111111111111
 40
0.1111111111111111
 40
0.1111111111111111
 40
0.1111111111111111
 40
0.2222222222222222
 40
0.2222222222222222
 40
0.2222222222222222
 40
0.2222222222222222
 40
0.3333333333333333
 40
0.3333333333333333
 40
0.3333333333333333
 40
0.3333333333333333
 40
0.4444444444444444
 40
0.4444444444444444
 40
0.4444444444444444
 40
0.4444444444444444
 40
0.5555555555555556
 40
0.5555555555555556
 40
0.5555555555555556
 40
0.5555555555555556
 40
0.6666666666666667
 40
0.6666666666666667
 40
0.6666666666666667
 40
0.6666666666666667
 40
0.7777777777777779
 40
0.7777777777777779
 40
0.7777777777777779
 40
0.7777777777777779
 40
0.8888888888888891
 40
0.8888888888888891
 40
0.8888888888888891
 40
0.8888888888888891
 40
1.0
 40
1.0
 40
1.0
 40
1.0
 10
180.955
 20
-15.02672
 30
0.0
 10
180.955
 20
-15.02672
 30
0.0
 10
180.37543
 20
-13.53966
 30
0.0
 10
180.37543
 20
-13.53966
 30
0.0
 10
180.37543
 20
-13.53966
 30
0.0
 10
180.37543
 20
-13.53966
 30
0.0
 10
180.58999
 20
-13.53966
 30
0.0
 10
180.58999
 20
-13.53966
 30
0.0
 10
180.58999
 20
-13.53966
 30
0.0
 10
180.58999
 20
-13.53966
 30
0.0
 10
180.97868
 20
-14.6199
 30
0.0
 10
180.97868
 20
-14.6199
 30
0.0
 10
180.97868
 20
-14.6199
 30
0.0
 10
181.01003
 20
-14.70646
 30
0.0
 10
181.03615
 20
-14.78782
 30
0.0
 10
181.05705
 20
-14.8633
 30
0.0
 10
181.05705
 20
-14.8633
 30
0.0
 10
181.08039
 20
-14.78228
 30
0.0
 10
181.1072
 20
-14.70126
 30
0.0
 10
181.13786
 20
-14.6199
 30
0.0
 10
181.13786
 20
-14.6199
 30
0.0
 10
181.13786
 20
-14.6199
 30
0.0
 10
181.54188
 20
-13.53966
 30
0.0
 10
181.54188
 20
-13.53966
 30
0.0
 10
181.54188
 20
-13.53966
 30
0.0
 10
181.54188
 20
-13.53966
 30
0.0
 10
181.74389
 20
-13.53966
 30
0.0
 10
181.74389
 20
-13.53966
 30
0.0
 10
181.74389
 20
-13.53966
 30
0.0
 10
181.74389
 20
-13.53966
 30
0.0
 10
181.15806
 20
-15.02672
 30
0.0
 10
181.15806
 20
-15.02672
 30
0.0
 10
181.15806
 20
-15.02672
 30
0.0
 10
181.15806
 20
-15.02672
 30
0.0
 10
180.955
 20
-15.02672
 30
0.0
 10
180.955
 20
-15.02672
 30
0.0
  0
SPLINE
  5
7F
330
1F
100
AcDbEntity
  8
layer 1
 62
   250
100
AcDbSpline
210
0.0
220
0.0
230
1.0
 70
    11
 71
     3
 72
    92
 73
    88
 74
     0
 42
0.0000000001
 43
0.0000000001
 40
0.0
 40
0.0
 40
0.0
 40
0.0
 40
0.0454545454545455
 40
0.0454545454545455
 40
0.0454545454545455
 40
0.0454545454545455
 40
0.0909090909090909
 40
0.0909090909090909
 40
0.0909090909090909
 40
0.0909090909090909
 40
0.1363636363636364
 40
0.1363636363636364
 40
0.1363636363636364
 40
0.1363636363636364
 40
0.1818181818181818
 40
0.1818181818181818
 40
0.1818181818181818
 40
0.1818181818181818
 40
0.2272727272727273
 40
0.2272727272727273
 40
0.2272727272727273
 40
0.2272727272727273
 40
0.2727272727272728
 40
0.2727272727272728
 40
0.2727272727272728
 40
0.2727272727272728
 40
0.3181818181818182
 40
0.3181818181818182
 40
0.3181818181818182
 40
0.3181818181818182
 40
0.3636363636363637
 40
0.3636363636363637
 40
0.3636363636363637
 40
0.3636363636363637
 40
0.4090909090909092
 40
0.4090909090909092
 40
0.4090909090909092
 40
0.4090909090909092
 40
0.4545454545454546
 40
0.4545454545454546
 40
0.4545454545454546
 40
0.4545454545454546
 40
0.5000000000000001
 40
0.5000000000000001
 40
0.5000000000000001
 40
0.5000000000000001
 40
0.5454545454545455
 40
0.5454545454545455
 40
0.5454545454545455
 40
0.5454545454545455
 40
0.5909090909090909
 40
0.5909090909090909
 40
0.5909090909090909
 40
0.5909090909090909
 40
0.6363636363636364
 40
0.6363636363636364
 40
0.6363636363636364
 40
0.6363636363636364
 40
0.6818181818181818
 40
0.6818181818181818
 40
0.6818181818181818
 40
0.6818181818181818
 40
0.7272727272727272
 40
0.7272727272727272
 40
0.7272727272727272
 40
0.7272727272727272
 40
0.7727272727272726
 40
0.7727272727272726
 40
0.7727272727272726
 40
0.7727272727272726
 40
0.818181818181818
 40
0.818181818181818
 40
0.818181818181818
 40
0.818181818181818
 40
0.8636363636363634
 40
0.8636363636363634
 40
0.8636363636363634
 40
0.8636363636363634
 40
0.9090909090909088
 40
0.9090909090909088
 40
0.9090909090909088
 40
0.9090909090909088
 40
0.9545454545454543
 40
0.9545454545454543
 40
0.9545454545454543
 40
0.9545454545454543
 40
1.0
 40
1.0
 40
1.0
 40
1.0
 10
183.10482
 20
-14.5053
 30
0.0
 10
183.10482
 20
-14.5053
 30
0.0
 10
183.303
 20
-14.55515
 30
0.0
 10
183.303
 20
-14.55515
 30
0.0
 10
183.303
 20
-14.55515
 30
0.0
 10
183.26156
 20
-14.7165
 30
0.0
 10
183.18667
 20
-14.83976
 30
0.0
 10
183.07904
 20
-14.92493
 30
0.0
 10
183.07904
 20
-14.92493
 30
0.0
 10
182.97107
 20
-15.00975
 30
0.0
 10
182.83942
 20
-15.05199
 30
0.0
 10
182.68338
 20
-15.05199
 30
0.0
 10
182.68338
 20
-15.05199
 30
0.0
 10
182.52212
 20
-15.05199
 30
0.0
 10
182.39116
 20
-15.01945
 30
0.0
 10
182.29015
 20
-14.95436
 30
0.0
 10
182.29015
 20
-14.95436
 30
0.0
 10
182.18915
 20
-14.88892
 30
0.0
 10
182.11218
 20
-14.7944
 30
0.0
 10
182.05959
 20
-14.6708
 30
0.0
 10
182.05959
 20
-14.6708
 30
0.0
 10
182.00699
 20
-14.54685
 30
0.0
 10
181.98052
 20
-14.41389
 30
0.0
 10
181.98052
 20
-14.27194
 30
0.0
 10
181.98052
 20
-14.27194
 30
0.0
 10
181.98052
 20
-14.11717
 30
0.0
 10
182.01012
 20
-13.98214
 30
0.0
 10
182.06969
 20
-13.86685
 30
0.0
 10
182.06969
 20
-13.86685
 30
0.0
 10
182.12924
 20
-13.75155
 30
0.0
 10
182.21388
 20
-13.66396
 30
0.0
 10
182.32395
 20
-13.60406
 30
0.0
 10
182.32395
 20
-13.60406
 30
0.0
 10
182.43366
 20
-13.54416
 30
0.0
 10
182.55451
 20
-13.51439
 30
0.0
 10
182.68652
 20
-13.51439
 30
0.0
 10
182.68652
 20
-13.51439
 30
0.0
 10
182.83628
 20
-13.51439
 30
0.0
 10
182.96202
 20
-13.55213
 30
0.0
 10
183.06407
 20
-13.62795
 30
0.0
 10
183.06407
 20
-13.62795
 30
0.0
 10
183.16612
 20
-13.70378
 30
0.0
 10
183.23717
 20
-13.81007
 30
0.0
 10
183.27723
 20
-13.94752
 30
0.0
 10
183.27723
 20
-13.94752
 30
0.0
 10
183.27723
 20
-13.94752
 30
0.0
 10
183.08253
 20
-13.99322
 30
0.0
 10
183.08253
 20
-13.99322
 30
0.0
 10
183.08253
 20
-13.99322
 30
0.0
 10
183.0477
 20
-13.88485
 30
0.0
 10
182.99754
 20
-13.80626
 30
0.0
 10
182.93137
 20
-13.75675
 30
0.0
 10
182.93137
 20
-13.75675
 30
0.0
 10
182.86554
 20
-13.70724
 30
0.0
 10
182.78265
 20
-13.68266
 30
0.0
 10
182.68234
 20
-13.68266
 30
0.0
 10
182.68234
 20
-13.68266
 30
0.0
 10
182.5674
 20
-13.68266
 30
0.0
 10
182.47162
 20
-13.71001
 30
0.0
 10
182.39429
 20
-13.76471
 30
0.0
 10
182.39429
 20
-13.76471
 30
0.0
 10
182.31697
 20
-13.81976
 30
0.0
 10
182.26264
 20
-13.89316
 30
0.0
 10
182.23164
 20
-13.98561
 30
0.0
 10
182.23164
 20
-13.98561
 30
0.0
 10
182.20029
 20
-14.0777
 30
0.0
 10
182.18462
 20
-14.17292
 30
0.0
 10
182.18462
 20
-14.2709
 30
0.0
 10
182.18462
 20
-14.2709
 30
0.0
 10
182.18462
 20
-14.39762
 30
0.0
 10
182.20308
 20
-14.50772
 30
0.0
 10
182.24
 20
-14.60224
 30
0.0
 10
182.24
 20
-14.60224
 30
0.0
 10
182.27727
 20
-14.69642
 30
0.0
 10
182.33474
 20
-14.76705
 30
0.0
 10
182.4131
 20
-14.81379
 30
0.0
 10
182.4131
 20
-14.81379
 30
0.0
 10
182.49147
 20
-14.86053
 30
0.0
 10
182.57611
 20
-14.88373
 30
0.0
 10
182.66736
 20
-14.88373
 30
0.0
 10
182.66736
 20
-14.88373
 30
0.0
 10
182.77812
 20
-14.88373
 30
0.0
 10
182.87182
 20
-14.85187
 30
0.0
 10
182.94878
 20
-14.78851
 30
0.0
 10
182.94878
 20
-14.78851
 30
0.0
 10
183.02576
 20
-14.72481
 30
0.0
 10
183.07766
 20
-14.63029
 30
0.0
 10
183.10482
 20
-14.5053
 30
0.0
  0
SPLINE
  5
80
330
1F
100
AcDbEntity
  8
layer 1
 62
   250
100
AcDbSpline
210
0.0
220
0.0
230
1.0
 70
    11
 71
     3
 72
    72
 73
    68
 74
     0
 42
0.0000000001
 43
0.0000000001
 40
0.0
 40
0.0
 40
0.0
 40
0.0
 40
0.0588235294117647
 40
0.0588235294117647
 40
0.0588235294117647
 40
0.0588235294117647
 40
0.1176470588235294
 40
0.1176470588235294
 40
0.1176470588235294
 40
0.1176470588235294
 40
0.1764705882352941
 40
0.1764705882352941
 40
0.1764705882352941
 40
0.1764705882352941
 40
0.2352941176470588
 40
0.2352941176470588
 40
0.2352941176470588
 40
0.2352941176470588
 40
0.2941176470588235
 40
0.2941176470588235
 40
0.2941176470588235
 40
0.2941176470588235
 40
0.3529411764705883
 40
0.3529411764705883
 40
0.3529411764705883
 40
0.3529411764705883
 40
0.411764705882353
 40
0.411764705882353
 40
0.411764705882353
 40
0.411764705882353
 40
0.4705882352941177
 40
0.4705882352941177
 40
0.4705882352941177
 40
0.4705882352941177
 40
0.5294117647058824
 40
0.5294117647058824
 40
0.5294117647058824
 40
0.5294117647058824
 40
0.5882352941176471
 40
0.5882352941176471
 40
0.5882352941176471
 40
0.5882352941176471
 40
0.6470588235294118
 40
0.6470588235294118
 40
0.6470588235294118
 40
0.6470588235294118
 40
0.7058823529411765
 40
0.7058823529411765
 40
0.7058823529411765
 40
0.7058823529411765
 40
0.7647058823529412
 40
0.7647058823529412
 40
0.7647058823529412
 40
0.7647058823529412
 40
0.823529411764706
 40
0.823529411764706
 40
0.823529411764706
 40
0.823529411764706
 40
0.8823529411764707
 40
0.8823529411764707
 40
0.8823529411764707
 40
0.8823529411764707
 40
0.9411764705882354
 40
0.9411764705882354
 40
0.9411764705882354
 40
0.9411764705882354
 40
1.0
 40
1.0
 40
1.0
 40
1.0
 10
184.64442
 20
-13.53966
 30
0.0
 10
184.64442
 20
-13.53966
 30
0.0
 10
184.84261
 20
-13.53966
 30
0.0
 10
184.84261
 20
-13.53966
 30
0.0
 10
184.84261
 20
-13.53966
 30
0.0
 10
184.84261
 20
-13.53966
 30
0.0
 10
184.84261
 20
-14.39901
 30
0.0
 10
184.84261
 20
-14.39901
 30
0.0
 10
184.84261
 20
-14.39901
 30
0.0
 10
184.84261
 20
-14.54823
 30
0.0
 10
184.82553
 20
-14.66699
 30
0.0
 10
184.7914
 20
-14.75493
 30
0.0
 10
184.7914
 20
-14.75493
 30
0.0
 10
184.75727
 20
-14.84287
 30
0.0
 10
184.69597
 20
-14.9142
 30
0.0
 10
184.60715
 20
-14.96925
 30
0.0
 10
184.60715
 20
-14.96925
 30
0.0
 10
184.51834
 20
-15.02464
 30
0.0
 10
184.402
 20
-15.05199
 30
0.0
 10
184.25782
 20
-15.05199
 30
0.0
 10
184.25782
 20
-15.05199
 30
0.0
 10
184.1178
 20
-15.05199
 30
0.0
 10
184.00285
 20
-15.0281
 30
0.0
 10
183.91405
 20
-14.97998
 30
0.0
 10
183.91405
 20
-14.97998
 30
0.0
 10
183.82488
 20
-14.9322
 30
0.0
 10
183.76114
 20
-14.86261
 30
0.0
 10
183.72317
 20
-14.77155
 30
0.0
 10
183.72317
 20
-14.77155
 30
0.0
 10
183.68487
 20
-14.68049
 30
0.0
 10
183.66606
 20
-14.55654
 30
0.0
 10
183.66606
 20
-14.39901
 30
0.0
 10
183.66606
 20
-14.39901
 30
0.0
 10
183.66606
 20
-14.39901
 30
0.0
 10
183.66606
 20
-13.53966
 30
0.0
 10
183.66606
 20
-13.53966
 30
0.0
 10
183.66606
 20
-13.53966
 30
0.0
 10
183.66606
 20
-13.53966
 30
0.0
 10
183.86389
 20
-13.53966
 30
0.0
 10
183.86389
 20
-13.53966
 30
0.0
 10
183.86389
 20
-13.53966
 30
0.0
 10
183.86389
 20
-13.53966
 30
0.0
 10
183.86389
 20
-14.39797
 30
0.0
 10
183.86389
 20
-14.39797
 30
0.0
 10
183.86389
 20
-14.39797
 30
0.0
 10
183.86389
 20
-14.52711
 30
0.0
 10
183.87608
 20
-14.62232
 30
0.0
 10
183.90011
 20
-14.68326
 30
0.0
 10
183.90011
 20
-14.68326
 30
0.0
 10
183.92415
 20
-14.74454
 30
0.0
 10
183.96593
 20
-14.79163
 30
0.0
 10
184.02445
 20
-14.82487
 30
0.0
 10
184.02445
 20
-14.82487
 30
0.0
 10
184.08331
 20
-14.85811
 30
0.0
 10
184.15541
 20
-14.87473
 30
0.0
 10
184.24039
 20
-14.87473
 30
0.0
 10
184.24039
 20
-14.87473
 30
0.0
 10
184.38599
 20
-14.87473
 30
0.0
 10
184.48977
 20
-14.84183
 30
0.0
 10
184.55177
 20
-14.77605
 30
0.0
 10
184.55177
 20
-14.77605
 30
0.0
 10
184.61343
 20
-14.71061
 30
0.0
 10
184.64442
 20
-14.58458
 30
0.0
 10
184.64442
 20
-14.39797
 30
0.0
 10
184.64442
 20
-14.39797
 30
0.0
 10
184.64442
 20
-14.39797
 30
0.0
 10
184.64442
 20
-13.53966
 30
0.0
 10
184.64442
 20
-13.53966
 30
0.0
  0
SPLINE
  5
81
330
1F
100
AcDbEntity
  8
layer 1
 62
   250
100
AcDbSpline
210
0.0
220
0.0
230
1.0
 70
    11
 71
     3
 72
    36
 73
    32
 74
     0
 42
0.0000000001
 43
0.0000000001
 40
0.0
 40
0.0
 40
0.0
 40
0.0
 40
0.125
 40
0.125
 40
0.125
 40
0.125
 40
0.25
 40
0.25
 40
0.25
 40
0.25
 40
0.375
 40
0.375
 40
0.375
 40
0.375
 40
0.5
 40
0.5
 40
0.5
 40
0.5
 40
0.625
 40
0.625
 40
0.625
 40
0.625
 40
0.75
 40
0.75
 40
0.75
 40
0.75
 40
0.875
 40
0.875
 40
0.875
 40
0.875
 40
1.0
 40
1.0
 40
1.0
 40
1.0
 10
186.59766
 20
-15.02672
 30
0.0
 10
186.59766
 20
-15.02672
 30
0.0
 10
186.59766
 20
-13.7152
 30
0.0
 10
186.59766
 20
-13.7152
 30
0.0
 10
186.59766
 20
-13.7152
 30
0.0
 10
186.59766
 20
-13.7152
 30
0.0
 10
186.10482
 20
-13.7152
 30
0.0
 10
186.10482
 20
-13.7152
 30
0.0
 10
186.10482
 20
-13.7152
 30
0.0
 10
186.10482
 20
-13.7152
 30
0.0
 10
186.10482
 20
-13.53966
 30
0.0
 10
186.10482
 20
-13.53966
 30
0.0
 10
186.10482
 20
-13.53966
 30
0.0
 10
186.10482
 20
-13.53966
 30
0.0
 10
187.29042
 20
-13.53966
 30
0.0
 10
187.29042
 20
-13.53966
 30
0.0
 10
187.29042
 20
-13.53966
 30
0.0
 10
187.29042
 20
-13.53966
 30
0.0
 10
187.29042
 20
-13.7152
 30
0.0
 10
187.29042
 20
-13.7152
 30
0.0
 10
187.29042
 20
-13.7152
 30
0.0
 10
187.29042
 20
-13.7152
 30
0.0
 10
186.79549
 20
-13.7152
 30
0.0
 10
186.79549
 20
-13.7152
 30
0.0
 10
186.79549
 20
-13.7152
 30
0.0
 10
186.79549
 20
-13.7152
 30
0.0
 10
186.79549
 20
-15.02672
 30
0.0
 10
186.79549
 20
-15.02672
 30
0.0
 10
186.79549
 20
-15.02672
 30
0.0
 10
186.79549
 20
-15.02672
 30
0.0
 10
186.59766
 20
-15.02672
 30
0.0
 10
186.59766
 20
-15.02672
 30
0.0
  0
SPLINE
  5
82
330
1F
100
AcDbEntity
  8
layer 1
 62
   250
100
AcDbSpline
210
0.0
220
0.0
230
1.0
 70
    11
 71
     3
 72
    40
 73
    36
 74
     0
 42
0.0000000001
 43
0.0000000001
 40
0.0
 40
0.0
 40
0.0
 40
0.0
 40
0.1111111111111111
 40
0.1111111111111111
 40
0.1111111111111111
 40
0.1111111111111111
 40
0.2222222222222222
 40
0.2222222222222222
 40
0.2222222222222222
 40
0.2222222222222222
 40
0.3333333333333333
 40
0.3333333333333333
 40
0.3333333333333333
 40
0.3333333333333333
 40
0.4444444444444444
 40
0.4444444444444444
 40
0.4444444444444444
 40
0.4444444444444444
 40
0.5555555555555556
 40
0.5555555555555556
 40
0.5555555555555556
 40
0.5555555555555556
 40
0.6666666666666667
 40
0.6666666666666667
 40
0.6666666666666667
 40
0.6666666666666667
 40
0.7777777777777779
 40
0.7777777777777779
 40
0.7777777777777779
 40
0.7777777777777779
 40
0.8888888888888891
 40
0.8888888888888891
 40
0.8888888888888891
 40
0.8888888888888891
 40
1.0
 40
1.0
 40
1.0
 40
1.0
 10
188.22677
 20
-15.02672
 30
0.0
 10
188.22677
 20
-15.02672
 30
0.0
 10
188.04322
 20
-15.02672
 30
0.0
 10
188.04322
 20
-15.02672
 30
0.0
 10
188.04322
 20
-15.02672
 30
0.0
 10
188.04322
 20
-15.02672
 30
0.0
 10
188.04322
 20
-13.86339
 30
0.0
 10
188.04322
 20
-13.86339
 30
0.0
 10
188.04322
 20
-13.86339
 30
0.0
 10
187.99899
 20
-13.90528
 30
0.0
 10
187.94117
 20
-13.94717
 30
0.0
 10
187.86942
 20
-13.98907
 30
0.0
 10
187.86942
 20
-13.98907
 30
0.0
 10
187.79732
 20
-14.03096
 30
0.0
 10
187.73289
 20
-14.06247
 30
0.0
 10
187.67577
 20
-14.08324
 30
0.0
 10
187.67577
 20
-14.08324
 30
0.0
 10
187.67577
 20
-14.08324
 30
0.0
 10
187.67577
 20
-13.90701
 30
0.0
 10
187.67577
 20
-13.90701
 30
0.0
 10
187.67577
 20
-13.90701
 30
0.0
 10
187.77852
 20
-13.85889
 30
0.0
 10
187.86837
 20
-13.80072
 30
0.0
 10
187.94535
 20
-13.73251
 30
0.0
 10
187.94535
 20
-13.73251
 30
0.0
 10
188.02197
 20
-13.66396
 30
0.0
 10
188.07666
 20
-13.59783
 30
0.0
 10
188.1087
 20
-13.53343
 30
0.0
 10
188.1087
 20
-13.53343
 30
0.0
 10
188.1087
 20
-13.53343
 30
0.0
 10
188.22677
 20
-13.53343
 30
0.0
 10
188.22677
 20
-13.53343
 30
0.0
 10
188.22677
 20
-13.53343
 30
0.0
 10
188.22677
 20
-13.53343
 30
0.0
 10
188.22677
 20
-15.02672
 30
0.0
 10
188.22677
 20
-15.02672
 30
0.0
  0
SPLINE
  5
83
330
1F
100
AcDbEntity
  8
layer 1
 62
   250
100
AcDbSpline
210
0.0
220
0.0
230
1.0
 70
    11
 71
     3
 72
    68
 73
    64
 74
     0
 42
0.0000000001
 43
0.0000000001
 40
0.0
 40
0.0
 40
0.0
 40
0.0
 40
0.0625
 40
0.0625
 40
0.0625
 40
0.0625
 40
0.125
 40
0.125
 40
0.125
 40
0.125
 40
0.1875
 40
0.1875
 40
0.1875
 40
0.1875
 40
0.25
 40
0.25
 40
0.25
 40
0.25
 40
0.3125
 40
0.3125
 40
0.3125
 40
0.3125
 40
0.375
 40
0.375
 40
0.375
 40
0.375
 40
0.4375
 40
0.4375
 40
0.4375
 40
0.4375
 40
0.5
 40
0.5
 40
0.5
 40
0.5
 40
0.5625
 40
0.5625
 40
0.5625
 40
0.5625
 40
0.625
 40
0.625
 40
0.625
 40
0.625
 40
0.6875
 40
0.6875
 40
0.6875
 40
0.6875
 40
0.75
 40
0.75
 40
0.75
 40
0.75
 40
0.8125
 40
0.8125
 40
0.8125
 40
0.8125
 40
0.875
 40
0.875
 40
0.875
 40
0.875
 40
0.9375
 40
0.9375
 40
0.9375
 40
0.9375
 40
1.0
 40
1.0
 40
1.0
 40
1.0
 10
189.09626
 20
-14.22035
 30
0.0
 10
189.01999
 20
-14.19265
 30
0.0
 10
188.96357
 20
-14.15318
 30
0.0
 10
188.92665
 20
-14.10159
 30
0.0
 10
188.92665
 20
-14.10159
 30
0.0
 10
188.89007
 20
-14.05035
 30
0.0
 10
188.87161
 20
-13.98872
 30
0.0
 10
188.87161
 20
-13.91705
 30
0.0
 10
188.87161
 20
-13.91705
 30
0.0
 10
188.87161
 20
-13.80868
 30
0.0
 10
188.91062
 20
-13.71797
 30
0.0
 10
188.98899
 20
-13.64422
 30
0.0
 10
188.98899
 20
-13.64422
 30
0.0
 10
189.06735
 20
-13.57048
 30
0.0
 10
189.17115
 20
-13.53343
 30
0.0
 10
189.30106
 20
-13.53343
 30
0.0
 10
189.30106
 20
-13.53343
 30
0.0
 10
189.43167
 20
-13.53343
 30
0.0
 10
189.53686
 20
-13.57117
 30
0.0
 10
189.61662
 20
-13.64665
 30
0.0
 10
189.61662
 20
-13.64665
 30
0.0
 10
189.69603
 20
-13.72213
 30
0.0
 10
189.73574
 20
-13.81388
 30
0.0
 10
189.73574
 20
-13.92225
 30
0.0
 10
189.73574
 20
-13.92225
 30
0.0
 10
189.73574
 20
-13.99115
 30
0.0
 10
189.71762
 20
-14.05104
 30
0.0
 10
189.6814
 20
-14.10229
 30
0.0
 10
189.6814
 20
-14.10229
 30
0.0
 10
189.64483
 20
-14.15318
 30
0.0
 10
189.5898
 20
-14.19265
 30
0.0
 10
189.51561
 20
-14.22035
 30
0.0
 10
189.51561
 20
-14.22035
 30
0.0
 10
189.60721
 20
-14.25013
 30
0.0
 10
189.67722
 20
-14.29791
 30
0.0
 10
189.72528
 20
-14.36438
 30
0.0
 10
189.72528
 20
-14.36438
 30
0.0
 10
189.773
 20
-14.43051
 30
0.0
 10
189.79703
 20
-14.5098
 30
0.0
 10
189.79703
 20
-14.60155
 30
0.0
 10
189.79703
 20
-14.60155
 30
0.0
 10
189.79703
 20
-14.72896
 30
0.0
 10
189.75175
 20
-14.8356
 30
0.0
 10
189.66155
 20
-14.92216
 30
0.0
 10
189.66155
 20
-14.92216
 30
0.0
 10
189.57099
 20
-15.00872
 30
0.0
 10
189.45187
 20
-15.05199
 30
0.0
 10
189.3042
 20
-15.05199
 30
0.0
 10
189.3042
 20
-15.05199
 30
0.0
 10
189.15652
 20
-15.05199
 30
0.0
 10
189.03775
 20
-15.00872
 30
0.0
 10
188.94719
 20
-14.92181
 30
0.0
 10
188.94719
 20
-14.92181
 30
0.0
 10
188.85663
 20
-14.83491
 30
0.0
 10
188.81135
 20
-14.72654
 30
0.0
 10
188.81135
 20
-14.5967
 30
0.0
 10
188.81135
 20
-14.5967
 30
0.0
 10
188.81135
 20
-14.5001
 30
0.0
 10
188.83609
 20
-14.41909
 30
0.0
 10
188.88554
 20
-14.35365
 30
0.0
 10
188.88554
 20
-14.35365
 30
0.0
 10
188.93465
 20
-14.28856
 30
0.0
 10
189.00501
 20
-14.24389
 30
0.0
 10
189.09626
 20
-14.22035
 30
0.0
  0
SPLINE
  5
84
330
1F
100
AcDbEntity
  8
layer 1
 62
   250
100
AcDbSpline
210
0.0
220
0.0
230
1.0
 70
    11
 71
     3
 72
    36
 73
    32
 74
     0
 42
0.0000000001
 43
0.0000000001
 40
0.0
 40
0.0
 40
0.0
 40
0.0
 40
0.125
 40
0.125
 40
0.125
 40
0.125
 40
0.25
 40
0.25
 40
0.25
 40
0.25
 40
0.375
 40
0.375
 40
0.375
 40
0.375
 40
0.5
 40
0.5
 40
0.5
 40
0.5
 40
0.625
 40
0.625
 40
0.625
 40
0.625
 40
0.75
 40
0.75
 40
0.75
 40
0.75
 40
0.875
 40
0.875
 40
0.875
 40
0.875
 40
1.0
 40
1.0
 40
1.0
 40
1.0
 10
189.05934
 20
-13.91082
 30
0.0
 10
189.05934
 20
-13.98111
 30
0.0
 10
189.08233
 20
-14.03858
 30
0.0
 10
189.12761
 20
-14.08324
 30
0.0
 10
189.12761
 20
-14.08324
 30
0.0
 10
189.17324
 20
-14.12791
 30
0.0
 10
189.23245
 20
-14.15041
 30
0.0
 10
189.30524
 20
-14.15041
 30
0.0
 10
189.30524
 20
-14.15041
 30
0.0
 10
189.37594
 20
-14.15041
 30
0.0
 10
189.43411
 20
-14.12825
 30
0.0
 10
189.47939
 20
-14.08394
 30
0.0
 10
189.47939
 20
-14.08394
 30
0.0
 10
189.52466
 20
-14.03962
 30
0.0
 10
189.54696
 20
-13.98526
 30
0.0
 10
189.54696
 20
-13.92121
 30
0.0
 10
189.54696
 20
-13.92121
 30
0.0
 10
189.54696
 20
-13.85404
 30
0.0
 10
189.52397
 20
-13.79795
 30
0.0
 10
189.4773
 20
-13.75225
 30
0.0
 10
189.4773
 20
-13.75225
 30
0.0
 10
189.43063
 20
-13.70655
 30
0.0
 10
189.37281
 20
-13.68369
 30
0.0
 10
189.30315
 20
-13.68369
 30
0.0
 10
189.30315
 20
-13.68369
 30
0.0
 10
189.23314
 20
-13.68369
 30
0.0
 10
189.17498
 20
-13.7062
 30
0.0
 10
189.12865
 20
-13.75052
 30
0.0
 10
189.12865
 20
-13.75052
 30
0.0
 10
189.08233
 20
-13.79518
 30
0.0
 10
189.05934
 20
-13.84885
 30
0.0
 10
189.05934
 20
-13.91082
 30
0.0
  0
SPLINE
  5
85
330
1F
100
AcDbEntity
  8
layer 1
 62
   250
100
AcDbSpline
210
0.0
220
0.0
230
1.0
 70
    11
 71
     3
 72
    40
 73
    36
 74
     0
 42
0.0000000001
 43
0.0000000001
 40
0.0
 40
0.0
 40
0.0
 40
0.0
 40
0.1111111111111111
 40
0.1111111111111111
 40
0.1111111111111111
 40
0.1111111111111111
 40
0.2222222222222222
 40
0.2222222222222222
 40
0.2222222222222222
 40
0.2222222222222222
 40
0.3333333333333333
 40
0.3333333333333333
 40
0.3333333333333333
 40
0.3333333333333333
 40
0.4444444444444444
 40
0.4444444444444444
 40
0.4444444444444444
 40
0.4444444444444444
 40
0.5555555555555556
 40
0.5555555555555556
 40
0.5555555555555556
 40
0.5555555555555556
 40
0.6666666666666667
 40
0.6666666666666667
 40
0.6666666666666667
 40
0.6666666666666667
 40
0.7777777777777779
 40
0.7777777777777779
 40
0.7777777777777779
 40
0.7777777777777779
 40
0.8888888888888891
 40
0.8888888888888891
 40
0.8888888888888891
 40
0.8888888888888891
 40
1.0
 40
1.0
 40
1.0
 40
1.0
 10
189.00013
 20
-14.59774
 30
0.0
 10
189.00013
 20
-14.64968
 30
0.0
 10
189.01267
 20
-14.70023
 30
0.0
 10
189.0374
 20
-14.7487
 30
0.0
 10
189.0374
 20
-14.7487
 30
0.0
 10
189.06213
 20
-14.79752
 30
0.0
 10
189.09905
 20
-14.83525
 30
0.0
 10
189.14816
 20
-14.86191
 30
0.0
 10
189.14816
 20
-14.86191
 30
0.0
 10
189.19727
 20
-14.88857
 30
0.0
 10
189.24986
 20
-14.90208
 30
0.0
 10
189.30629
 20
-14.90208
 30
0.0
 10
189.30629
 20
-14.90208
 30
0.0
 10
189.39406
 20
-14.90208
 30
0.0
 10
189.4665
 20
-14.87403
 30
0.0
 10
189.52362
 20
-14.8176
 30
0.0
 10
189.52362
 20
-14.8176
 30
0.0
 10
189.58075
 20
-14.76151
 30
0.0
 10
189.60931
 20
-14.69018
 30
0.0
 10
189.60931
 20
-14.60363
 30
0.0
 10
189.60931
 20
-14.60363
 30
0.0
 10
189.60931
 20
-14.51568
 30
0.0
 10
189.58004
 20
-14.44298
 30
0.0
 10
189.52118
 20
-14.3855
 30
0.0
 10
189.52118
 20
-14.3855
 30
0.0
 10
189.46232
 20
-14.32803
 30
0.0
 10
189.38849
 20
-14.29929
 30
0.0
 10
189.30001
 20
-14.29929
 30
0.0
 10
189.30001
 20
-14.29929
 30
0.0
 10
189.21364
 20
-14.29929
 30
0.0
 10
189.14224
 20
-14.32768
 30
0.0
 10
189.08547
 20
-14.38446
 30
0.0
 10
189.08547
 20
-14.38446
 30
0.0
 10
189.02869
 20
-14.44159
 30
0.0
 10
189.00013
 20
-14.51257
 30
0.0
 10
189.00013
 20
-14.59774
 30
0.0
  0
SPLINE
  5
86
330
1F
100
AcDbEntity
  8
layer 1
 62
   250
100
AcDbSpline
210
0.0
220
0.0
230
1.0
 70
    11
 71
     3
 72
    40
 73
    36
 74
     0
 42
0.0000000001
 43
0.0000000001
 40
0.0
 40
0.0
 40
0.0
 40
0.0
 40
0.1111111111111111
 40
0.1111111111111111
 40
0.1111111111111111
 40
0.1111111111111111
 40
0.2222222222222222
 40
0.2222222222222222
 40
0.2222222222222222
 40
0.2222222222222222
 40
0.3333333333333333
 40
0.3333333333333333
 40
0.3333333333333333
 40
0.3333333333333333
 40
0.4444444444444444
 40
0.4444444444444444
 40
0.4444444444444444
 40
0.4444444444444444
 40
0.5555555555555556
 40
0.5555555555555556
 40
0.5555555555555556
 40
0.5555555555555556
 40
0.6666666666666667
 40
0.6666666666666667
 40
0.6666666666666667
 40
0.6666666666666667
 40
0.7777777777777779
 40
0.7777777777777779
 40
0.7777777777777779
 40
0.7777777777777779
 40
0.8888888888888891
 40
0.8888888888888891
 40
0.8888888888888891
 40
0.8888888888888891
 40
1.0
 40
1.0
 40
1.0
 40
1.0
 10
190.78354
 20
-15.02672
 30
0.0
 10
190.78354
 20
-15.02672
 30
0.0
 10
190.59999
 20
-15.02672
 30
0.0
 10
190.59999
 20
-15.02672
 30
0.0
 10
190.59999
 20
-15.02672
 30
0.0
 10
190.59999
 20
-15.02672
 30
0.0
 10
190.59999
 20
-13.86339
 30
0.0
 10
190.59999
 20
-13.86339
 30
0.0
 10
190.59999
 20
-13.86339
 30
0.0
 10
190.55576
 20
-13.90528
 30
0.0
 10
190.49794
 20
-13.94717
 30
0.0
 10
190.42619
 20
-13.98907
 30
0.0
 10
190.42619
 20
-13.98907
 30
0.0
 10
190.35409
 20
-14.03096
 30
0.0
 10
190.28966
 20
-14.06247
 30
0.0
 10
190.23254
 20
-14.08324
 30
0.0
 10
190.23254
 20
-14.08324
 30
0.0
 10
190.23254
 20
-14.08324
 30
0.0
 10
190.23254
 20
-13.90701
 30
0.0
 10
190.23254
 20
-13.90701
 30
0.0
 10
190.23254
 20
-13.90701
 30
0.0
 10
190.33529
 20
-13.85889
 30
0.0
 10
190.42514
 20
-13.80072
 30
0.0
 10
190.50212
 20
-13.73251
 30
0.0
 10
190.50212
 20
-13.73251
 30
0.0
 10
190.57874
 20
-13.66396
 30
0.0
 10
190.63343
 20
-13.59783
 30
0.0
 10
190.66547
 20
-13.53343
 30
0.0
 10
190.66547
 20
-13.53343
 30
0.0
 10
190.66547
 20
-13.53343
 30
0.0
 10
190.78354
 20
-13.53343
 30
0.0
 10
190.78354
 20
-13.53343
 30
0.0
 10
190.78354
 20
-13.53343
 30
0.0
 10
190.78354
 20
-13.53343
 30
0.0
 10
190.78354
 20
-15.02672
 30
0.0
 10
190.78354
 20
-15.02672
 30
0.0
  0
SPLINE
  5
87
330
1F
100
AcDbEntity
  8
layer 1
 62
   250
100
AcDbSpline
210
0.0
220
0.0
230
1.0
 70
    11
 71
     3
 72
    92
 73
    88
 74
     0
 42
0.0000000001
 43
0.0000000001
 40
0.0
 40
0.0
 40
0.0
 40
0.0
 40
0.0454545454545455
 40
0.0454545454545455
 40
0.0454545454545455
 40
0.0454545454545455
 40
0.0909090909090909
 40
0.0909090909090909
 40
0.0909090909090909
 40
0.0909090909090909
 40
0.1363636363636364
 40
0.1363636363636364
 40
0.1363636363636364
 40
0.1363636363636364
 40
0.1818181818181818
 40
0.1818181818181818
 40
0.1818181818181818
 40
0.1818181818181818
 40
0.2272727272727273
 40
0.2272727272727273
 40
0.2272727272727273
 40
0.2272727272727273
 40
0.2727272727272728
 40
0.2727272727272728
 40
0.2727272727272728
 40
0.2727272727272728
 40
0.3181818181818182
 40
0.3181818181818182
 40
0.3181818181818182
 40
0.3181818181818182
 40
0.3636363636363637
 40
0.3636363636363637
 40
0.3636363636363637
 40
0.3636363636363637
 40
0.4090909090909092
 40
0.4090909090909092
 40
0.4090909090909092
 40
0.4090909090909092
 40
0.4545454545454546
 40
0.4545454545454546
 40
0.4545454545454546
 40
0.4545454545454546
 40
0.5000000000000001
 40
0.5000000000000001
 40
0.5000000000000001
 40
0.5000000000000001
 40
0.5454545454545455
 40
0.5454545454545455
 40
0.5454545454545455
 40
0.5454545454545455
 40
0.5909090909090909
 40
0.5909090909090909
 40
0.5909090909090909
 40
0.5909090909090909
 40
0.6363636363636364
 40
0.6363636363636364
 40
0.6363636363636364
 40
0.6363636363636364
 40
0.6818181818181818
 40
0.6818181818181818
 40
0.6818181818181818
 40
0.6818181818181818
 40
0.7272727272727272
 40
0.7272727272727272
 40
0.7272727272727272
 40
0.7272727272727272
 40
0.7727272727272726
 40
0.7727272727272726
 40
0.7727272727272726
 40
0.7727272727272726
 40
0.818181818181818
 40
0.818181818181818
 40
0.818181818181818
 40
0.818181818181818
 40
0.8636363636363634
 40
0.8636363636363634
 40
0.8636363636363634
 40
0.8636363636363634
 40
0.9090909090909088
 40
0.9090909090909088
 40
0.9090909090909088
 40
0.9090909090909088
 40
0.9545454545454543
 40
0.9545454545454543
 40
0.9545454545454543
 40
0.9545454545454543
 40
1.0
 40
1.0
 40
1.0
 40
1.0
 10
192.33568
 20
-14.85118
 30
0.0
 10
192.33568
 20
-14.85118
 30
0.0
 10
192.33568
 20
-15.02672
 30
0.0
 10
192.33568
 20
-15.02672
 30
0.0
 10
192.33568
 20
-15.02672
 30
0.0
 10
192.33568
 20
-15.02672
 30
0.0
 10
191.34687
 20
-15.02672
 30
0.0
 10
191.34687
 20
-15.02672
 30
0.0
 10
191.34687
 20
-15.02672
 30
0.0
 10
191.34548
 20
-14.98275
 30
0.0
 10
191.35244
 20
-14.94051
 30
0.0
 10
191.36811
 20
-14.9
 30
0.0
 10
191.36811
 20
-14.9
 30
0.0
 10
191.39319
 20
-14.83283
 30
0.0
 10
191.4336
 20
-14.76705
 30
0.0
 10
191.48898
 20
-14.70196
 30
0.0
 10
191.48898
 20
-14.70196
 30
0.0
 10
191.5447
 20
-14.63721
 30
0.0
 10
191.62481
 20
-14.56208
 30
0.0
 10
191.72929
 20
-14.47691
 30
0.0
 10
191.72929
 20
-14.47691
 30
0.0
 10
191.89195
 20
-14.3443
 30
0.0
 10
192.00201
 20
-14.23939
 30
0.0
 10
192.05913
 20
-14.16184
 30
0.0
 10
192.05913
 20
-14.16184
 30
0.0
 10
192.11626
 20
-14.08463
 30
0.0
 10
192.14482
 20
-14.01123
 30
0.0
 10
192.14482
 20
-13.94233
 30
0.0
 10
192.14482
 20
-13.94233
 30
0.0
 10
192.14482
 20
-13.86997
 30
0.0
 10
192.11869
 20
-13.80903
 30
0.0
 10
192.0668
 20
-13.75917
 30
0.0
 10
192.0668
 20
-13.75917
 30
0.0
 10
192.01456
 20
-13.70966
 30
0.0
 10
191.94663
 20
-13.68473
 30
0.0
 10
191.86305
 20
-13.68473
 30
0.0
 10
191.86305
 20
-13.68473
 30
0.0
 10
191.77457
 20
-13.68473
 30
0.0
 10
191.70387
 20
-13.71105
 30
0.0
 10
191.65093
 20
-13.76402
 30
0.0
 10
191.65093
 20
-13.76402
 30
0.0
 10
191.59764
 20
-13.81665
 30
0.0
 10
191.57082
 20
-13.8897
 30
0.0
 10
191.57013
 20
-13.98284
 30
0.0
 10
191.57013
 20
-13.98284
 30
0.0
 10
191.57013
 20
-13.98284
 30
0.0
 10
191.38135
 20
-13.96379
 30
0.0
 10
191.38135
 20
-13.96379
 30
0.0
 10
191.38135
 20
-13.96379
 30
0.0
 10
191.39424
 20
-13.82357
 30
0.0
 10
191.443
 20
-13.71693
 30
0.0
 10
191.52729
 20
-13.64353
 30
0.0
 10
191.52729
 20
-13.64353
 30
0.0
 10
191.61158
 20
-13.57013
 30
0.0
 10
191.72512
 20
-13.53343
 30
0.0
 10
191.86722
 20
-13.53343
 30
0.0
 10
191.86722
 20
-13.53343
 30
0.0
 10
192.01072
 20
-13.53343
 30
0.0
 10
192.12427
 20
-13.57325
 30
0.0
 10
192.20785
 20
-13.65219
 30
0.0
 10
192.20785
 20
-13.65219
 30
0.0
 10
192.2918
 20
-13.73147
 30
0.0
 10
192.33359
 20
-13.82946
 30
0.0
 10
192.33359
 20
-13.94648
 30
0.0
 10
192.33359
 20
-13.94648
 30
0.0
 10
192.33359
 20
-14.00603
 30
0.0
 10
192.32141
 20
-14.06455
 30
0.0
 10
192.29667
 20
-14.12202
 30
0.0
 10
192.29667
 20
-14.12202
 30
0.0
 10
192.2723
 20
-14.1795
 30
0.0
 10
192.23154
 20
-14.24009
 30
0.0
 10
192.17477
 20
-14.30345
 30
0.0
 10
192.17477
 20
-14.30345
 30
0.0
 10
192.118
 20
-14.36715
 30
0.0
 10
192.02361
 20
-14.4544
 30
0.0
 10
191.89161
 20
-14.5652
 30
0.0
 10
191.89161
 20
-14.5652
 30
0.0
 10
191.78154
 20
-14.65729
 30
0.0
 10
191.71084
 20
-14.71961
 30
0.0
 10
191.67949
 20
-14.75251
 30
0.0
 10
191.67949
 20
-14.75251
 30
0.0
 10
191.64814
 20
-14.78505
 30
0.0
 10
191.62237
 20
-14.81794
 30
0.0
 10
191.60182
 20
-14.85118
 30
0.0
 10
191.60182
 20
-14.85118
 30
0.0
 10
191.60182
 20
-14.85118
 30
0.0
 10
192.33568
 20
-14.85118
 30
0.0
 10
192.33568
 20
-14.85118
 30
0.0
  0
SPLINE
  5
88
330
1F
100
AcDbEntity
  8
layer 1
 62
   250
100
AcDbSpline
210
0.0
220
0.0
230
1.0
 70
    11
 71
     3
 72
    28
 73
    24
 74
     0
 42
0.0000000001
 43
0.0000000001
 40
0.0
 40
0.0
 40
0.0
 40
0.0
 40
0.1666666666666667
 40
0.1666666666666667
 40
0.1666666666666667
 40
0.1666666666666667
 40
0.3333333333333333
 40
0.3333333333333333
 40
0.3333333333333333
 40
0.3333333333333333
 40
0.5
 40
0.5
 40
0.5
 40
0.5
 40
0.6666666666666666
 40
0.6666666666666666
 40
0.6666666666666666
 40
0.6666666666666666
 40
0.8333333333333333
 40
0.8333333333333333
 40
0.8333333333333333
 40
0.8333333333333333
 40
1.0
 40
1.0
 40
1.0
 40
1.0
 10
178.76247
 20
-14.79544
 30
0.0
 10
178.80845
 20
-14.82521
 30
0.0
 10
178.8304
 20
-14.86572
 30
0.0
 10
178.82761
 20
-14.91731
 30
0.0
 10
178.82761
 20
-14.91731
 30
0.0
 10
178.82482
 20
-14.96855
 30
0.0
 10
178.80044
 20
-15.00768
 30
0.0
 10
178.75411
 20
-15.03468
 30
0.0
 10
178.75411
 20
-15.03468
 30
0.0
 10
178.70779
 20
-15.06204
 30
0.0
 10
178.66146
 20
-15.06204
 30
0.0
 10
178.61549
 20
-15.03468
 30
0.0
 10
178.61549
 20
-15.03468
 30
0.0
 10
178.56917
 20
-15.00768
 30
0.0
 10
178.54479
 20
-14.96717
 30
0.0
 10
178.542
 20
-14.91316
 30
0.0
 10
178.542
 20
-14.91316
 30
0.0
 10
178.53922
 20
-14.85914
 30
0.0
 10
178.56359
 20
-14.81829
 30
0.0
 10
178.61549
 20
-14.79128
 30
0.0
 10
178.61549
 20
-14.79128
 30
0.0
 10
178.66704
 20
-14.76428
 30
0.0
 10
178.71615
 20
-14.76566
 30
0.0
 10
178.76247
 20
-14.79544
 30
0.0
  0
SPLINE
  5
89
330
1F
100
AcDbEntity
  8
layer 1
 62
   250
100
AcDbSpline
210
0.0
220
0.0
230
1.0
 70
    11
 71
     3
 72
    28
 73
    24
 74
     0
 42
0.0000000001
 43
0.0000000001
 40
0.0
 40
0.0
 40
0.0
 40
0.0
 40
0.1666666666666667
 40
0.1666666666666667
 40
0.1666666666666667
 40
0.1666666666666667
 40
0.3333333333333333
 40
0.3333333333333333
 40
0.3333333333333333
 40
0.3333333333333333
 40
0.5
 40
0.5
 40
0.5
 40
0.5
 40
0.6666666666666666
 40
0.6666666666666666
 40
0.6666666666666666
 40
0.6666666666666666
 40
0.8333333333333333
 40
0.8333333333333333
 40
0.8333333333333333
 40
0.8333333333333333
 40
1.0
 40
1.0
 40
1.0
 40
1.0
 10
178.76631
 20
-14.30864
 30
0.0
 10
178.81542
 20
-14.33288
 30
0.0
 10
178.83979
 20
-14.37338
 30
0.0
 10
178.83979
 20
-14.43017
 30
0.0
 10
178.83979
 20
-14.43017
 30
0.0
 10
178.83979
 20
-14.48695
 30
0.0
 10
178.81123
 20
-14.5278
 30
0.0
 10
178.75411
 20
-14.55204
 30
0.0
 10
178.75411
 20
-14.55204
 30
0.0
 10
178.69699
 20
-14.57627
 30
0.0
 10
178.64684
 20
-14.5735
 30
0.0
 10
178.6033
 20
-14.54373
 30
0.0
 10
178.6033
 20
-14.54373
 30
0.0
 10
178.55976
 20
-14.5143
 30
0.0
 10
178.53922
 20
-14.47344
 30
0.0
 10
178.542
 20
-14.4222
 30
0.0
 10
178.542
 20
-14.4222
 30
0.0
 10
178.54479
 20
-14.37061
 30
0.0
 10
178.57056
 20
-14.33288
 30
0.0
 10
178.61932
 20
-14.30864
 30
0.0
 10
178.61932
 20
-14.30864
 30
0.0
 10
178.66843
 20
-14.28406
 30
0.0
 10
178.71755
 20
-14.28406
 30
0.0
 10
178.76631
 20
-14.30864
 30
0.0
  0
ELLIPSE
  5
8A
330
1F
100
AcDbEntity
  8
layer 1
 62
   250
370
     9
100
AcDbEllipse
 10
181.98583
 20
-2.97091
 30
0.0
 11
1.51148
 21
0.0
 31
0.0
210
0.0
220
0.0
230
1.0
 40
0.9940654193241062
 41
0.0
 42
6.283185307179586
  0
ENDSEC
  0
SECTION
  2
OBJECTS
  0
DICTIONARY
  5
C
330
0
100
AcDbDictionary
281
     1
  3
ACAD_GROUP
350
D
  3
ACAD_LAYOUT
350
1A
  3
ACAD_MLEADERSTYLE
350
8C
  3
ACAD_MLINESTYLE
350
17
  3
ACAD_PLOTSETTINGS
350
19
  3
ACAD_PLOTSTYLENAME
350
E
  3
ACAD_SCALELIST
350
3B
  3
ACAD_TABLESTYLE
350
8B
  3
ACAD_VISUALSTYLE
350
2A
  0
DICTIONARY
  5
D
102
{ACAD_REACTORS
330
C
102
}
330
C
100
AcDbDictionary
281
     1
  0
DICTIONARY
  5
1A
102
{ACAD_REACTORS
330
C
102
}
330
C
100
AcDbDictionary
281
     1
  3
Layout1
350
1E
  3
Layout2
350
26
  3
Model
350
22
  0
DICTIONARY
  5
8C
102
{ACAD_REACTORS
330
C
102
}
330
C
100
AcDbDictionary
281
     1
  0
DICTIONARY
  5
17
102
{ACAD_REACTORS
330
C
102
}
330
C
100
AcDbDictionary
281
     1
  3
Standard
350
18
  0
DICTIONARY
  5
19
102
{ACAD_REACTORS
330
C
102
}
330
C
100
AcDbDictionary
281
     1
  0
ACDBDICTIONARYWDFLT
  5
E
102
{ACAD_REACTORS
330
C
102
}
330
C
100
AcDbDictionary
281
     1
  3
Normal
350
F
100
AcDbDictionaryWithDefault
340
F
  0
DICTIONARY
  5
3B
102
{ACAD_REACTORS
330
C
102
}
330
C
100
AcDbDictionary
281
     1
  3
A0
350
3C
  3
A1
350
3D
  3
A2
350
3E
  3
A3
350
3F
  3
A4
350
40
  3
A5
350
41
  3
A6
350
42
  3
A7
350
43
  3
A8
350
44
  3
A9
350
45
  3
B0
350
46
  3
B1
350
47
  3
B2
350
48
  3
B3
350
49
  3
B4
350
4A
  3
B5
350
4B
  3
B6
350
4C
  3
B7
350
4D
  3
B8
350
4E
  3
B9
350
4F
  3
C0
350
50
  3
C1
350
51
  3
C2
350
52
  3
C3
350
53
  3
C4
350
54
  3
C5
350
55
  3
C6
350
56
  3
C7
350
57
  3
C8
350
58
  3
C9
350
59
  3
D0
350
5A
  3
D1
350
5B
  3
D2
350
5C
  0
DICTIONARY
  5
8B
102
{ACAD_REACTORS
330
C
102
}
330
C
100
AcDbDictionary
281
     1
  0
DICTIONARY
  5
2A
102
{ACAD_REACTORS
330
C
102
}
330
C
100
AcDbDictionary
281
     1
  3
2dWireframe
350
2F
  3
3D Hidden
350
31
  3
3dWireframe
350
30
  3
Basic
350
32
  3
Brighten
350
36
  3
ColorChange
350
3A
  3
Conceptual
350
34
  3
Dim
350
35
  3
Facepattern
350
39
  3
Flat
350
2B
  3
FlatWithEdges
350
2C
  3
Gouraud
350
2D
  3
GouraudWithEdges
350
2E
  3
Linepattern
350
38
  3
Realistic
350
33
  3
Thicken
350
37
  0
LAYOUT
  5
1E
102
{ACAD_REACTORS
330
1A
102
}
330
1A
100
AcDbPlotSettings
  1

  2
none_device
  4

  6

 40
0.0
 41
0.0
 42
0.0
 43
0.0
 44
0.0
 45
0.0
 46
0.0
 47
0.0
 48
0.0
 49
0.0
140
0.0
141
0.0
142
1.0
143
1.0
 70
   688
 72
     0
 73
     0
 74
     5
  7

 75
    16
 76
     0
 77
     2
 78
   300
147
1.0
148
0.0
149
0.0
100
AcDbLayout
  1
Layout1
 70
     1
 71
     1
 10
0.0
 20
0.0
 11
12.0
 21
9.0
 12
0.0
 22
0.0
 32
0.0
 14
1.000000000000000E+20
 24
1.000000000000000E+20
 34
1.000000000000000E+20
 15
-1.000000000000000E+20
 25
-1.000000000000000E+20
 35
-1.000000000000000E+20
146
0.0
 13
0.0
 23
0.0
 33
0.0
 16
1.0
 26
0.0
 36
0.0
 17
0.0
 27
1.0
 37
0.0
 76
     0
330
1B
  0
LAYOUT
  5
26
102
{ACAD_REACTORS
330
1A
102
}
330
1A
100
AcDbPlotSettings
  1

  2
none_device
  4

  6

 40
0.0
 41
0.0
 42
0.0
 43
0.0
 44
0.0
 45
0.0
 46
0.0
 47
0.0
 48
0.0
 49
0.0
140
0.0
141
0.0
142
1.0
143
1.0
 70
   688
 72
     0
 73
     0
 74
     5
  7

 75
    16
 76
     0
 77
     2
 78
   300
147
1.0
148
0.0
149
0.0
100
AcDbLayout
  1
Layout2
 70
     1
 71
     2
 10
0.0
 20
0.0
 11
0.0
 21
0.0
 12
0.0
 22
0.0
 32
0.0
 14
0.0
 24
0.0
 34
0.0
 15
0.0
 25
0.0
 35
0.0
146
0.0
 13
0.0
 23
0.0
 33
0.0
 16
1.0
 26
0.0
 36
0.0
 17
0.0
 27
1.0
 37
0.0
 76
     0
330
23
  0
LAYOUT
  5
22
102
{ACAD_REACTORS
330
1A
102
}
330
1A
100
AcDbPlotSettings
  1

  2
none_device
  4

  6

 40
0.0
 41
0.0
 42
0.0
 43
0.0
 44
0.0
 45
0.0
 46
0.0
 47
0.0
 48
0.0
 49
0.0
140
0.0
141
0.0
142
1.0
143
1.0
 70
  1712
 72
     0
 73
     0
 74
     0
  7

 75
     0
 76
     0
 77
     2
 78
   300
147
1.0
148
0.0
149
0.0
100
AcDbLayout
  1
Model
 70
     1
 71
     0
 10
0.0
 20
0.0
 11
12.0
 21
9.0
 12
0.0
 22
0.0
 32
0.0
 14
164.29348
 24
-30.4929
 34
0.0
 15
202.29933
 25
3.8682
 35
0.0
146
0.0
 13
0.0
 23
0.0
 33
0.0
 16
1.0
 26
0.0
 36
0.0
 17
0.0
 27
1.0
 37
0.0
 76
     0
330
1F
331
29
  0
MLINESTYLE
  5
18
102
{ACAD_REACTORS
330
17
102
}
330
17
100
AcDbMlineStyle
  2
Standard
 70
     0
  3

 62
   256
 51
90.0
 52
90.0
 71
     2
 49
0.5
 62
   256
  6
BYLAYER
 49
-0.5
 62
   256
  6
BYLAYER
  0
ACDBPLACEHOLDER
  5
F
102
{ACAD_REACTORS
330
E
102
}
330
E
  0
SCALE
  5
3C
102
{ACAD_REACTORS
330
3B
102
}
330
3B
100
AcDbScale
 70
     0
300
1:1
140
1.0
141
1.0
290
     1
  0
SCALE
  5
3D
102
{ACAD_REACTORS
330
3B
102
}
330
3B
100
AcDbScale
 70
     0
300
1:2
140
1.0
141
2.0
290
     0
  0
SCALE
  5
3E
102
{ACAD_REACTORS
330
3B
102
}
330
3B
100
AcDbScale
 70
     0
300
1:4
140
1.0
141
4.0
290
     0
  0
SCALE
  5
3F
102
{ACAD_REACTORS
330
3B
102
}
330
3B
100
AcDbScale
 70
     0
300
1:5
140
1.0
141
5.0
290
     0
  0
SCALE
  5
40
102
{ACAD_REACTORS
330
3B
102
}
330
3B
100
AcDbScale
 70
     0
300
1:8
140
1.0
141
8.0
290
     0
  0
SCALE
  5
41
102
{ACAD_REACTORS
330
3B
102
}
330
3B
100
AcDbScale
 70
     0
300
1:10
140
1.0
141
10.0
290
     0
  0
SCALE
  5
42
102
{ACAD_REACTORS
330
3B
102
}
330
3B
100
AcDbScale
 70
     0
300
1:16
140
1.0
141
16.0
290
     0
  0
SCALE
  5
43
102
{ACAD_REACTORS
330
3B
102
}
330
3B
100
AcDbScale
 70
     0
300
1:20
140
1.0
141
20.0
290
     0
  0
SCALE
  5
44
102
{ACAD_REACTORS
330
3B
102
}
330
3B
100
AcDbScale
 70
     0
300
1:30
140
1.0
141
30.0
290
     0
  0
SCALE
  5
45
102
{ACAD_REACTORS
330
3B
102
}
330
3B
100
AcDbScale
 70
     0
300
1:40
140
1.0
141
40.0
290
     0
  0
SCALE
  5
46
102
{ACAD_REACTORS
330
3B
102
}
330
3B
100
AcDbScale
 70
     0
300
1:50
140
1.0
141
50.0
290
     0
  0
SCALE
  5
47
102
{ACAD_REACTORS
330
3B
102
}
330
3B
100
AcDbScale
 70
     0
300
1:100
140
1.0
141
100.0
290
     0
  0
SCALE
  5
48
102
{ACAD_REACTORS
330
3B
102
}
330
3B
100
AcDbScale
 70
     0
300
2:1
140
2.0
141
1.0
290
     0
  0
SCALE
  5
49
102
{ACAD_REACTORS
330
3B
102
}
330
3B
100
AcDbScale
 70
     0
300
4:1
140
4.0
141
1.0
290
     0
  0
SCALE
  5
4A
102
{ACAD_REACTORS
330
3B
102
}
330
3B
100
AcDbScale
 70
     0
300
8:1
140
8.0
141
1.0
290
     0
  0
SCALE
  5
4B
102
{ACAD_REACTORS
330
3B
102
}
330
3B
100
AcDbScale
 70
     0
300
10:1
140
10.0
141
1.0
290
     0
  0
SCALE
  5
4C
102
{ACAD_REACTORS
330
3B
102
}
330
3B
100
AcDbScale
 70
     0
300
100:1
140
100.0
141
1.0
290
     0
  0
SCALE
  5
4D
102
{ACAD_REACTORS
330
3B
102
}
330
3B
100
AcDbScale
 70
     0
300
1/128" = 1'-0"
140
0.0078125
141
12.0
290
     0
  0
SCALE
  5
4E
102
{ACAD_REACTORS
330
3B
102
}
330
3B
100
AcDbScale
 70
     0
300
1/64" = 1'-0"
140
0.015625
141
12.0
290
     0
  0
SCALE
  5
4F
102
{ACAD_REACTORS
330
3B
102
}
330
3B
100
AcDbScale
 70
     0
300
1/32" = 1'-0"
140
0.03125
141
12.0
290
     0
  0
SCALE
  5
50
102
{ACAD_REACTORS
330
3B
102
}
330
3B
100
AcDbScale
 70
     0
300
1/16" = 1'-0"
140
0.0625
141
12.0
290
     0
  0
SCALE
  5
51
102
{ACAD_REACTORS
330
3B
102
}
330
3B
100
AcDbScale
 70
     0
300
3/32" = 1'-0"
140
0.09375
141
12.0
290
     0
  0
SCALE
  5
52
102
{ACAD_REACTORS
330
3B
102
}
330
3B
100
AcDbScale
 70
     0
300
1/8" = 1'-0"
140
0.125
141
12.0
290
     0
  0
SCALE
  5
53
102
{ACAD_REACTORS
330
3B
102
}
330
3B
100
AcDbScale
 70
     0
300
3/16" = 1'-0"
140
0.1875
141
12.0
290
     0
  0
SCALE
  5
54
102
{ACAD_REACTORS
330
3B
102
}
330
3B
100
AcDbScale
 70
     0
300
1/4" = 1'-0"
140
0.25
141
12.0
290
     0
  0
SCALE
  5
55
102
{ACAD_REACTORS
330
3B
102
}
330
3B
100
AcDbScale
 70
     0
300
3/8" = 1'-0"
140
0.375
141
12.0
290
     0
  0
SCALE
  5
56
102
{ACAD_REACTORS
330
3B
102
}
330
3B
100
AcDbScale
 70
     0
300
1/2" = 1'-0"
140
0.5
141
12.0
290
     0
  0
SCALE
  5
57
102
{ACAD_REACTORS
330
3B
102
}
330
3B
100
AcDbScale
 70
     0
300
3/4" = 1'-0"
140
0.75
141
12.0
290
     0
  0
SCALE
  5
58
102
{ACAD_REACTORS
330
3B
102
}
330
3B
100
AcDbScale
 70
     0
300
1" = 1'-0"
140
1.0
141
12.0
290
     0
  0
SCALE
  5
59
102
{ACAD_REACTORS
330
3B
102
}
330
3B
100
AcDbScale
 70
     0
300
1-1/2" = 1'-0"
140
1.5
141
12.0
290
     0
  0
SCALE
  5
5A
102
{ACAD_REACTORS
330
3B
102
}
330
3B
100
AcDbScale
 70
     0
300
3" = 1'-0"
140
3.0
141
12.0
290
     0
  0
SCALE
  5
5B
102
{ACAD_REACTORS
330
3B
102
}
330
3B
100
AcDbScale
 70
     0
300
6" = 1'-0"
140
6.0
141
12.0
290
     0
  0
SCALE
  5
5C
102
{ACAD_REACTORS
330
3B
102
}
330
3B
100
AcDbScale
 70
     0
300
1'-0" = 1'-0"
140
12.0
141
12.0
290
     0
  0
VISUALSTYLE
  5
2F
102
{ACAD_REACTORS
330
2A
102
}
330
2A
100
AcDbVisualStyle
  2
2dWireframe
 70
     4
 71
     0
 72
     2
 73
     0
 90
        0
 40
-0.6
 41
-30.0
 62
     5
 63
     7
421
 16777215
 74
     1
 91
        4
 64
     7
 65
   257
 75
     1
175
     1
 42
1.0
 92
        0
 66
   257
 43
1.0
 76
     1
 77
     6
 78
     2
 67
     7
 79
     5
170
     0
171
     0
290
     0
174
     0
 93
        1
 44
0.0
173
     0
291
     0
 45
0.0
  0
VISUALSTYLE
  5
31
102
{ACAD_REACTORS
330
2A
102
}
330
2A
100
AcDbVisualStyle
  2
3D Hidden
 70
     6
 71
     1
 72
     2
 73
     2
 90
        0
 40
-0.6
 41
-30.0
 62
     5
 63
     7
421
 16777215
 74
     2
 91
        2
 64
     7
 65
   257
 75
     2
175
     1
 42
40.0
 92
        0
 66
   257
 43
1.0
 76
     1
 77
     6
 78
     2
 67
     7
 79
     3
170
     0
171
     0
290
     0
174
     0
 93
        1
 44
0.0
173
     0
291
     0
 45
0.0
  0
VISUALSTYLE
  5
30
102
{ACAD_REACTORS
330
2A
102
}
330
2A
100
AcDbVisualStyle
  2
3dWireframe
 70
     5
 71
     0
 72
     2
 73
     0
 90
        0
 40
-0.6
 41
-30.0
 62
     5
 63
     7
421
 16777215
 74
     1
 91
        4
 64
     7
 65
   257
 75
     1
175
     1
 42
1.0
 92
        0
 66
   257
 43
1.0
 76
     1
 77
     6
 78
     2
 67
     7
 79
     5
170
     0
171
     0
290
     0
174
     0
 93
        1
 44
0.0
173
     0
291
     0
 45
0.0
  0
VISUALSTYLE
  5
32
102
{ACAD_REACTORS
330
2A
102
}
330
2A
100
AcDbVisualStyle
  2
Basic
 70
     7
 71
     1
 72
     0
 73
     1
 90
        0
 40
-0.6
 41
-30.0
 62
     5
 63
     7
421
 16777215
 74
     0
 91
        4
 64
     7
 65
   257
 75
     1
175
     1
 42
1.0
 92
        8
 66
     7
 43
1.0
 76
     1
 77
     6
 78
     2
 67
     7
 79
     5
170
     0
171
     0
290
     0
174
     0
 93
        1
 44
0.0
173
     0
291
     1
 45
0.0
  0
VISUALSTYLE
  5
36
102
{ACAD_REACTORS
330
2A
102
}
330
2A
100
AcDbVisualStyle
  2
Brighten
 70
    12
 71
     2
 72
     2
 73
     0
 90
        0
 40
-0.6
 41
-30.0
 62
     5
 63
     7
421
 16777215
 74
     1
 91
        4
 64
     7
 65
   257
 75
     1
175
     1
 42
1.0
 92
        8
 66
     7
 43
1.0
 76
     1
 77
     6
 78
     2
 67
     7
 79
     5
170
     0
171
     0
290
     0
174
     0
 93
        1
 44
50.0
173
     0
291
     1
 45
0.0
  0
VISUALSTYLE
  5
3A
102
{ACAD_REACTORS
330
2A
102
}
330
2A
100
AcDbVisualStyle
  2
ColorChange
 70
    16
 71
     2
 72
     2
 73
     3
 90
        0
 40
-0.6
 41
-30.0
 62
     5
 63
     8
421
  8421504
 74
     1
 91
        4
 64
     7
 65
   257
 75
     1
175
     1
 42
1.0
 92
        8
 66
     8
424
  8421504
 43
1.0
 76
     1
 77
     6
 78
     2
 67
     7
 79
     5
170
     0
171
     0
290
     0
174
     0
 93
        1
 44
0.0
173
     0
291
     1
 45
0.0
  0
VISUALSTYLE
  5
34
102
{ACAD_REACTORS
330
2A
102
}
330
2A
100
AcDbVisualStyle
  2
Conceptual
 70
     9
 71
     3
 72
     2
 73
     0
 90
        0
 40
-0.6
 41
-30.0
 62
     5
 63
     7
421
 16777215
 74
     2
 91
        2
 64
     7
 65
   257
 75
     1
175
     1
 42
40.0
 92
        8
 66
     7
 43
1.0
 76
     1
 77
     6
 78
     2
 67
     7
 79
     3
170
     0
171
     0
290
     0
174
     0
 93
        1
 44
0.0
173
     0
291
     0
 45
0.0
  0
VISUALSTYLE
  5
35
102
{ACAD_REACTORS
330
2A
102
}
330
2A
100
AcDbVisualStyle
  2
Dim
 70
    11
 71
     2
 72
     2
 73
     0
 90
        0
 40
-0.6
 41
-30.0
 62
     5
 63
     7
421
 16777215
 74
     1
 91
        4
 64
     7
 65
   257
 75
     1
175
     1
 42
1.0
 92
        8
 66
     7
 43
1.0
 76
     1
 77
     6
 78
     2
 67
     7
 79
     5
170
     0
171
     0
290
     0
174
     0
 93
        1
 44
-50.0
173
     0
291
     1
 45
0.0
  0
VISUALSTYLE
  5
39
102
{ACAD_REACTORS
330
2A
102
}
330
2A
100
AcDbVisualStyle
  2
Facepattern
 70
    15
 71
     2
 72
     2
 73
     0
 90
        0
 40
-0.6
 41
-30.0
 62
     5
 63
     7
421
 16777215
 74
     1
 91
        4
 64
     7
 65
   257
 75
     1
175
     1
 42
1.0
 92
        8
 66
     7
 43
1.0
 76
     1
 77
     6
 78
     2
 67
     7
 79
     5
170
     0
171
     0
290
     0
174
     0
 93
        1
 44
0.0
173
     0
291
     1
 45
0.0
  0
VISUALSTYLE
  5
2B
102
{ACAD_REACTORS
330
2A
102
}
330
2A
100
AcDbVisualStyle
  2
Flat
 70
     0
 71
     2
 72
     1
 73
     1
 90
        2
 40
-0.6
 41
30.0
 62
     5
 63
     7
421
 16777215
 74
     0
 91
        4
 64
     7
 65
   257
 75
     1
175
     1
 42
1.0
 92
        8
 66
     7
 43
1.0
 76
     1
 77
     6
 78
     2
 67
     7
 79
     5
170
     0
171
     0
290
     0
174
     0
 93
       13
 44
0.0
173
     0
291
     1
 45
0.0
  0
VISUALSTYLE
  5
2C
102
{ACAD_REACTORS
330
2A
102
}
330
2A
100
AcDbVisualStyle
  2
FlatWithEdges
 70
     1
 71
     2
 72
     1
 73
     1
 90
        2
 40
-0.6
 41
30.0
 62
     5
 63
     7
421
 16777215
 74
     1
 91
        4
 64
     7
 65
   257
 75
     1
175
     1
 42
1.0
 92
        0
 66
   257
 43
1.0
 76
     1
 77
     6
 78
     2
 67
     7
 79
     5
170
     0
171
     0
290
     0
174
     0
 93
       13
 44
0.0
173
     0
291
     1
 45
0.0
  0
VISUALSTYLE
  5
2D
102
{ACAD_REACTORS
330
2A
102
}
330
2A
100
AcDbVisualStyle
  2
Gouraud
 70
     2
 71
     2
 72
     2
 73
     1
 90
        2
 40
-0.6
 41
30.0
 62
     5
 63
     7
421
 16777215
 74
     0
 91
        4
 64
     7
 65
   257
 75
     1
175
     1
 42
1.0
 92
        0
 66
     7
 43
1.0
 76
     1
 77
     6
 78
     2
 67
     7
 79
     5
170
     0
171
     0
290
     0
174
     0
 93
       13
 44
0.0
173
     0
291
     1
 45
0.0
  0
VISUALSTYLE
  5
2E
102
{ACAD_REACTORS
330
2A
102
}
330
2A
100
AcDbVisualStyle
  2
GouraudWithEdges
 70
     3
 71
     2
 72
     2
 73
     1
 90
        2
 40
-0.6
 41
30.0
 62
     5
 63
     7
421
 16777215
 74
     1
 91
        4
 64
     7
 65
   257
 75
     1
175
     1
 42
1.0
 92
        0
 66
   257
 43
1.0
 76
     1
 77
     6
 78
     2
 67
     7
 79
     5
170
     0
171
     0
290
     0
174
     0
 93
       13
 44
0.0
173
     0
291
     1
 45
0.0
  0
VISUALSTYLE
  5
38
102
{ACAD_REACTORS
330
2A
102
}
330
2A
100
AcDbVisualStyle
  2
Linepattern
 70
    14
 71
     2
 72
     2
 73
     0
 90
        0
 40
-0.6
 41
-30.0
 62
     5
 63
     7
421
 16777215
 74
     1
 91
        4
 64
     7
 65
   257
 75
     7
175
     7
 42
1.0
 92
        8
 66
     7
 43
1.0
 76
     1
 77
     6
 78
     2
 67
     7
 79
     5
170
     0
171
     0
290
     0
174
     0
 93
        1
 44
0.0
173
     0
291
     1
 45
0.0
  0
VISUALSTYLE
  5
33
102
{ACAD_REACTORS
330
2A
102
}
330
2A
100
AcDbVisualStyle
  2
Realistic
 70
     8
 71
     2
 72
     2
 73
     0
 90
        0
 40
-0.6
 41
-30.0
 62
     5
 63
     7
421
 16777215
 74
     1
 91
        0
 64
     7
 65
   257
 75
     1
175
     1
 42
1.0
 92
        8
 66
     8
424
  7895160
 43
1.0
 76
     1
 77
     6
 78
     2
 67
     7
 79
     5
170
     0
171
     0
290
     0
174
     0
 93
       13
 44
0.0
173
     0
291
     0
 45
0.0
  0
VISUALSTYLE
  5
37
102
{ACAD_REACTORS
330
2A
102
}
330
2A
100
AcDbVisualStyle
  2
Thicken
 70
    13
 71
     2
 72
     2
 73
     0
 90
        0
 40
-0.6
 41
-30.0
 62
     5
 63
     7
421
 16777215
 74
     1
 91
        4
 64
     7
 65
   257
 75
     1
175
     1
 42
1.0
 92
       12
 66
     7
 43
1.0
 76
     1
 77
     6
 78
     2
 67
     7
 79
     5
170
     0
171
     0
290
     0
174
     0
 93
        1
 44
0.0
173
     0
291
     1
 45
0.0
  0
ENDSEC
  0
EOF
