  0
SECTION
  2
HEADER
  9
$ACADVER
  1
AC1012
  9
$DWGCODEPAGE
  3
ansi_1252
  9
$INSBASE
 10
0.0
 20
0.0
 30
0.0
  9
$EXTMIN
 10
1.000000000000000E+20
 20
1.000000000000000E+20
 30
1.000000000000000E+20
  9
$EXTMAX
 10
-1.000000000000000E+20
 20
-1.000000000000000E+20
 30
-1.000000000000000E+20
  9
$LIMMIN
 10
0.0
 20
0.0
  9
$LIMMAX
 10
12.0
 20
9.0
  9
$ORTHOMODE
 70
     0
  9
$REGENMODE
 70
     1
  9
$FILLMODE
 70
     1
  9
$QTEXTMODE
 70
     0
  9
$MIRRTEXT
 70
     1
  9
$DRAGMODE
 70
     2
  9
$LTSCALE
 40
1.0
  9
$OSMODE
 70
    37
  9
$ATTMODE
 70
     1
  9
$TEXTSIZE
 40
0.2
  9
$TRACEWID
 40
0.05
  9
$TEXTSTYLE
  7
STANDARD
  9
$CLAYER
  8
0
  9
$CELTYPE
  6
BYLAYER
  9
$CECOLOR
 62
   256
  9
$CELTSCALE
 40
1.0
  9
$DELOBJ
 70
     1
  9
$DISPSILH
 70
     0
  9
$DIMSCALE
 40
1.0
  9
$DIMASZ
 40
0.18
  9
$DIMEXO
 40
0.0625
  9
$DIMDLI
 40
0.38
  9
$DIMRND
 40
0.0
  9
$DIMDLE
 40
0.0
  9
$DIMEXE
 40
0.18
  9
$DIMTP
 40
0.0
  9
$DIMTM
 40
0.0
  9
$DIMTXT
 40
0.18
  9
$DIMCEN
 40
0.09
  9
$DIMTSZ
 40
0.0
  9
$DIMTOL
 70
     0
  9
$DIMLIM
 70
     0
  9
$DIMTIH
 70
     1
  9
$DIMTOH
 70
     1
  9
$DIMSE1
 70
     0
  9
$DIMSE2
 70
     0
  9
$DIMTAD
 70
     0
  9
$DIMZIN
 70
     0
  9
$DIMBLK
  1

  9
$DIMASO
 70
     1
  9
$DIMSHO
 70
     1
  9
$DIMPOST
  1

  9
$DIMAPOST
  1

  9
$DIMALT
 70
     0
  9
$DIMALTD
 70
     2
  9
$DIMALTF
 40
25.4
  9
$DIMLFAC
 40
1.0
  9
$DIMTOFL
 70
     0
  9
$DIMTVP
 40
0.0
  9
$DIMTIX
 70
     0
  9
$DIMSOXD
 70
     0
  9
$DIMSAH
 70
     0
  9
$DIMBLK1
  1

  9
$DIMBLK2
  1

  9
$DIMSTYLE
  2
STANDARD
  9
$DIMCLRD
 70
     0
  9
$DIMCLRE
 70
     0
  9
$DIMCLRT
 70
     0
  9
$DIMTFAC
 40
1.0
  9
$DIMGAP
 40
0.09
  9
$DIMJUST
 70
     0
  9
$DIMSD1
 70
     0
  9
$DIMSD2
 70
     0
  9
$DIMTOLJ
 70
     1
  9
$DIMTZIN
 70
     0
  9
$DIMALTZ
 70
     0
  9
$DIMALTTZ
 70
     0
  9
$DIMFIT
 70
     3
  9
$DIMUPT
 70
     0
  9
$DIMUNIT
 70
     2
  9
$DIMDEC
 70
     4
  9
$DIMTDEC
 70
     4
  9
$DIMALTU
 70
     2
  9
$DIMALTTD
 70
     2
  9
$DIMTXSTY
  7
STANDARD
  9
$DIMAUNIT
 70
     0
  9
$LUNITS
 70
     2
  9
$LUPREC
 70
     4
  9
$SKETCHINC
 40
0.1
  9
$FILLETRAD
 40
0.5
  9
$AUNITS
 70
     0
  9
$AUPREC
 70
     0
  9
$MENU
  1
.
  9
$ELEVATION
 40
0.0
  9
$PELEVATION
 40
0.0
  9
$THICKNESS
 40
0.0
  9
$LIMCHECK
 70
     0
  9
$CHAMFERA
 40
0.5
  9
$CHAMFERB
 40
0.5
  9
$CHAMFERC
 40
1.0
  9
$CHAMFERD
 40
0.0
  9
$SKPOLY
 70
     0
  9
$TDCREATE
 40
2457976.706164248
  9
$TDUPDATE
 40
2457976.706164792
  9
$TDINDWG
 40
0.0000000116
  9
$TDUSRTIMER
 40
0.0000000116
  9
$USRTIMER
 70
     1
  9
$ANGBASE
 50
0.0
  9
$ANGDIR
 70
     0
  9
$PDMODE
 70
     0
  9
$PDSIZE
 40
0.0
  9
$PLINEWID
 40
0.0
  9
$COORDS
 70
     1
  9
$SPLFRAME
 70
     0
  9
$SPLINETYPE
 70
     6
  9
$SPLINESEGS
 70
     8
  9
$ATTDIA
 70
     0
  9
$ATTREQ
 70
     1
  9
$HANDLING
 70
     1
  9
$HANDSEED
  5
6C8
  9
$SURFTAB1
 70
     6
  9
$SURFTAB2
 70
     6
  9
$SURFTYPE
 70
     6
  9
$SURFU
 70
     6
  9
$SURFV
 70
     6
  9
$UCSNAME
  2

  9
$UCSORG
 10
0.0
 20
0.0
 30
0.0
  9
$UCSXDIR
 10
1.0
 20
0.0
 30
0.0
  9
$UCSYDIR
 10
0.0
 20
1.0
 30
0.0
  9
$PUCSNAME
  2

  9
$PUCSORG
 10
0.0
 20
0.0
 30
0.0
  9
$PUCSXDIR
 10
1.0
 20
0.0
 30
0.0
  9
$PUCSYDIR
 10
0.0
 20
1.0
 30
0.0
  9
$USERI1
 70
     0
  9
$USERI2
 70
     0
  9
$USERI3
 70
     0
  9
$USERI4
 70
     0
  9
$USERI5
 70
     0
  9
$USERR1
 40
0.0
  9
$USERR2
 40
0.0
  9
$USERR3
 40
0.0
  9
$USERR4
 40
0.0
  9
$USERR5
 40
0.0
  9
$WORLDVIEW
 70
     1
  9
$SHADEDGE
 70
     3
  9
$SHADEDIF
 70
    70
  9
$TILEMODE
 70
     1
  9
$MAXACTVP
 70
    64
  9
$PINSBASE
 10
0.0
 20
0.0
 30
0.0
  9
$PLIMCHECK
 70
     0
  9
$PEXTMIN
 10
1.000000000000000E+20
 20
1.000000000000000E+20
 30
1.000000000000000E+20
  9
$PEXTMAX
 10
-1.000000000000000E+20
 20
-1.000000000000000E+20
 30
-1.000000000000000E+20
  9
$PLIMMIN
 10
0.0
 20
0.0
  9
$PLIMMAX
 10
12.0
 20
9.0
  9
$UNITMODE
 70
     0
  9
$VISRETAIN
 70
     1
  9
$PLINEGEN
 70
     0
  9
$PSLTSCALE
 70
     1
  9
$TREEDEPTH
 70
  3020
  9
$PICKSTYLE
 70
     1
  9
$CMLSTYLE
  2
STANDARD
  9
$CMLJUST
 70
     0
  9
$CMLSCALE
 40
1.0
  9
$SAVEIMAGES
 70
     1
  0
ENDSEC
  0
SECTION
  2
CLASSES
  0
CLASS
  1
ACDBDICTIONARYWDFLT
  2
AcDbDictionaryWithDefault
  3
ObjectDBX Classes
 90
    32768
280
     0
281
     0
  0
CLASS
  1
VISUALSTYLE
  2
AcDbVisualStyle
  3
ObjectDBX Classes
 90
     4095
280
     0
281
     0
  0
CLASS
  1
MATERIAL
  2
AcDbMaterial
  3
ObjectDBX Classes
 90
     1153
280
     0
281
     0
  0
CLASS
  1
SUN
  2
AcDbSun
  3
SCENEOE
 90
     1024
280
     0
281
     0
  0
CLASS
  1
DICTIONARYVAR
  2
AcDbDictionaryVar
  3
ObjectDBX Classes
 90
        0
280
     0
281
     0
  0
CLASS
  1
XRECORD
  2
AcDbXrecord
  3
AutoCAD 2000
 90
    32768
280
     0
281
     0
  0
CLASS
  1
LWPOLYLINE
  2
AcDbPolyline
  3
AutoCAD 2000
 90
    32768
280
     0
281
     1
  0
CLASS
  1
HATCH
  2
AcDbHatch
  3
AutoCAD 2000
 90
    32768
280
     0
281
     1
  0
CLASS
  1
ACDBPLACEHOLDER
  2
AcDbPlaceHolder
  3
ObjectDBX Classes
 90
        0
280
     0
281
     0
  0
CLASS
  1
LAYOUT
  2
AcDbLayout
  3
ObjectDBX Classes
 90
        0
280
     0
281
     0
  0
ENDSEC
  0
SECTION
  2
TABLES
  0
TABLE
  2
VPORT
  5
8
330
0
100
AcDbSymbolTable
 70
     1
  0
VPORT
  5
29
330
8
100
AcDbSymbolTableRecord
100
AcDbViewportTableRecord
  2
*ACTIVE
 70
     0
 10
0.0
 20
0.0
 11
1.0
 21
1.0
 12
0.0
 22
0.0
 13
0.0
 23
0.0
 14
0.5
 24
0.5
 15
0.5
 25
0.5
 16
0.0
 26
0.0
 36
1.0
 17
115.1355314260662
 27
183.4423814431258
 37
0.0
 40
1079.99999973
 41
1.401008082950844
 42
50.0
 43
0.0
 44
0.0
 50
0.0
 51
0.0
 71
     0
 72
   100
 73
     1
 74
     3
 75
     0
 76
     0
 77
     0
 78
     0
  0
ENDTAB
  0
TABLE
  2
LTYPE
  5
5
330
0
100
AcDbSymbolTable
 70
     5
  0
LTYPE
  5
14
330
5
100
AcDbSymbolTableRecord
100
AcDbLinetypeTableRecord
  2
BYBLOCK
 70
     0
  3

 72
    65
 73
     0
 40
0.0
  0
LTYPE
  5
15
330
5
100
AcDbSymbolTableRecord
100
AcDbLinetypeTableRecord
  2
BYLAYER
 70
     0
  3

 72
    65
 73
     0
 40
0.0
  0
LTYPE
  5
16
330
5
100
AcDbSymbolTableRecord
100
AcDbLinetypeTableRecord
  2
CONTINUOUS
 70
     0
  3
Solid line
 72
    65
 73
     0
 40
0.0
  0
LTYPE
  5
602
330
5
100
AcDbSymbolTableRecord
100
AcDbLinetypeTableRecord
  2
AI-LINETYPE-1
 70
     0
  3
Adobe Illustrator Linetype No. 1
 72
    65
 73
     4
 40
5.040312338933247
 49
3.360208197919239
 74
     0
 49
-0.560034713671336
 74
     0
 49
0.560034713671336
 74
     0
 49
-0.560034713671336
 74
     0
  0
LTYPE
  5
60B
330
5
100
AcDbSymbolTableRecord
100
AcDbLinetypeTableRecord
  2
AI-LINETYPE-2
 70
     0
  3
Adobe Illustrator Linetype No. 2
 72
    65
 73
     4
 40
5.040312338933247
 49
3.360208197919239
 74
     0
 49
-0.560034713671336
 74
     0
 49
0.560034713671336
 74
     0
 49
-0.560034713671336
 74
     0
  0
LTYPE
  5
614
330
5
100
AcDbSymbolTableRecord
100
AcDbLinetypeTableRecord
  2
AI-LINETYPE-3
 70
     0
  3
Adobe Illustrator Linetype No. 3
 72
    65
 73
     4
 40
21.50533266854419
 49
13.44083279167696
 74
     0
 49
-2.688166625622412
 74
     0
 49
2.688166625622412
 74
     0
 49
-2.688166625622412
 74
     0
  0
LTYPE
  5
61D
330
5
100
AcDbSymbolTableRecord
100
AcDbLinetypeTableRecord
  2
AI-LINETYPE-4
 70
     0
  3
Adobe Illustrator Linetype No. 4
 72
    65
 73
     4
 40
21.50533266854419
 49
13.44083279167696
 74
     0
 49
-2.688166625622412
 74
     0
 49
2.688166625622412
 74
     0
 49
-2.688166625622412
 74
     0
  0
ENDTAB
  0
TABLE
  2
LAYER
  5
2
330
0
100
AcDbSymbolTable
 70
    18
  0
LAYER
  5
10
330
2
100
AcDbSymbolTableRecord
100
AcDbLayerTableRecord
  2
0
 70
     0
 62
     7
  6
CONTINUOUS
  0
LAYER
  5
40
330
2
100
AcDbSymbolTableRecord
100
AcDbLayerTableRecord
  2
_U_6807_U_6CE8_U_7EBF
 70
     0
 62
     7
  6
CONTINUOUS
  0
LAYER
  5
654
330
2
100
AcDbSymbolTableRecord
100
AcDbLayerTableRecord
  2
AM_5
 70
     0
 62
     7
  6
CONTINUOUS
  0
LAYER
  5
655
330
2
100
AcDbSymbolTableRecord
100
AcDbLayerTableRecord
  2
1
 70
     0
 62
     7
  6
CONTINUOUS
  0
LAYER
  5
656
330
2
100
AcDbSymbolTableRecord
100
AcDbLayerTableRecord
  2
_U_9632_U_9707_U_677F
 70
     0
 62
     7
  6
CONTINUOUS
  0
LAYER
  5
657
330
2
100
AcDbSymbolTableRecord
100
AcDbLayerTableRecord
  2
DEFPOINTS
 70
     0
 62
     7
  6
CONTINUOUS
  0
LAYER
  5
658
330
2
100
AcDbSymbolTableRecord
100
AcDbLayerTableRecord
  2
_U_7C97_U_5B9E_U_7EBF
 70
     0
 62
     7
  6
CONTINUOUS
  0
LAYER
  5
659
330
2
100
AcDbSymbolTableRecord
100
AcDbLayerTableRecord
  2
_U_4E2D_U_5FC3_U_7EBF
 70
     0
 62
     7
  6
CONTINUOUS
  0
LAYER
  5
65A
330
2
100
AcDbSymbolTableRecord
100
AcDbLayerTableRecord
  2
_U_6587_U_5B57
 70
     0
 62
     7
  6
CONTINUOUS
  0
LAYER
  5
65B
330
2
100
AcDbSymbolTableRecord
100
AcDbLayerTableRecord
  2
D
 70
     0
 62
     7
  6
CONTINUOUS
  0
LAYER
  5
65C
330
2
100
AcDbSymbolTableRecord
100
AcDbLayerTableRecord
  2
315274262343_1
 70
     0
 62
     7
  6
CONTINUOUS
  0
LAYER
  5
65D
330
2
100
AcDbSymbolTableRecord
100
AcDbLayerTableRecord
  2
CENTER
 70
     0
 62
     7
  6
CONTINUOUS
  0
LAYER
  5
65E
330
2
100
AcDbSymbolTableRecord
100
AcDbLayerTableRecord
  2
_U_56FE_U_5C421
 70
     0
 62
     7
  6
CONTINUOUS
  0
LAYER
  5
65F
330
2
100
AcDbSymbolTableRecord
100
AcDbLayerTableRecord
  2
_U_56FE_U_5C423
 70
     0
 62
     7
  6
CONTINUOUS
  0
LAYER
  5
660
330
2
100
AcDbSymbolTableRecord
100
AcDbLayerTableRecord
  2
03___PRT_ALL_CURVES
 70
     0
 62
     7
  6
CONTINUOUS
  0
LAYER
  5
661
330
2
100
AcDbSymbolTableRecord
100
AcDbLayerTableRecord
  2
02___PRT_ALL_AXES
 70
     0
 62
     7
  6
CONTINUOUS
  0
LAYER
  5
662
330
2
100
AcDbSymbolTableRecord
100
AcDbLayerTableRecord
  2
9
 70
     0
 62
     7
  6
CONTINUOUS
  0
LAYER
  5
663
330
2
100
AcDbSymbolTableRecord
100
AcDbLayerTableRecord
  2
_U_56FE_U_5C42_1
 70
     0
 62
     7
  6
CONTINUOUS
  0
ENDTAB
  0
TABLE
  2
STYLE
  5
3
330
0
100
AcDbSymbolTable
 70
     1
  0
STYLE
  5
11
330
3
100
AcDbSymbolTableRecord
100
AcDbTextStyleTableRecord
  2
STANDARD
 70
     0
 40
0.0
 41
1.0
 50
0.0
 71
     0
 42
0.2
  3
txt
  4

  0
ENDTAB
  0
TABLE
  2
VIEW
  5
6
330
0
100
AcDbSymbolTable
 70
     0
  0
ENDTAB
  0
TABLE
  2
UCS
  5
7
330
0
100
AcDbSymbolTable
 70
     0
  0
ENDTAB
  0
TABLE
  2
APPID
  5
9
330
0
100
AcDbSymbolTable
 70
     1
  0
APPID
  5
12
330
9
100
AcDbSymbolTableRecord
100
AcDbRegAppTableRecord
  2
ACAD
 70
     0
  0
ENDTAB
  0
TABLE
  2
DIMSTYLE
  5
A
330
0
100
AcDbSymbolTable
 70
     1
  0
DIMSTYLE
105
27
330
A
100
AcDbSymbolTableRecord
100
AcDbDimStyleTableRecord
  2
STANDARD
 70
     0
  3

  4

  5

  6

  7

 40
1.0
 41
0.18
 42
0.0625
 43
0.38
 44
0.18
 45
0.0
 46
0.0
 47
0.0
 48
0.0
140
0.18
141
0.09
142
0.0
143
25.4
144
1.0
145
0.0
146
1.0
147
0.09
 71
     0
 72
     0
 73
     1
 74
     1
 75
     0
 76
     0
 77
     0
 78
     0
170
     0
171
     2
172
     0
173
     0
174
     0
175
     0
176
     0
177
     0
178
     0
270
     2
271
     4
272
     4
273
     2
274
     2
340
11
275
     0
280
     0
281
     0
282
     0
283
     1
284
     0
285
     0
286
     0
287
     3
288
     0
  0
ENDTAB
  0
TABLE
  2
BLOCK_RECORD
  5
1
330
0
100
AcDbSymbolTable
 70
   224
  0
BLOCK_RECORD
  5
1F
330
1
100
AcDbSymbolTableRecord
100
AcDbBlockTableRecord
  2
*MODEL_SPACE
  0
BLOCK_RECORD
  5
1B
330
1
100
AcDbSymbolTableRecord
100
AcDbBlockTableRecord
  2
*PAPER_SPACE
  0
BLOCK_RECORD
  5
42
330
1
100
AcDbSymbolTableRecord
100
AcDbBlockTableRecord
  2
BLOCK_2
  0
BLOCK_RECORD
  5
4A
330
1
100
AcDbSymbolTableRecord
100
AcDbBlockTableRecord
  2
BLOCK_3
  0
BLOCK_RECORD
  5
52
330
1
100
AcDbSymbolTableRecord
100
AcDbBlockTableRecord
  2
BLOCK_4
  0
BLOCK_RECORD
  5
5A
330
1
100
AcDbSymbolTableRecord
100
AcDbBlockTableRecord
  2
BLOCK_5
  0
BLOCK_RECORD
  5
62
330
1
100
AcDbSymbolTableRecord
100
AcDbBlockTableRecord
  2
BLOCK_6
  0
BLOCK_RECORD
  5
6A
330
1
100
AcDbSymbolTableRecord
100
AcDbBlockTableRecord
  2
BLOCK_7
  0
BLOCK_RECORD
  5
6F
330
1
100
AcDbSymbolTableRecord
100
AcDbBlockTableRecord
  2
BLOCK_8
  0
BLOCK_RECORD
  5
74
330
1
100
AcDbSymbolTableRecord
100
AcDbBlockTableRecord
  2
BLOCK_9
  0
BLOCK_RECORD
  5
7C
330
1
100
AcDbSymbolTableRecord
100
AcDbBlockTableRecord
  2
BLOCK_10
  0
BLOCK_RECORD
  5
81
330
1
100
AcDbSymbolTableRecord
100
AcDbBlockTableRecord
  2
BLOCK_11
  0
BLOCK_RECORD
  5
89
330
1
100
AcDbSymbolTableRecord
100
AcDbBlockTableRecord
  2
BLOCK_12
  0
BLOCK_RECORD
  5
91
330
1
100
AcDbSymbolTableRecord
100
AcDbBlockTableRecord
  2
BLOCK_13
  0
BLOCK_RECORD
  5
96
330
1
100
AcDbSymbolTableRecord
100
AcDbBlockTableRecord
  2
BLOCK_14
  0
BLOCK_RECORD
  5
9B
330
1
100
AcDbSymbolTableRecord
100
AcDbBlockTableRecord
  2
BLOCK_15
  0
BLOCK_RECORD
  5
A3
330
1
100
AcDbSymbolTableRecord
100
AcDbBlockTableRecord
  2
BLOCK_16
  0
BLOCK_RECORD
  5
A8
330
1
100
AcDbSymbolTableRecord
100
AcDbBlockTableRecord
  2
BLOCK_17
  0
BLOCK_RECORD
  5
B0
330
1
100
AcDbSymbolTableRecord
100
AcDbBlockTableRecord
  2
BLOCK_18
  0
BLOCK_RECORD
  5
B8
330
1
100
AcDbSymbolTableRecord
100
AcDbBlockTableRecord
  2
BLOCK_19
  0
BLOCK_RECORD
  5
C0
330
1
100
AcDbSymbolTableRecord
100
AcDbBlockTableRecord
  2
BLOCK_20
  0
BLOCK_RECORD
  5
C5
330
1
100
AcDbSymbolTableRecord
100
AcDbBlockTableRecord
  2
BLOCK_21
  0
BLOCK_RECORD
  5
CD
330
1
100
AcDbSymbolTableRecord
100
AcDbBlockTableRecord
  2
BLOCK_22
  0
BLOCK_RECORD
  5
D2
330
1
100
AcDbSymbolTableRecord
100
AcDbBlockTableRecord
  2
BLOCK_23
  0
BLOCK_RECORD
  5
DA
330
1
100
AcDbSymbolTableRecord
100
AcDbBlockTableRecord
  2
BLOCK_24
  0
BLOCK_RECORD
  5
DF
330
1
100
AcDbSymbolTableRecord
100
AcDbBlockTableRecord
  2
BLOCK_25
  0
BLOCK_RECORD
  5
E7
330
1
100
AcDbSymbolTableRecord
100
AcDbBlockTableRecord
  2
BLOCK_26
  0
BLOCK_RECORD
  5
EC
330
1
100
AcDbSymbolTableRecord
100
AcDbBlockTableRecord
  2
BLOCK_27
  0
BLOCK_RECORD
  5
F4
330
1
100
AcDbSymbolTableRecord
100
AcDbBlockTableRecord
  2
BLOCK_28
  0
BLOCK_RECORD
  5
FC
330
1
100
AcDbSymbolTableRecord
100
AcDbBlockTableRecord
  2
BLOCK_29
  0
BLOCK_RECORD
  5
104
330
1
100
AcDbSymbolTableRecord
100
AcDbBlockTableRecord
  2
BLOCK_30
  0
BLOCK_RECORD
  5
10C
330
1
100
AcDbSymbolTableRecord
100
AcDbBlockTableRecord
  2
BLOCK_31
  0
BLOCK_RECORD
  5
111
330
1
100
AcDbSymbolTableRecord
100
AcDbBlockTableRecord
  2
BLOCK_32
  0
BLOCK_RECORD
  5
119
330
1
100
AcDbSymbolTableRecord
100
AcDbBlockTableRecord
  2
BLOCK_33
  0
BLOCK_RECORD
  5
11E
330
1
100
AcDbSymbolTableRecord
100
AcDbBlockTableRecord
  2
BLOCK_34
  0
BLOCK_RECORD
  5
126
330
1
100
AcDbSymbolTableRecord
100
AcDbBlockTableRecord
  2
BLOCK_35
  0
BLOCK_RECORD
  5
12E
330
1
100
AcDbSymbolTableRecord
100
AcDbBlockTableRecord
  2
BLOCK_36
  0
BLOCK_RECORD
  5
136
330
1
100
AcDbSymbolTableRecord
100
AcDbBlockTableRecord
  2
BLOCK_37
  0
BLOCK_RECORD
  5
13B
330
1
100
AcDbSymbolTableRecord
100
AcDbBlockTableRecord
  2
BLOCK_38
  0
BLOCK_RECORD
  5
143
330
1
100
AcDbSymbolTableRecord
100
AcDbBlockTableRecord
  2
BLOCK_39
  0
BLOCK_RECORD
  5
14B
330
1
100
AcDbSymbolTableRecord
100
AcDbBlockTableRecord
  2
BLOCK_40
  0
BLOCK_RECORD
  5
150
330
1
100
AcDbSymbolTableRecord
100
AcDbBlockTableRecord
  2
BLOCK_41
  0
BLOCK_RECORD
  5
158
330
1
100
AcDbSymbolTableRecord
100
AcDbBlockTableRecord
  2
BLOCK_42
  0
BLOCK_RECORD
  5
15D
330
1
100
AcDbSymbolTableRecord
100
AcDbBlockTableRecord
  2
BLOCK_43
  0
BLOCK_RECORD
  5
165
330
1
100
AcDbSymbolTableRecord
100
AcDbBlockTableRecord
  2
BLOCK_44
  0
BLOCK_RECORD
  5
16D
330
1
100
AcDbSymbolTableRecord
100
AcDbBlockTableRecord
  2
BLOCK_45
  0
BLOCK_RECORD
  5
172
330
1
100
AcDbSymbolTableRecord
100
AcDbBlockTableRecord
  2
BLOCK_46
  0
BLOCK_RECORD
  5
177
330
1
100
AcDbSymbolTableRecord
100
AcDbBlockTableRecord
  2
BLOCK_47
  0
BLOCK_RECORD
  5
17F
330
1
100
AcDbSymbolTableRecord
100
AcDbBlockTableRecord
  2
BLOCK_48
  0
BLOCK_RECORD
  5
184
330
1
100
AcDbSymbolTableRecord
100
AcDbBlockTableRecord
  2
BLOCK_49
  0
BLOCK_RECORD
  5
18C
330
1
100
AcDbSymbolTableRecord
100
AcDbBlockTableRecord
  2
BLOCK_50
  0
BLOCK_RECORD
  5
194
330
1
100
AcDbSymbolTableRecord
100
AcDbBlockTableRecord
  2
BLOCK_51
  0
BLOCK_RECORD
  5
19C
330
1
100
AcDbSymbolTableRecord
100
AcDbBlockTableRecord
  2
BLOCK_52
  0
BLOCK_RECORD
  5
1A1
330
1
100
AcDbSymbolTableRecord
100
AcDbBlockTableRecord
  2
BLOCK_53
  0
BLOCK_RECORD
  5
1A9
330
1
100
AcDbSymbolTableRecord
100
AcDbBlockTableRecord
  2
BLOCK_54
  0
BLOCK_RECORD
  5
1AE
330
1
100
AcDbSymbolTableRecord
100
AcDbBlockTableRecord
  2
BLOCK_55
  0
BLOCK_RECORD
  5
1B6
330
1
100
AcDbSymbolTableRecord
100
AcDbBlockTableRecord
  2
BLOCK_56
  0
BLOCK_RECORD
  5
1BB
330
1
100
AcDbSymbolTableRecord
100
AcDbBlockTableRecord
  2
BLOCK_57
  0
BLOCK_RECORD
  5
1C3
330
1
100
AcDbSymbolTableRecord
100
AcDbBlockTableRecord
  2
BLOCK_58
  0
BLOCK_RECORD
  5
1C8
330
1
100
AcDbSymbolTableRecord
100
AcDbBlockTableRecord
  2
BLOCK_59
  0
BLOCK_RECORD
  5
1D0
330
1
100
AcDbSymbolTableRecord
100
AcDbBlockTableRecord
  2
BLOCK_60
  0
BLOCK_RECORD
  5
1D8
330
1
100
AcDbSymbolTableRecord
100
AcDbBlockTableRecord
  2
BLOCK_61
  0
BLOCK_RECORD
  5
1DD
330
1
100
AcDbSymbolTableRecord
100
AcDbBlockTableRecord
  2
BLOCK_62
  0
BLOCK_RECORD
  5
1E5
330
1
100
AcDbSymbolTableRecord
100
AcDbBlockTableRecord
  2
BLOCK_63
  0
BLOCK_RECORD
  5
1ED
330
1
100
AcDbSymbolTableRecord
100
AcDbBlockTableRecord
  2
BLOCK_64
  0
BLOCK_RECORD
  5
1F5
330
1
100
AcDbSymbolTableRecord
100
AcDbBlockTableRecord
  2
BLOCK_65
  0
BLOCK_RECORD
  5
1FA
330
1
100
AcDbSymbolTableRecord
100
AcDbBlockTableRecord
  2
BLOCK_66
  0
BLOCK_RECORD
  5
1FF
330
1
100
AcDbSymbolTableRecord
100
AcDbBlockTableRecord
  2
BLOCK_67
  0
BLOCK_RECORD
  5
20E
330
1
100
AcDbSymbolTableRecord
100
AcDbBlockTableRecord
  2
BLOCK_68
  0
BLOCK_RECORD
  5
213
330
1
100
AcDbSymbolTableRecord
100
AcDbBlockTableRecord
  2
BLOCK_69
  0
BLOCK_RECORD
  5
218
330
1
100
AcDbSymbolTableRecord
100
AcDbBlockTableRecord
  2
BLOCK_70
  0
BLOCK_RECORD
  5
220
330
1
100
AcDbSymbolTableRecord
100
AcDbBlockTableRecord
  2
BLOCK_71
  0
BLOCK_RECORD
  5
228
330
1
100
AcDbSymbolTableRecord
100
AcDbBlockTableRecord
  2
BLOCK_72
  0
BLOCK_RECORD
  5
230
330
1
100
AcDbSymbolTableRecord
100
AcDbBlockTableRecord
  2
BLOCK_73
  0
BLOCK_RECORD
  5
235
330
1
100
AcDbSymbolTableRecord
100
AcDbBlockTableRecord
  2
BLOCK_74
  0
BLOCK_RECORD
  5
23A
330
1
100
AcDbSymbolTableRecord
100
AcDbBlockTableRecord
  2
BLOCK_75
  0
BLOCK_RECORD
  5
242
330
1
100
AcDbSymbolTableRecord
100
AcDbBlockTableRecord
  2
BLOCK_76
  0
BLOCK_RECORD
  5
24A
330
1
100
AcDbSymbolTableRecord
100
AcDbBlockTableRecord
  2
BLOCK_77
  0
BLOCK_RECORD
  5
252
330
1
100
AcDbSymbolTableRecord
100
AcDbBlockTableRecord
  2
BLOCK_78
  0
BLOCK_RECORD
  5
25A
330
1
100
AcDbSymbolTableRecord
100
AcDbBlockTableRecord
  2
BLOCK_79
  0
BLOCK_RECORD
  5
25F
330
1
100
AcDbSymbolTableRecord
100
AcDbBlockTableRecord
  2
BLOCK_80
  0
BLOCK_RECORD
  5
264
330
1
100
AcDbSymbolTableRecord
100
AcDbBlockTableRecord
  2
BLOCK_81
  0
BLOCK_RECORD
  5
26C
330
1
100
AcDbSymbolTableRecord
100
AcDbBlockTableRecord
  2
BLOCK_82
  0
BLOCK_RECORD
  5
274
330
1
100
AcDbSymbolTableRecord
100
AcDbBlockTableRecord
  2
BLOCK_83
  0
BLOCK_RECORD
  5
27C
330
1
100
AcDbSymbolTableRecord
100
AcDbBlockTableRecord
  2
BLOCK_84
  0
BLOCK_RECORD
  5
284
330
1
100
AcDbSymbolTableRecord
100
AcDbBlockTableRecord
  2
BLOCK_85
  0
BLOCK_RECORD
  5
289
330
1
100
AcDbSymbolTableRecord
100
AcDbBlockTableRecord
  2
BLOCK_86
  0
BLOCK_RECORD
  5
28E
330
1
100
AcDbSymbolTableRecord
100
AcDbBlockTableRecord
  2
BLOCK_87
  0
BLOCK_RECORD
  5
296
330
1
100
AcDbSymbolTableRecord
100
AcDbBlockTableRecord
  2
BLOCK_88
  0
BLOCK_RECORD
  5
29E
330
1
100
AcDbSymbolTableRecord
100
AcDbBlockTableRecord
  2
BLOCK_89
  0
BLOCK_RECORD
  5
2A6
330
1
100
AcDbSymbolTableRecord
100
AcDbBlockTableRecord
  2
BLOCK_90
  0
BLOCK_RECORD
  5
2AE
330
1
100
AcDbSymbolTableRecord
100
AcDbBlockTableRecord
  2
BLOCK_91
  0
BLOCK_RECORD
  5
2B3
330
1
100
AcDbSymbolTableRecord
100
AcDbBlockTableRecord
  2
BLOCK_92
  0
BLOCK_RECORD
  5
2B8
330
1
100
AcDbSymbolTableRecord
100
AcDbBlockTableRecord
  2
BLOCK_93
  0
BLOCK_RECORD
  5
2C0
330
1
100
AcDbSymbolTableRecord
100
AcDbBlockTableRecord
  2
BLOCK_94
  0
BLOCK_RECORD
  5
2C8
330
1
100
AcDbSymbolTableRecord
100
AcDbBlockTableRecord
  2
BLOCK_95
  0
BLOCK_RECORD
  5
2D0
330
1
100
AcDbSymbolTableRecord
100
AcDbBlockTableRecord
  2
BLOCK_96
  0
BLOCK_RECORD
  5
2D8
330
1
100
AcDbSymbolTableRecord
100
AcDbBlockTableRecord
  2
BLOCK_97
  0
BLOCK_RECORD
  5
2E0
330
1
100
AcDbSymbolTableRecord
100
AcDbBlockTableRecord
  2
BLOCK_98
  0
BLOCK_RECORD
  5
2E5
330
1
100
AcDbSymbolTableRecord
100
AcDbBlockTableRecord
  2
BLOCK_99
  0
BLOCK_RECORD
  5
2ED
330
1
100
AcDbSymbolTableRecord
100
AcDbBlockTableRecord
  2
BLOCK_100
  0
BLOCK_RECORD
  5
2F5
330
1
100
AcDbSymbolTableRecord
100
AcDbBlockTableRecord
  2
BLOCK_101
  0
BLOCK_RECORD
  5
2FD
330
1
100
AcDbSymbolTableRecord
100
AcDbBlockTableRecord
  2
BLOCK_102
  0
BLOCK_RECORD
  5
305
330
1
100
AcDbSymbolTableRecord
100
AcDbBlockTableRecord
  2
BLOCK_103
  0
BLOCK_RECORD
  5
30D
330
1
100
AcDbSymbolTableRecord
100
AcDbBlockTableRecord
  2
BLOCK_104
  0
BLOCK_RECORD
  5
315
330
1
100
AcDbSymbolTableRecord
100
AcDbBlockTableRecord
  2
BLOCK_105
  0
BLOCK_RECORD
  5
31D
330
1
100
AcDbSymbolTableRecord
100
AcDbBlockTableRecord
  2
BLOCK_106
  0
BLOCK_RECORD
  5
325
330
1
100
AcDbSymbolTableRecord
100
AcDbBlockTableRecord
  2
BLOCK_107
  0
BLOCK_RECORD
  5
32D
330
1
100
AcDbSymbolTableRecord
100
AcDbBlockTableRecord
  2
BLOCK_108
  0
BLOCK_RECORD
  5
335
330
1
100
AcDbSymbolTableRecord
100
AcDbBlockTableRecord
  2
BLOCK_109
  0
BLOCK_RECORD
  5
33D
330
1
100
AcDbSymbolTableRecord
100
AcDbBlockTableRecord
  2
BLOCK_110
  0
BLOCK_RECORD
  5
345
330
1
100
AcDbSymbolTableRecord
100
AcDbBlockTableRecord
  2
BLOCK_111
  0
BLOCK_RECORD
  5
34D
330
1
100
AcDbSymbolTableRecord
100
AcDbBlockTableRecord
  2
BLOCK_112
  0
BLOCK_RECORD
  5
355
330
1
100
AcDbSymbolTableRecord
100
AcDbBlockTableRecord
  2
BLOCK_113
  0
BLOCK_RECORD
  5
35D
330
1
100
AcDbSymbolTableRecord
100
AcDbBlockTableRecord
  2
BLOCK_114
  0
BLOCK_RECORD
  5
365
330
1
100
AcDbSymbolTableRecord
100
AcDbBlockTableRecord
  2
BLOCK_115
  0
BLOCK_RECORD
  5
36D
330
1
100
AcDbSymbolTableRecord
100
AcDbBlockTableRecord
  2
BLOCK_116
  0
BLOCK_RECORD
  5
375
330
1
100
AcDbSymbolTableRecord
100
AcDbBlockTableRecord
  2
BLOCK_117
  0
BLOCK_RECORD
  5
37D
330
1
100
AcDbSymbolTableRecord
100
AcDbBlockTableRecord
  2
BLOCK_118
  0
BLOCK_RECORD
  5
385
330
1
100
AcDbSymbolTableRecord
100
AcDbBlockTableRecord
  2
BLOCK_119
  0
BLOCK_RECORD
  5
38D
330
1
100
AcDbSymbolTableRecord
100
AcDbBlockTableRecord
  2
BLOCK_120
  0
BLOCK_RECORD
  5
395
330
1
100
AcDbSymbolTableRecord
100
AcDbBlockTableRecord
  2
BLOCK_121
  0
BLOCK_RECORD
  5
39D
330
1
100
AcDbSymbolTableRecord
100
AcDbBlockTableRecord
  2
BLOCK_122
  0
BLOCK_RECORD
  5
3A5
330
1
100
AcDbSymbolTableRecord
100
AcDbBlockTableRecord
  2
BLOCK_123
  0
BLOCK_RECORD
  5
3AD
330
1
100
AcDbSymbolTableRecord
100
AcDbBlockTableRecord
  2
BLOCK_124
  0
BLOCK_RECORD
  5
3B5
330
1
100
AcDbSymbolTableRecord
100
AcDbBlockTableRecord
  2
BLOCK_125
  0
BLOCK_RECORD
  5
3BD
330
1
100
AcDbSymbolTableRecord
100
AcDbBlockTableRecord
  2
BLOCK_126
  0
BLOCK_RECORD
  5
3C5
330
1
100
AcDbSymbolTableRecord
100
AcDbBlockTableRecord
  2
BLOCK_127
  0
BLOCK_RECORD
  5
3CD
330
1
100
AcDbSymbolTableRecord
100
AcDbBlockTableRecord
  2
BLOCK_128
  0
BLOCK_RECORD
  5
3D5
330
1
100
AcDbSymbolTableRecord
100
AcDbBlockTableRecord
  2
BLOCK_129
  0
BLOCK_RECORD
  5
3DD
330
1
100
AcDbSymbolTableRecord
100
AcDbBlockTableRecord
  2
BLOCK_130
  0
BLOCK_RECORD
  5
3E5
330
1
100
AcDbSymbolTableRecord
100
AcDbBlockTableRecord
  2
BLOCK_131
  0
BLOCK_RECORD
  5
3ED
330
1
100
AcDbSymbolTableRecord
100
AcDbBlockTableRecord
  2
BLOCK_132
  0
BLOCK_RECORD
  5
3F5
330
1
100
AcDbSymbolTableRecord
100
AcDbBlockTableRecord
  2
BLOCK_133
  0
BLOCK_RECORD
  5
3FD
330
1
100
AcDbSymbolTableRecord
100
AcDbBlockTableRecord
  2
BLOCK_134
  0
BLOCK_RECORD
  5
405
330
1
100
AcDbSymbolTableRecord
100
AcDbBlockTableRecord
  2
BLOCK_135
  0
BLOCK_RECORD
  5
40D
330
1
100
AcDbSymbolTableRecord
100
AcDbBlockTableRecord
  2
BLOCK_136
  0
BLOCK_RECORD
  5
418
330
1
100
AcDbSymbolTableRecord
100
AcDbBlockTableRecord
  2
BLOCK_137
  0
BLOCK_RECORD
  5
423
330
1
100
AcDbSymbolTableRecord
100
AcDbBlockTableRecord
  2
BLOCK_138
  0
BLOCK_RECORD
  5
428
330
1
100
AcDbSymbolTableRecord
100
AcDbBlockTableRecord
  2
BLOCK_139
  0
BLOCK_RECORD
  5
430
330
1
100
AcDbSymbolTableRecord
100
AcDbBlockTableRecord
  2
BLOCK_140
  0
BLOCK_RECORD
  5
438
330
1
100
AcDbSymbolTableRecord
100
AcDbBlockTableRecord
  2
BLOCK_141
  0
BLOCK_RECORD
  5
440
330
1
100
AcDbSymbolTableRecord
100
AcDbBlockTableRecord
  2
BLOCK_142
  0
BLOCK_RECORD
  5
447
330
1
100
AcDbSymbolTableRecord
100
AcDbBlockTableRecord
  2
BLOCK_143
  0
BLOCK_RECORD
  5
44F
330
1
100
AcDbSymbolTableRecord
100
AcDbBlockTableRecord
  2
BLOCK_144
  0
BLOCK_RECORD
  5
45A
330
1
100
AcDbSymbolTableRecord
100
AcDbBlockTableRecord
  2
BLOCK_145
  0
BLOCK_RECORD
  5
465
330
1
100
AcDbSymbolTableRecord
100
AcDbBlockTableRecord
  2
BLOCK_146
  0
BLOCK_RECORD
  5
46D
330
1
100
AcDbSymbolTableRecord
100
AcDbBlockTableRecord
  2
BLOCK_147
  0
BLOCK_RECORD
  5
475
330
1
100
AcDbSymbolTableRecord
100
AcDbBlockTableRecord
  2
BLOCK_148
  0
BLOCK_RECORD
  5
47A
330
1
100
AcDbSymbolTableRecord
100
AcDbBlockTableRecord
  2
BLOCK_149
  0
BLOCK_RECORD
  5
482
330
1
100
AcDbSymbolTableRecord
100
AcDbBlockTableRecord
  2
BLOCK_150
  0
BLOCK_RECORD
  5
48D
330
1
100
AcDbSymbolTableRecord
100
AcDbBlockTableRecord
  2
BLOCK_151
  0
BLOCK_RECORD
  5
492
330
1
100
AcDbSymbolTableRecord
100
AcDbBlockTableRecord
  2
BLOCK_152
  0
BLOCK_RECORD
  5
49A
330
1
100
AcDbSymbolTableRecord
100
AcDbBlockTableRecord
  2
BLOCK_153
  0
BLOCK_RECORD
  5
4A2
330
1
100
AcDbSymbolTableRecord
100
AcDbBlockTableRecord
  2
BLOCK_154
  0
BLOCK_RECORD
  5
4A7
330
1
100
AcDbSymbolTableRecord
100
AcDbBlockTableRecord
  2
BLOCK_155
  0
BLOCK_RECORD
  5
4AF
330
1
100
AcDbSymbolTableRecord
100
AcDbBlockTableRecord
  2
BLOCK_156
  0
BLOCK_RECORD
  5
4BA
330
1
100
AcDbSymbolTableRecord
100
AcDbBlockTableRecord
  2
BLOCK_157
  0
BLOCK_RECORD
  5
4BF
330
1
100
AcDbSymbolTableRecord
100
AcDbBlockTableRecord
  2
BLOCK_158
  0
BLOCK_RECORD
  5
4C7
330
1
100
AcDbSymbolTableRecord
100
AcDbBlockTableRecord
  2
BLOCK_159
  0
BLOCK_RECORD
  5
4CF
330
1
100
AcDbSymbolTableRecord
100
AcDbBlockTableRecord
  2
BLOCK_160
  0
BLOCK_RECORD
  5
4D7
330
1
100
AcDbSymbolTableRecord
100
AcDbBlockTableRecord
  2
BLOCK_161
  0
BLOCK_RECORD
  5
4E2
330
1
100
AcDbSymbolTableRecord
100
AcDbBlockTableRecord
  2
BLOCK_162
  0
BLOCK_RECORD
  5
4ED
330
1
100
AcDbSymbolTableRecord
100
AcDbBlockTableRecord
  2
BLOCK_163
  0
BLOCK_RECORD
  5
4F2
330
1
100
AcDbSymbolTableRecord
100
AcDbBlockTableRecord
  2
BLOCK_164
  0
BLOCK_RECORD
  5
4FA
330
1
100
AcDbSymbolTableRecord
100
AcDbBlockTableRecord
  2
BLOCK_165
  0
BLOCK_RECORD
  5
502
330
1
100
AcDbSymbolTableRecord
100
AcDbBlockTableRecord
  2
BLOCK_166
  0
BLOCK_RECORD
  5
50A
330
1
100
AcDbSymbolTableRecord
100
AcDbBlockTableRecord
  2
BLOCK_167
  0
BLOCK_RECORD
  5
515
330
1
100
AcDbSymbolTableRecord
100
AcDbBlockTableRecord
  2
BLOCK_168
  0
BLOCK_RECORD
  5
520
330
1
100
AcDbSymbolTableRecord
100
AcDbBlockTableRecord
  2
BLOCK_169
  0
BLOCK_RECORD
  5
525
330
1
100
AcDbSymbolTableRecord
100
AcDbBlockTableRecord
  2
BLOCK_170
  0
BLOCK_RECORD
  5
52D
330
1
100
AcDbSymbolTableRecord
100
AcDbBlockTableRecord
  2
BLOCK_171
  0
BLOCK_RECORD
  5
535
330
1
100
AcDbSymbolTableRecord
100
AcDbBlockTableRecord
  2
BLOCK_172
  0
BLOCK_RECORD
  5
53D
330
1
100
AcDbSymbolTableRecord
100
AcDbBlockTableRecord
  2
BLOCK_173
  0
BLOCK_RECORD
  5
548
330
1
100
AcDbSymbolTableRecord
100
AcDbBlockTableRecord
  2
BLOCK_174
  0
BLOCK_RECORD
  5
553
330
1
100
AcDbSymbolTableRecord
100
AcDbBlockTableRecord
  2
BLOCK_175
  0
BLOCK_RECORD
  5
558
330
1
100
AcDbSymbolTableRecord
100
AcDbBlockTableRecord
  2
BLOCK_176
  0
BLOCK_RECORD
  5
560
330
1
100
AcDbSymbolTableRecord
100
AcDbBlockTableRecord
  2
BLOCK_177
  0
BLOCK_RECORD
  5
568
330
1
100
AcDbSymbolTableRecord
100
AcDbBlockTableRecord
  2
BLOCK_178
  0
BLOCK_RECORD
  5
570
330
1
100
AcDbSymbolTableRecord
100
AcDbBlockTableRecord
  2
BLOCK_179
  0
BLOCK_RECORD
  5
57B
330
1
100
AcDbSymbolTableRecord
100
AcDbBlockTableRecord
  2
BLOCK_180
  0
BLOCK_RECORD
  5
586
330
1
100
AcDbSymbolTableRecord
100
AcDbBlockTableRecord
  2
BLOCK_181
  0
BLOCK_RECORD
  5
58B
330
1
100
AcDbSymbolTableRecord
100
AcDbBlockTableRecord
  2
BLOCK_182
  0
BLOCK_RECORD
  5
593
330
1
100
AcDbSymbolTableRecord
100
AcDbBlockTableRecord
  2
BLOCK_183
  0
BLOCK_RECORD
  5
59B
330
1
100
AcDbSymbolTableRecord
100
AcDbBlockTableRecord
  2
BLOCK_184
  0
BLOCK_RECORD
  5
5A3
330
1
100
AcDbSymbolTableRecord
100
AcDbBlockTableRecord
  2
BLOCK_185
  0
BLOCK_RECORD
  5
5AB
330
1
100
AcDbSymbolTableRecord
100
AcDbBlockTableRecord
  2
BLOCK_186
  0
BLOCK_RECORD
  5
5B6
330
1
100
AcDbSymbolTableRecord
100
AcDbBlockTableRecord
  2
BLOCK_187
  0
BLOCK_RECORD
  5
5C1
330
1
100
AcDbSymbolTableRecord
100
AcDbBlockTableRecord
  2
BLOCK_188
  0
BLOCK_RECORD
  5
5C8
330
1
100
AcDbSymbolTableRecord
100
AcDbBlockTableRecord
  2
BLOCK_189
  0
BLOCK_RECORD
  5
5D0
330
1
100
AcDbSymbolTableRecord
100
AcDbBlockTableRecord
  2
BLOCK_190
  0
BLOCK_RECORD
  5
5D8
330
1
100
AcDbSymbolTableRecord
100
AcDbBlockTableRecord
  2
BLOCK_191
  0
BLOCK_RECORD
  5
5E0
330
1
100
AcDbSymbolTableRecord
100
AcDbBlockTableRecord
  2
BLOCK_192
  0
BLOCK_RECORD
  5
5EB
330
1
100
AcDbSymbolTableRecord
100
AcDbBlockTableRecord
  2
BLOCK_193
  0
BLOCK_RECORD
  5
5F6
330
1
100
AcDbSymbolTableRecord
100
AcDbBlockTableRecord
  2
BLOCK_194
  0
BLOCK_RECORD
  5
5FB
330
1
100
AcDbSymbolTableRecord
100
AcDbBlockTableRecord
  2
BLOCK_195
  0
BLOCK_RECORD
  5
604
330
1
100
AcDbSymbolTableRecord
100
AcDbBlockTableRecord
  2
BLOCK_196
  0
BLOCK_RECORD
  5
60D
330
1
100
AcDbSymbolTableRecord
100
AcDbBlockTableRecord
  2
BLOCK_197
  0
BLOCK_RECORD
  5
616
330
1
100
AcDbSymbolTableRecord
100
AcDbBlockTableRecord
  2
BLOCK_198
  0
BLOCK_RECORD
  5
61F
330
1
100
AcDbSymbolTableRecord
100
AcDbBlockTableRecord
  2
BLOCK_199
  0
BLOCK_RECORD
  5
627
330
1
100
AcDbSymbolTableRecord
100
AcDbBlockTableRecord
  2
BLOCK_200
  0
BLOCK_RECORD
  5
62F
330
1
100
AcDbSymbolTableRecord
100
AcDbBlockTableRecord
  2
BLOCK_201
  0
BLOCK_RECORD
  5
637
330
1
100
AcDbSymbolTableRecord
100
AcDbBlockTableRecord
  2
BLOCK_202
  0
BLOCK_RECORD
  5
63C
330
1
100
AcDbSymbolTableRecord
100
AcDbBlockTableRecord
  2
BLOCK_203
  0
BLOCK_RECORD
  5
644
330
1
100
AcDbSymbolTableRecord
100
AcDbBlockTableRecord
  2
BLOCK_204
  0
BLOCK_RECORD
  5
64F
330
1
100
AcDbSymbolTableRecord
100
AcDbBlockTableRecord
  2
BLOCK_205
  0
BLOCK_RECORD
  5
669
330
1
100
AcDbSymbolTableRecord
100
AcDbBlockTableRecord
  2
*U205
  0
BLOCK_RECORD
  5
66C
330
1
100
AcDbSymbolTableRecord
100
AcDbBlockTableRecord
  2
*U206
  0
BLOCK_RECORD
  5
66F
330
1
100
AcDbSymbolTableRecord
100
AcDbBlockTableRecord
  2
*U207
  0
BLOCK_RECORD
  5
672
330
1
100
AcDbSymbolTableRecord
100
AcDbBlockTableRecord
  2
*U208
  0
BLOCK_RECORD
  5
675
330
1
100
AcDbSymbolTableRecord
100
AcDbBlockTableRecord
  2
*U209
  0
BLOCK_RECORD
  5
678
330
1
100
AcDbSymbolTableRecord
100
AcDbBlockTableRecord
  2
*U210
  0
BLOCK_RECORD
  5
67B
330
1
100
AcDbSymbolTableRecord
100
AcDbBlockTableRecord
  2
*U211
  0
BLOCK_RECORD
  5
67E
330
1
100
AcDbSymbolTableRecord
100
AcDbBlockTableRecord
  2
*U212
  0
BLOCK_RECORD
  5
681
330
1
100
AcDbSymbolTableRecord
100
AcDbBlockTableRecord
  2
*U213
  0
BLOCK_RECORD
  5
684
330
1
100
AcDbSymbolTableRecord
100
AcDbBlockTableRecord
  2
*U214
  0
BLOCK_RECORD
  5
687
330
1
100
AcDbSymbolTableRecord
100
AcDbBlockTableRecord
  2
*U215
  0
BLOCK_RECORD
  5
689
330
1
100
AcDbSymbolTableRecord
100
AcDbBlockTableRecord
  2
*U216
  0
BLOCK_RECORD
  5
68B
330
1
100
AcDbSymbolTableRecord
100
AcDbBlockTableRecord
  2
*U217
  0
BLOCK_RECORD
  5
68D
330
1
100
AcDbSymbolTableRecord
100
AcDbBlockTableRecord
  2
*U218
  0
BLOCK_RECORD
  5
68F
330
1
100
AcDbSymbolTableRecord
100
AcDbBlockTableRecord
  2
*U219
  0
BLOCK_RECORD
  5
691
330
1
100
AcDbSymbolTableRecord
100
AcDbBlockTableRecord
  2
*U220
  0
BLOCK_RECORD
  5
693
330
1
100
AcDbSymbolTableRecord
100
AcDbBlockTableRecord
  2
*U221
  0
BLOCK_RECORD
  5
696
330
1
100
AcDbSymbolTableRecord
100
AcDbBlockTableRecord
  2
*U222
  0
BLOCK_RECORD
  5
699
330
1
100
AcDbSymbolTableRecord
100
AcDbBlockTableRecord
  2
*U223
  0
ENDTAB
  0
ENDSEC
  0
SECTION
  2
BLOCKS
  0
BLOCK
  5
20
330
1F
100
AcDbEntity
  8
0
100
AcDbBlockBegin
  2
*MODEL_SPACE
 70
     0
 10
0.0
 20
0.0
 30
0.0
  3
*MODEL_SPACE
  1

  0
ENDBLK
  5
21
330
1F
100
AcDbEntity
  8
0
100
AcDbBlockEnd
  0
BLOCK
  5
1C
330
1B
100
AcDbEntity
 67
     1
  8
0
100
AcDbBlockBegin
  2
*PAPER_SPACE
 70
     0
 10
0.0
 20
0.0
 30
0.0
  3
*PAPER_SPACE
  1

  0
ENDBLK
  5
1D
330
1B
100
AcDbEntity
 67
     1
  8
0
100
AcDbBlockEnd
  0
BLOCK
  5
44
330
42
100
AcDbEntity
  8
0
100
AcDbBlockBegin
  2
BLOCK_2
 70
     0
 10
0.0
 20
0.0
 30
0.0
  3
BLOCK_2
  1

  0
POLYLINE
  5
46
330
42
100
AcDbEntity
  8
0
 62
     7
100
AcDb2dPolyline
 66
     1
 10
0.0
 20
0.0
 30
0.0
  0
VERTEX
  5
47
330
46
100
AcDbEntity
  8
0
 62
     7
100
AcDbVertex
100
AcDb2dVertex
 10
-173.5865272864218
 20
397.6591281691837
 30
0.0
  0
VERTEX
  5
48
330
46
100
AcDbEntity
  8
0
 62
     7
100
AcDbVertex
100
AcDb2dVertex
 10
-56.93964912530769
 20
397.6591281691837
 30
0.0
  0
SEQEND
  5
49
330
46
100
AcDbEntity
  8
0
 62
     7
  0
ENDBLK
  5
45
330
42
100
AcDbEntity
  8
0
100
AcDbBlockEnd
  0
BLOCK
  5
4C
330
4A
100
AcDbEntity
  8
0
100
AcDbBlockBegin
  2
BLOCK_3
 70
     0
 10
0.0
 20
0.0
 30
0.0
  3
BLOCK_3
  1

  0
POLYLINE
  5
4E
330
4A
100
AcDbEntity
  8
0
 62
     7
100
AcDb2dPolyline
 66
     1
 10
0.0
 20
0.0
 30
0.0
  0
VERTEX
  5
4F
330
4E
100
AcDbEntity
  8
0
 62
     7
100
AcDbVertex
100
AcDb2dVertex
 10
-70.05749724901418
 20
392.7294008110997
 30
0.0
  0
VERTEX
  5
50
330
4E
100
AcDbEntity
  8
0
 62
     7
100
AcDbVertex
100
AcDb2dVertex
 10
-70.00514787826208
 20
391.2303109711441
 30
0.0
  0
SEQEND
  5
51
330
4E
100
AcDbEntity
  8
0
 62
     7
  0
ENDBLK
  5
4D
330
4A
100
AcDbEntity
  8
0
100
AcDbBlockEnd
  0
BLOCK
  5
54
330
52
100
AcDbEntity
  8
0
100
AcDbBlockBegin
  2
BLOCK_4
 70
     0
 10
0.0
 20
0.0
 30
0.0
  3
BLOCK_4
  1

  0
POLYLINE
  5
56
330
52
100
AcDbEntity
  8
0
 62
     7
100
AcDb2dPolyline
 66
     1
 10
0.0
 20
0.0
 30
0.0
  0
VERTEX
  5
57
330
56
100
AcDbEntity
  8
0
 62
     7
100
AcDbVertex
100
AcDb2dVertex
 10
265.9456540910753
 20
658.7130415117095
 30
0.0
  0
VERTEX
  5
58
330
56
100
AcDbEntity
  8
0
 62
     7
100
AcDbVertex
100
AcDb2dVertex
 10
265.945654091047
 20
418.7054597470989
 30
0.0
  0
SEQEND
  5
59
330
56
100
AcDbEntity
  8
0
 62
     7
  0
ENDBLK
  5
55
330
52
100
AcDbEntity
  8
0
100
AcDbBlockEnd
  0
BLOCK
  5
5C
330
5A
100
AcDbEntity
  8
0
100
AcDbBlockBegin
  2
BLOCK_5
 70
     0
 10
0.0
 20
0.0
 30
0.0
  3
BLOCK_5
  1

  0
POLYLINE
  5
5E
330
5A
100
AcDbEntity
  8
0
 62
     7
100
AcDb2dPolyline
 66
     1
 10
0.0
 20
0.0
 30
0.0
  0
VERTEX
  5
5F
330
5E
100
AcDbEntity
  8
0
 62
     7
100
AcDbVertex
100
AcDb2dVertex
 10
267.4456576926904
 20
658.7130415117095
 30
0.0
  0
VERTEX
  5
60
330
5E
100
AcDbEntity
  8
0
 62
     7
100
AcDbVertex
100
AcDb2dVertex
 10
267.4456576926647
 20
418.7054597470989
 30
0.0
  0
SEQEND
  5
61
330
5E
100
AcDbEntity
  8
0
 62
     7
  0
ENDBLK
  5
5D
330
5A
100
AcDbEntity
  8
0
100
AcDbBlockEnd
  0
BLOCK
  5
64
330
62
100
AcDbEntity
  8
0
100
AcDbBlockBegin
  2
BLOCK_6
 70
     0
 10
0.0
 20
0.0
 30
0.0
  3
BLOCK_6
  1

  0
POLYLINE
  5
66
330
62
100
AcDbEntity
  8
0
 62
     7
100
AcDb2dPolyline
 66
     1
 10
0.0
 20
0.0
 30
0.0
  0
VERTEX
  5
67
330
66
100
AcDbEntity
  8
0
 62
     7
100
AcDbVertex
100
AcDb2dVertex
 10
256.2946258852804
 20
408.711527480769
 30
0.0
  0
VERTEX
  5
68
330
66
100
AcDbEntity
  8
0
 62
     7
100
AcDbVertex
100
AcDb2dVertex
 10
-55.87726683509
 20
397.7386570238722
 30
0.0
  0
SEQEND
  5
69
330
66
100
AcDbEntity
  8
0
 62
     7
  0
ENDBLK
  5
65
330
62
100
AcDbEntity
  8
0
100
AcDbBlockEnd
  0
BLOCK
  5
6C
330
6A
100
AcDbEntity
  8
0
100
AcDbBlockBegin
  2
BLOCK_7
 70
     0
 10
0.0
 20
0.0
 30
0.0
  3
BLOCK_7
  1

  0
SPLINE
  5
6E
330
6A
100
AcDbEntity
  8
0
 62
     7
100
AcDbSpline
210
0.0
220
0.0
230
1.0
 70
     8
 71
     3
 72
     8
 73
     4
 74
     0
 42
0.0000000001
 43
0.0000000001
 12
1.0
 22
0.0
 32
0.0
 13
1.0
 23
0.0
 33
0.0
 40
0.0
 40
0.0
 40
0.0
 40
0.0
 40
1.0
 40
1.0
 40
1.0
 40
1.0
 10
256.2946258853009
 20
408.711527480769
 30
0.0
 10
261.6783735317028
 20
408.8995320913418
 30
0.0
 10
265.945654091047
 20
413.3184304680033
 30
0.0
 10
265.945654091047
 20
418.7054597470989
 30
0.0
  0
ENDBLK
  5
6D
330
6A
100
AcDbEntity
  8
0
100
AcDbBlockEnd
  0
BLOCK
  5
71
330
6F
100
AcDbEntity
  8
0
100
AcDbBlockBegin
  2
BLOCK_8
 70
     0
 10
0.0
 20
0.0
 30
0.0
  3
BLOCK_8
  1

  0
SPLINE
  5
73
330
6F
100
AcDbEntity
  8
0
 62
     7
100
AcDbSpline
210
0.0
220
0.0
230
1.0
 70
     8
 71
     3
 72
     8
 73
     4
 74
     0
 42
0.0000000001
 43
0.0000000001
 12
1.0
 22
0.0
 32
0.0
 13
1.0
 23
0.0
 33
0.0
 40
0.0
 40
0.0
 40
0.0
 40
0.0
 40
1.0
 40
1.0
 40
1.0
 40
1.0
 10
-55.87726683509
 20
397.7386570238722
 30
0.0
 10
-56.95401634426724
 20
397.7010561024553
 30
0.0
 10
-57.80747244828836
 20
396.8172764581817
 30
0.0
 10
-57.80747247623564
 20
395.7398706224816
 30
0.0
  0
ENDBLK
  5
72
330
6F
100
AcDbEntity
  8
0
100
AcDbBlockEnd
  0
BLOCK
  5
76
330
74
100
AcDbEntity
  8
0
100
AcDbBlockBegin
  2
BLOCK_9
 70
     0
 10
0.0
 20
0.0
 30
0.0
  3
BLOCK_9
  1

  0
POLYLINE
  5
78
330
74
100
AcDbEntity
  8
0
 62
     7
100
AcDb2dPolyline
 66
     1
 10
0.0
 20
0.0
 30
0.0
  0
VERTEX
  5
79
330
78
100
AcDbEntity
  8
0
 62
     7
100
AcDbVertex
100
AcDb2dVertex
 10
-57.80747247623564
 20
395.7398706224816
 30
0.0
  0
VERTEX
  5
7A
330
78
100
AcDbEntity
  8
0
 62
     7
100
AcDbVertex
100
AcDb2dVertex
 10
-57.80747251817452
 20
394.1228721685706
 30
0.0
  0
SEQEND
  5
7B
330
78
100
AcDbEntity
  8
0
 62
     7
  0
ENDBLK
  5
77
330
74
100
AcDbEntity
  8
0
100
AcDbBlockEnd
  0
BLOCK
  5
7E
330
7C
100
AcDbEntity
  8
0
100
AcDbBlockBegin
  2
BLOCK_10
 70
     0
 10
0.0
 20
0.0
 30
0.0
  3
BLOCK_10
  1

  0
SPLINE
  5
80
330
7C
100
AcDbEntity
  8
0
 62
     7
100
AcDbSpline
210
0.0
220
0.0
230
1.0
 70
     8
 71
     3
 72
     8
 73
     4
 74
     0
 42
0.0000000001
 43
0.0000000001
 12
1.0
 22
0.0
 32
0.0
 13
1.0
 23
0.0
 33
0.0
 40
0.0
 40
0.0
 40
0.0
 40
0.0
 40
1.0
 40
1.0
 40
1.0
 40
1.0
 10
-58.80686572869034
 20
393.122281521068
 30
0.0
 10
-58.25860413309551
 20
393.1321798303808
 30
0.0
 10
-57.81671430662213
 20
393.5745991133474
 30
0.0
 10
-57.80747251819248
 20
394.1228721685706
 30
0.0
  0
ENDBLK
  5
7F
330
7C
100
AcDbEntity
  8
0
100
AcDbBlockEnd
  0
BLOCK
  5
83
330
81
100
AcDbEntity
  8
0
100
AcDbBlockBegin
  2
BLOCK_11
 70
     0
 10
0.0
 20
0.0
 30
0.0
  3
BLOCK_11
  1

  0
POLYLINE
  5
85
330
81
100
AcDbEntity
  8
0
 62
     7
100
AcDb2dPolyline
 66
     1
 10
0.0
 20
0.0
 30
0.0
  0
VERTEX
  5
86
330
85
100
AcDbEntity
  8
0
 62
     7
100
AcDbVertex
100
AcDb2dVertex
 10
-58.80686572869034
 20
393.122281521068
 30
0.0
  0
VERTEX
  5
87
330
85
100
AcDbEntity
  8
0
 62
     7
100
AcDbVertex
100
AcDb2dVertex
 10
-70.05749724901418
 20
392.7294008110997
 30
0.0
  0
SEQEND
  5
88
330
85
100
AcDbEntity
  8
0
 62
     7
  0
ENDBLK
  5
84
330
81
100
AcDbEntity
  8
0
100
AcDbBlockEnd
  0
BLOCK
  5
8B
330
89
100
AcDbEntity
  8
0
100
AcDbBlockBegin
  2
BLOCK_12
 70
     0
 10
0.0
 20
0.0
 30
0.0
  3
BLOCK_12
  1

  0
POLYLINE
  5
8D
330
89
100
AcDbEntity
  8
0
 62
     7
100
AcDb2dPolyline
 66
     1
 10
0.0
 20
0.0
 30
0.0
  0
VERTEX
  5
8E
330
8D
100
AcDbEntity
  8
0
 62
     7
100
AcDbVertex
100
AcDb2dVertex
 10
256.3469752560273
 20
407.2124376408238
 30
0.0
  0
VERTEX
  5
8F
330
8D
100
AcDbEntity
  8
0
 62
     7
100
AcDbVertex
100
AcDb2dVertex
 10
-55.82491746433278
 20
396.2395671839192
 30
0.0
  0
SEQEND
  5
90
330
8D
100
AcDbEntity
  8
0
 62
     7
  0
ENDBLK
  5
8C
330
89
100
AcDbEntity
  8
0
100
AcDbBlockEnd
  0
BLOCK
  5
93
330
91
100
AcDbEntity
  8
0
100
AcDbBlockBegin
  2
BLOCK_13
 70
     0
 10
0.0
 20
0.0
 30
0.0
  3
BLOCK_13
  1

  0
SPLINE
  5
95
330
91
100
AcDbEntity
  8
0
 62
     7
100
AcDbSpline
210
0.0
220
0.0
230
1.0
 70
     8
 71
     3
 72
     8
 73
     4
 74
     0
 42
0.0000000001
 43
0.0000000001
 12
1.0
 22
0.0
 32
0.0
 13
1.0
 23
0.0
 33
0.0
 40
0.0
 40
0.0
 40
0.0
 40
0.0
 40
1.0
 40
1.0
 40
1.0
 40
1.0
 10
256.3469752560581
 20
407.2124376408238
 30
0.0
 10
262.5382850494267
 20
407.4286429429899
 30
0.0
 10
267.4456576926647
 20
412.5103760761394
 30
0.0
 10
267.4456576926647
 20
418.7054597470989
 30
0.0
  0
ENDBLK
  5
94
330
91
100
AcDbEntity
  8
0
100
AcDbBlockEnd
  0
BLOCK
  5
98
330
96
100
AcDbEntity
  8
0
100
AcDbBlockBegin
  2
BLOCK_14
 70
     0
 10
0.0
 20
0.0
 30
0.0
  3
BLOCK_14
  1

  0
SPLINE
  5
9A
330
96
100
AcDbEntity
  8
0
 62
     7
100
AcDbSpline
210
0.0
220
0.0
230
1.0
 70
     8
 71
     3
 72
     8
 73
     4
 74
     0
 42
0.0000000001
 43
0.0000000001
 12
1.0
 22
0.0
 32
0.0
 13
1.0
 23
0.0
 33
0.0
 40
0.0
 40
0.0
 40
0.0
 40
0.0
 40
1.0
 40
1.0
 40
1.0
 40
1.0
 10
-55.82491746433278
 20
396.2395671839192
 30
0.0
 10
-56.09410484162324
 20
396.2301669535695
 30
0.0
 10
-56.30746886763365
 20
396.0092220424902
 30
0.0
 10
-56.30746887462304
 20
395.7398705835741
 30
0.0
  0
ENDBLK
  5
99
330
96
100
AcDbEntity
  8
0
100
AcDbBlockEnd
  0
BLOCK
  5
9D
330
9B
100
AcDbEntity
  8
0
100
AcDbBlockBegin
  2
BLOCK_15
 70
     0
 10
0.0
 20
0.0
 30
0.0
  3
BLOCK_15
  1

  0
POLYLINE
  5
9F
330
9B
100
AcDbEntity
  8
0
 62
     7
100
AcDb2dPolyline
 66
     1
 10
0.0
 20
0.0
 30
0.0
  0
VERTEX
  5
A0
330
9F
100
AcDbEntity
  8
0
 62
     7
100
AcDbVertex
100
AcDb2dVertex
 10
-56.30746887462304
 20
395.7398705835741
 30
0.0
  0
VERTEX
  5
A1
330
9F
100
AcDbEntity
  8
0
 62
     7
100
AcDbVertex
100
AcDb2dVertex
 10
-56.30746891682887
 20
394.1130453054409
 30
0.0
  0
SEQEND
  5
A2
330
9F
100
AcDbEntity
  8
0
 62
     7
  0
ENDBLK
  5
9E
330
9B
100
AcDbEntity
  8
0
100
AcDbBlockEnd
  0
BLOCK
  5
A5
330
A3
100
AcDbEntity
  8
0
100
AcDbBlockBegin
  2
BLOCK_16
 70
     0
 10
0.0
 20
0.0
 30
0.0
  3
BLOCK_16
  1

  0
SPLINE
  5
A7
330
A3
100
AcDbEntity
  8
0
 62
     7
100
AcDbSpline
210
0.0
220
0.0
230
1.0
 70
     8
 71
     3
 72
     8
 73
     4
 74
     0
 42
0.0000000001
 43
0.0000000001
 12
1.0
 22
0.0
 32
0.0
 13
1.0
 23
0.0
 33
0.0
 40
0.0
 40
0.0
 40
0.0
 40
0.0
 40
1.0
 40
1.0
 40
1.0
 40
1.0
 10
-58.76433719590914
 20
391.6228487298839
 30
0.0
 10
-57.40832872005276
 20
391.6556572288933
 30
0.0
 10
-56.32200445238894
 20
392.7567178735801
 30
0.0
 10
-56.30746891682887
 20
394.1130453054409
 30
0.0
  0
ENDBLK
  5
A6
330
A3
100
AcDbEntity
  8
0
100
AcDbBlockEnd
  0
BLOCK
  5
AA
330
A8
100
AcDbEntity
  8
0
100
AcDbBlockBegin
  2
BLOCK_17
 70
     0
 10
0.0
 20
0.0
 30
0.0
  3
BLOCK_17
  1

  0
POLYLINE
  5
AC
330
A8
100
AcDbEntity
  8
0
 62
     7
100
AcDb2dPolyline
 66
     1
 10
0.0
 20
0.0
 30
0.0
  0
VERTEX
  5
AD
330
AC
100
AcDbEntity
  8
0
 62
     7
100
AcDbVertex
100
AcDb2dVertex
 10
-58.76433719593738
 20
391.622848729889
 30
0.0
  0
VERTEX
  5
AE
330
AC
100
AcDbEntity
  8
0
 62
     7
100
AcDbVertex
100
AcDb2dVertex
 10
-70.00514787826208
 20
391.2303109711441
 30
0.0
  0
SEQEND
  5
AF
330
AC
100
AcDbEntity
  8
0
 62
     7
  0
ENDBLK
  5
AB
330
A8
100
AcDbEntity
  8
0
100
AcDbBlockEnd
  0
BLOCK
  5
B2
330
B0
100
AcDbEntity
  8
0
100
AcDbBlockBegin
  2
BLOCK_18
 70
     0
 10
0.0
 20
0.0
 30
0.0
  3
BLOCK_18
  1

  0
POLYLINE
  5
B4
330
B0
100
AcDbEntity
  8
0
 62
     7
100
AcDb2dPolyline
 66
     1
 10
0.0
 20
0.0
 30
0.0
  0
VERTEX
  5
B5
330
B4
100
AcDbEntity
  8
0
 62
     7
100
AcDbVertex
100
AcDb2dVertex
 10
-160.0530241900253
 20
392.7294008111074
 30
0.0
  0
VERTEX
  5
B6
330
B4
100
AcDbEntity
  8
0
 62
     7
100
AcDbVertex
100
AcDb2dVertex
 10
-70.05749724901418
 20
392.7294008110997
 30
0.0
  0
SEQEND
  5
B7
330
B4
100
AcDbEntity
  8
0
 62
     7
  0
ENDBLK
  5
B3
330
B0
100
AcDbEntity
  8
0
100
AcDbBlockEnd
  0
BLOCK
  5
BA
330
B8
100
AcDbEntity
  8
0
100
AcDbBlockBegin
  2
BLOCK_19
 70
     0
 10
0.0
 20
0.0
 30
0.0
  3
BLOCK_19
  1

  0
POLYLINE
  5
BC
330
B8
100
AcDbEntity
  8
0
 62
     7
100
AcDb2dPolyline
 66
     1
 10
0.0
 20
0.0
 30
0.0
  0
VERTEX
  5
BD
330
BC
100
AcDbEntity
  8
0
 62
     7
100
AcDbVertex
100
AcDb2dVertex
 10
-160.0530241896275
 20
392.7294008110997
 30
0.0
  0
VERTEX
  5
BE
330
BC
100
AcDbEntity
  8
0
 62
     7
100
AcDbVertex
100
AcDb2dVertex
 10
-160.1053735603744
 20
391.2303109711441
 30
0.0
  0
SEQEND
  5
BF
330
BC
100
AcDbEntity
  8
0
 62
     7
  0
ENDBLK
  5
BB
330
B8
100
AcDbEntity
  8
0
100
AcDbBlockEnd
  0
BLOCK
  5
C2
330
C0
100
AcDbEntity
  8
0
100
AcDbBlockBegin
  2
BLOCK_20
 70
     0
 10
0.0
 20
0.0
 30
0.0
  3
BLOCK_20
  1

  0
SPLINE
  5
C4
330
C0
100
AcDbEntity
  8
0
 62
     7
100
AcDbSpline
210
0.0
220
0.0
230
1.0
 70
     8
 71
     3
 72
     8
 73
     4
 74
     0
 42
0.0000000001
 43
0.0000000001
 12
1.0
 22
0.0
 32
0.0
 13
1.0
 23
0.0
 33
0.0
 40
0.0
 40
0.0
 40
0.0
 40
0.0
 40
1.0
 40
1.0
 40
1.0
 40
1.0
 10
-172.303048962406
 20
395.7398706224714
 30
0.0
 10
-172.303048990343
 20
396.8172764581817
 30
0.0
 10
-173.1565050943667
 20
397.7010561024553
 30
0.0
 10
-174.2332546035465
 20
397.7386570238722
 30
0.0
  0
ENDBLK
  5
C3
330
C0
100
AcDbEntity
  8
0
100
AcDbBlockEnd
  0
BLOCK
  5
C7
330
C5
100
AcDbEntity
  8
0
100
AcDbBlockBegin
  2
BLOCK_21
 70
     0
 10
0.0
 20
0.0
 30
0.0
  3
BLOCK_21
  1

  0
POLYLINE
  5
C9
330
C5
100
AcDbEntity
  8
0
 62
     7
100
AcDb2dPolyline
 66
     1
 10
0.0
 20
0.0
 30
0.0
  0
VERTEX
  5
CA
330
C9
100
AcDbEntity
  8
0
 62
     7
100
AcDbVertex
100
AcDb2dVertex
 10
-172.303048962406
 20
395.7398706224816
 30
0.0
  0
VERTEX
  5
CB
330
C9
100
AcDbEntity
  8
0
 62
     7
100
AcDbVertex
100
AcDb2dVertex
 10
-172.3030489204337
 20
394.1228721685706
 30
0.0
  0
SEQEND
  5
CC
330
C9
100
AcDbEntity
  8
0
 62
     7
  0
ENDBLK
  5
C8
330
C5
100
AcDbEntity
  8
0
100
AcDbBlockEnd
  0
BLOCK
  5
CF
330
CD
100
AcDbEntity
  8
0
100
AcDbBlockBegin
  2
BLOCK_22
 70
     0
 10
0.0
 20
0.0
 30
0.0
  3
BLOCK_22
  1

  0
SPLINE
  5
D1
330
CD
100
AcDbEntity
  8
0
 62
     7
100
AcDbSpline
210
0.0
220
0.0
230
1.0
 70
     8
 71
     3
 72
     8
 73
     4
 74
     0
 42
0.0000000001
 43
0.0000000001
 12
1.0
 22
0.0
 32
0.0
 13
1.0
 23
0.0
 33
0.0
 40
0.0
 40
0.0
 40
0.0
 40
0.0
 40
1.0
 40
1.0
 40
1.0
 40
1.0
 10
-172.3030489204414
 20
394.1228721685706
 30
0.0
 10
-172.2938071320143
 20
393.5745991133474
 30
0.0
 10
-171.8519173055358
 20
393.1321798303808
 30
0.0
 10
-171.3036557099307
 20
393.122281521068
 30
0.0
  0
ENDBLK
  5
D0
330
CD
100
AcDbEntity
  8
0
100
AcDbBlockEnd
  0
BLOCK
  5
D4
330
D2
100
AcDbEntity
  8
0
100
AcDbBlockBegin
  2
BLOCK_23
 70
     0
 10
0.0
 20
0.0
 30
0.0
  3
BLOCK_23
  1

  0
POLYLINE
  5
D6
330
D2
100
AcDbEntity
  8
0
 62
     7
100
AcDb2dPolyline
 66
     1
 10
0.0
 20
0.0
 30
0.0
  0
VERTEX
  5
D7
330
D6
100
AcDbEntity
  8
0
 62
     7
100
AcDbVertex
100
AcDb2dVertex
 10
-171.3036557099128
 20
393.122281521068
 30
0.0
  0
VERTEX
  5
D8
330
D6
100
AcDbEntity
  8
0
 62
     7
100
AcDbVertex
100
AcDb2dVertex
 10
-160.0530241896275
 20
392.7294008110997
 30
0.0
  0
SEQEND
  5
D9
330
D6
100
AcDbEntity
  8
0
 62
     7
  0
ENDBLK
  5
D5
330
D2
100
AcDbEntity
  8
0
100
AcDbBlockEnd
  0
BLOCK
  5
DC
330
DA
100
AcDbEntity
  8
0
100
AcDbBlockBegin
  2
BLOCK_24
 70
     0
 10
0.0
 20
0.0
 30
0.0
  3
BLOCK_24
  1

  0
SPLINE
  5
DE
330
DA
100
AcDbEntity
  8
0
 62
     7
100
AcDbSpline
210
0.0
220
0.0
230
1.0
 70
     8
 71
     3
 72
     8
 73
     4
 74
     0
 42
0.0000000001
 43
0.0000000001
 12
1.0
 22
0.0
 32
0.0
 13
1.0
 23
0.0
 33
0.0
 40
0.0
 40
0.0
 40
0.0
 40
0.0
 40
1.0
 40
1.0
 40
1.0
 40
1.0
 10
-173.8030525640211
 20
395.7398705835741
 30
0.0
 10
-173.8030525710003
 20
396.0092220424902
 30
0.0
 10
-174.0164165970158
 20
396.2301669535695
 30
0.0
 10
-174.2856039743011
 20
396.2395671839192
 30
0.0
  0
ENDBLK
  5
DD
330
DA
100
AcDbEntity
  8
0
100
AcDbBlockEnd
  0
BLOCK
  5
E1
330
DF
100
AcDbEntity
  8
0
100
AcDbBlockBegin
  2
BLOCK_25
 70
     0
 10
0.0
 20
0.0
 30
0.0
  3
BLOCK_25
  1

  0
POLYLINE
  5
E3
330
DF
100
AcDbEntity
  8
0
 62
     7
100
AcDb2dPolyline
 66
     1
 10
0.0
 20
0.0
 30
0.0
  0
VERTEX
  5
E4
330
E3
100
AcDbEntity
  8
0
 62
     7
100
AcDbVertex
100
AcDb2dVertex
 10
-173.8030525640211
 20
395.7398705835741
 30
0.0
  0
VERTEX
  5
E5
330
E3
100
AcDbEntity
  8
0
 62
     7
100
AcDbVertex
100
AcDb2dVertex
 10
-173.8030525217896
 20
394.1130453054409
 30
0.0
  0
SEQEND
  5
E6
330
E3
100
AcDbEntity
  8
0
 62
     7
  0
ENDBLK
  5
E2
330
DF
100
AcDbEntity
  8
0
100
AcDbBlockEnd
  0
BLOCK
  5
E9
330
E7
100
AcDbEntity
  8
0
100
AcDbBlockBegin
  2
BLOCK_26
 70
     0
 10
0.0
 20
0.0
 30
0.0
  3
BLOCK_26
  1

  0
SPLINE
  5
EB
330
E7
100
AcDbEntity
  8
0
 62
     7
100
AcDbSpline
210
0.0
220
0.0
230
1.0
 70
     8
 71
     3
 72
     8
 73
     4
 74
     0
 42
0.0000000001
 43
0.0000000001
 12
1.0
 22
0.0
 32
0.0
 13
1.0
 23
0.0
 33
0.0
 40
0.0
 40
0.0
 40
0.0
 40
0.0
 40
1.0
 40
1.0
 40
1.0
 40
1.0
 10
-173.8030525217896
 20
394.1130453054409
 30
0.0
 10
-173.7885169862193
 20
392.7567178735647
 30
0.0
 10
-172.7021927185401
 20
391.6556572288728
 30
0.0
 10
-171.3461842426657
 20
391.6228487298839
 30
0.0
  0
ENDBLK
  5
EA
330
E7
100
AcDbEntity
  8
0
100
AcDbBlockEnd
  0
BLOCK
  5
EE
330
EC
100
AcDbEntity
  8
0
100
AcDbBlockBegin
  2
BLOCK_27
 70
     0
 10
0.0
 20
0.0
 30
0.0
  3
BLOCK_27
  1

  0
POLYLINE
  5
F0
330
EC
100
AcDbEntity
  8
0
 62
     7
100
AcDb2dPolyline
 66
     1
 10
0.0
 20
0.0
 30
0.0
  0
VERTEX
  5
F1
330
F0
100
AcDbEntity
  8
0
 62
     7
100
AcDbVertex
100
AcDb2dVertex
 10
-171.3461842427017
 20
391.622848729889
 30
0.0
  0
VERTEX
  5
F2
330
F0
100
AcDbEntity
  8
0
 62
     7
100
AcDbVertex
100
AcDb2dVertex
 10
-160.1053735603744
 20
391.2303109711441
 30
0.0
  0
SEQEND
  5
F3
330
F0
100
AcDbEntity
  8
0
 62
     7
  0
ENDBLK
  5
EF
330
EC
100
AcDbEntity
  8
0
100
AcDbBlockEnd
  0
BLOCK
  5
F6
330
F4
100
AcDbEntity
  8
0
100
AcDbBlockBegin
  2
BLOCK_28
 70
     0
 10
0.0
 20
0.0
 30
0.0
  3
BLOCK_28
  1

  0
POLYLINE
  5
F8
330
F4
100
AcDbEntity
  8
0
 62
     7
100
AcDb2dPolyline
 66
     1
 10
0.0
 20
0.0
 30
0.0
  0
VERTEX
  5
F9
330
F8
100
AcDbEntity
  8
0
 62
     7
100
AcDbVertex
100
AcDb2dVertex
 10
-496.0561755301224
 20
658.7130415117095
 30
0.0
  0
VERTEX
  5
FA
330
F8
100
AcDbEntity
  8
0
 62
     7
100
AcDbVertex
100
AcDb2dVertex
 10
-496.0561755301224
 20
418.7054597470989
 30
0.0
  0
SEQEND
  5
FB
330
F8
100
AcDbEntity
  8
0
 62
     7
  0
ENDBLK
  5
F7
330
F4
100
AcDbEntity
  8
0
100
AcDbBlockEnd
  0
BLOCK
  5
FE
330
FC
100
AcDbEntity
  8
0
100
AcDbBlockBegin
  2
BLOCK_29
 70
     0
 10
0.0
 20
0.0
 30
0.0
  3
BLOCK_29
  1

  0
POLYLINE
  5
100
330
FC
100
AcDbEntity
  8
0
 62
     7
100
AcDb2dPolyline
 66
     1
 10
0.0
 20
0.0
 30
0.0
  0
VERTEX
  5
101
330
100
100
AcDbEntity
  8
0
 62
     7
100
AcDbVertex
100
AcDb2dVertex
 10
-497.5561791317376
 20
658.7130415117095
 30
0.0
  0
VERTEX
  5
102
330
100
100
AcDbEntity
  8
0
 62
     7
100
AcDbVertex
100
AcDb2dVertex
 10
-497.5561791317376
 20
418.7054597470989
 30
0.0
  0
SEQEND
  5
103
330
100
100
AcDbEntity
  8
0
 62
     7
  0
ENDBLK
  5
FF
330
FC
100
AcDbEntity
  8
0
100
AcDbBlockEnd
  0
BLOCK
  5
106
330
104
100
AcDbEntity
  8
0
100
AcDbBlockBegin
  2
BLOCK_30
 70
     0
 10
0.0
 20
0.0
 30
0.0
  3
BLOCK_30
  1

  0
POLYLINE
  5
108
330
104
100
AcDbEntity
  8
0
 62
     7
100
AcDb2dPolyline
 66
     1
 10
0.0
 20
0.0
 30
0.0
  0
VERTEX
  5
109
330
108
100
AcDbEntity
  8
0
 62
     7
100
AcDbVertex
100
AcDb2dVertex
 10
-486.4051473243506
 20
408.711527480769
 30
0.0
  0
VERTEX
  5
10A
330
108
100
AcDbEntity
  8
0
 62
     7
100
AcDbVertex
100
AcDb2dVertex
 10
-174.2332546039854
 20
397.7386570238722
 30
0.0
  0
SEQEND
  5
10B
330
108
100
AcDbEntity
  8
0
 62
     7
  0
ENDBLK
  5
107
330
104
100
AcDbEntity
  8
0
100
AcDbBlockEnd
  0
BLOCK
  5
10E
330
10C
100
AcDbEntity
  8
0
100
AcDbBlockBegin
  2
BLOCK_31
 70
     0
 10
0.0
 20
0.0
 30
0.0
  3
BLOCK_31
  1

  0
SPLINE
  5
110
330
10C
100
AcDbEntity
  8
0
 62
     7
100
AcDbSpline
210
0.0
220
0.0
230
1.0
 70
     8
 71
     3
 72
     8
 73
     4
 74
     0
 42
0.0000000001
 43
0.0000000001
 12
1.0
 22
0.0
 32
0.0
 13
1.0
 23
0.0
 33
0.0
 40
0.0
 40
0.0
 40
0.0
 40
0.0
 40
1.0
 40
1.0
 40
1.0
 40
1.0
 10
-496.0561755301224
 20
418.7054597470989
 30
0.0
 10
-496.0561755301224
 20
413.3184304680033
 30
0.0
 10
-491.7888949707859
 20
408.8995320913547
 30
0.0
 10
-486.4051473243737
 20
408.7115274807716
 30
0.0
  0
ENDBLK
  5
10F
330
10C
100
AcDbEntity
  8
0
100
AcDbBlockEnd
  0
BLOCK
  5
113
330
111
100
AcDbEntity
  8
0
100
AcDbBlockBegin
  2
BLOCK_32
 70
     0
 10
0.0
 20
0.0
 30
0.0
  3
BLOCK_32
  1

  0
POLYLINE
  5
115
330
111
100
AcDbEntity
  8
0
 62
     7
100
AcDb2dPolyline
 66
     1
 10
0.0
 20
0.0
 30
0.0
  0
VERTEX
  5
116
330
115
100
AcDbEntity
  8
0
 62
     7
100
AcDbVertex
100
AcDb2dVertex
 10
-486.4574966950796
 20
407.2124376408238
 30
0.0
  0
VERTEX
  5
117
330
115
100
AcDbEntity
  8
0
 62
     7
100
AcDbVertex
100
AcDb2dVertex
 10
-174.2856039747349
 20
396.2395671839192
 30
0.0
  0
SEQEND
  5
118
330
115
100
AcDbEntity
  8
0
 62
     7
  0
ENDBLK
  5
114
330
111
100
AcDbEntity
  8
0
100
AcDbBlockEnd
  0
BLOCK
  5
11B
330
119
100
AcDbEntity
  8
0
100
AcDbBlockBegin
  2
BLOCK_33
 70
     0
 10
0.0
 20
0.0
 30
0.0
  3
BLOCK_33
  1

  0
SPLINE
  5
11D
330
119
100
AcDbEntity
  8
0
 62
     7
100
AcDbSpline
210
0.0
220
0.0
230
1.0
 70
     8
 71
     3
 72
     8
 73
     4
 74
     0
 42
0.0000000001
 43
0.0000000001
 12
1.0
 22
0.0
 32
0.0
 13
1.0
 23
0.0
 33
0.0
 40
0.0
 40
0.0
 40
0.0
 40
0.0
 40
1.0
 40
1.0
 40
1.0
 40
1.0
 10
-497.5561791317376
 20
418.7054597470989
 30
0.0
 10
-497.5561791317376
 20
412.5103760761394
 30
0.0
 10
-492.6488064885021
 20
407.4286429429899
 30
0.0
 10
-486.4574966951258
 20
407.2124376408238
 30
0.0
  0
ENDBLK
  5
11C
330
119
100
AcDbEntity
  8
0
100
AcDbBlockEnd
  0
BLOCK
  5
120
330
11E
100
AcDbEntity
  8
0
100
AcDbBlockBegin
  2
BLOCK_34
 70
     0
 10
0.0
 20
0.0
 30
0.0
  3
BLOCK_34
  1

  0
POLYLINE
  5
122
330
11E
100
AcDbEntity
  8
0
 62
     7
100
AcDb2dPolyline
 66
     1
 10
0.0
 20
0.0
 30
0.0
  0
VERTEX
  5
123
330
122
100
AcDbEntity
  8
0
 62
     7
100
AcDbVertex
100
AcDb2dVertex
 10
537.5896531297944
 20
187.1046182939462
 30
0.0
  0
VERTEX
  5
124
330
122
100
AcDbEntity
  8
0
 62
     7
100
AcDbVertex
100
AcDb2dVertex
 10
537.5896531297944
 20
74.55774997725821
 30
0.0
  0
SEQEND
  5
125
330
122
100
AcDbEntity
  8
0
 62
     7
  0
ENDBLK
  5
121
330
11E
100
AcDbEntity
  8
0
100
AcDbBlockEnd
  0
BLOCK
  5
128
330
126
100
AcDbEntity
  8
0
100
AcDbBlockBegin
  2
BLOCK_35
 70
     0
 10
0.0
 20
0.0
 30
0.0
  3
BLOCK_35
  1

  0
POLYLINE
  5
12A
330
126
100
AcDbEntity
  8
0
 62
     7
100
AcDb2dPolyline
 66
     1
 10
0.0
 20
0.0
 30
0.0
  0
VERTEX
  5
12B
330
12A
100
AcDbEntity
  8
0
 62
     7
100
AcDbVertex
100
AcDb2dVertex
 10
532.6599257717104
 20
87.67559810096726
 30
0.0
  0
VERTEX
  5
12C
330
12A
100
AcDbEntity
  8
0
 62
     7
100
AcDbVertex
100
AcDb2dVertex
 10
531.1608359317497
 20
87.6232487302049
 30
0.0
  0
SEQEND
  5
12D
330
12A
100
AcDbEntity
  8
0
 62
     7
  0
ENDBLK
  5
129
330
126
100
AcDbEntity
  8
0
100
AcDbBlockEnd
  0
BLOCK
  5
130
330
12E
100
AcDbEntity
  8
0
100
AcDbBlockBegin
  2
BLOCK_36
 70
     0
 10
0.0
 20
0.0
 30
0.0
  3
BLOCK_36
  1

  0
POLYLINE
  5
132
330
12E
100
AcDbEntity
  8
0
 62
     7
100
AcDb2dPolyline
 66
     1
 10
0.0
 20
0.0
 30
0.0
  0
VERTEX
  5
133
330
132
100
AcDbEntity
  8
0
 62
     7
100
AcDbVertex
100
AcDb2dVertex
 10
798.6435664723125
 20
-186.1774040119463
 30
0.0
  0
VERTEX
  5
134
330
132
100
AcDbEntity
  8
0
 62
     7
100
AcDbVertex
100
AcDb2dVertex
 10
556.3940659233472
 20
-186.1774040119283
 30
0.0
  0
SEQEND
  5
135
330
132
100
AcDbEntity
  8
0
 62
     7
  0
ENDBLK
  5
131
330
12E
100
AcDbEntity
  8
0
100
AcDbBlockEnd
  0
BLOCK
  5
138
330
136
100
AcDbEntity
  8
0
100
AcDbBlockBegin
  2
BLOCK_37
 70
     0
 10
0.0
 20
0.0
 30
0.0
  3
BLOCK_37
  1

  0
SPLINE
  5
13A
330
136
100
AcDbEntity
  8
0
 62
     7
100
AcDbSpline
210
0.0
220
0.0
230
1.0
 70
     8
 71
     3
 72
     8
 73
     4
 74
     0
 42
0.0000000001
 43
0.0000000001
 12
1.0
 22
0.0
 32
0.0
 13
1.0
 23
0.0
 33
0.0
 40
0.0
 40
0.0
 40
0.0
 40
0.0
 40
1.0
 40
1.0
 40
1.0
 40
1.0
 10
546.4001336570172
 20
-176.5263758061514
 30
0.0
 10
546.5881382675824
 20
-181.9101234525764
 30
0.0
 10
551.0070366442362
 20
-186.1774040119283
 30
0.0
 10
556.3940659233472
 20
-186.1774040119283
 30
0.0
  0
ENDBLK
  5
139
330
136
100
AcDbEntity
  8
0
100
AcDbBlockEnd
  0
BLOCK
  5
13D
330
13B
100
AcDbEntity
  8
0
100
AcDbBlockBegin
  2
BLOCK_38
 70
     0
 10
0.0
 20
0.0
 30
0.0
  3
BLOCK_38
  1

  0
POLYLINE
  5
13F
330
13B
100
AcDbEntity
  8
0
 62
     7
100
AcDb2dPolyline
 66
     1
 10
0.0
 20
0.0
 30
0.0
  0
VERTEX
  5
140
330
13F
100
AcDbEntity
  8
0
 62
     7
100
AcDbVertex
100
AcDb2dVertex
 10
798.6435664723125
 20
-187.6774076135666
 30
0.0
  0
VERTEX
  5
141
330
13F
100
AcDbEntity
  8
0
 62
     7
100
AcDbVertex
100
AcDb2dVertex
 10
556.3940659233267
 20
-187.6774076135435
 30
0.0
  0
SEQEND
  5
142
330
13F
100
AcDbEntity
  8
0
 62
     7
  0
ENDBLK
  5
13E
330
13B
100
AcDbEntity
  8
0
100
AcDbBlockEnd
  0
BLOCK
  5
145
330
143
100
AcDbEntity
  8
0
100
AcDbBlockBegin
  2
BLOCK_39
 70
     0
 10
0.0
 20
0.0
 30
0.0
  3
BLOCK_39
  1

  0
POLYLINE
  5
147
330
143
100
AcDbEntity
  8
0
 62
     7
100
AcDb2dPolyline
 66
     1
 10
0.0
 20
0.0
 30
0.0
  0
VERTEX
  5
148
330
147
100
AcDbEntity
  8
0
 62
     7
100
AcDbVertex
100
AcDb2dVertex
 10
546.4001336570096
 20
-176.5263758061514
 30
0.0
  0
VERTEX
  5
149
330
147
100
AcDbEntity
  8
0
 62
     7
100
AcDbVertex
100
AcDb2dVertex
 10
537.6691819844957
 20
73.4953676870354
 30
0.0
  0
SEQEND
  5
14A
330
147
100
AcDbEntity
  8
0
 62
     7
  0
ENDBLK
  5
146
330
143
100
AcDbEntity
  8
0
100
AcDbBlockEnd
  0
BLOCK
  5
14D
330
14B
100
AcDbEntity
  8
0
100
AcDbBlockBegin
  2
BLOCK_40
 70
     0
 10
0.0
 20
0.0
 30
0.0
  3
BLOCK_40
  1

  0
SPLINE
  5
14F
330
14B
100
AcDbEntity
  8
0
 62
     7
100
AcDbSpline
210
0.0
220
0.0
230
1.0
 70
     8
 71
     3
 72
     8
 73
     4
 74
     0
 42
0.0000000001
 43
0.0000000001
 12
1.0
 22
0.0
 32
0.0
 13
1.0
 23
0.0
 33
0.0
 40
0.0
 40
0.0
 40
0.0
 40
0.0
 40
1.0
 40
1.0
 40
1.0
 40
1.0
 10
537.6691819844777
 20
73.4953676870354
 30
0.0
 10
537.6315810630608
 20
74.57211719621519
 30
0.0
 10
536.7478014187795
 20
75.42557330024401
 30
0.0
 10
535.6703955830769
 20
75.42557332818616
 30
0.0
  0
ENDBLK
  5
14E
330
14B
100
AcDbEntity
  8
0
100
AcDbBlockEnd
  0
BLOCK
  5
152
330
150
100
AcDbEntity
  8
0
100
AcDbBlockBegin
  2
BLOCK_41
 70
     0
 10
0.0
 20
0.0
 30
0.0
  3
BLOCK_41
  1

  0
POLYLINE
  5
154
330
150
100
AcDbEntity
  8
0
 62
     7
100
AcDb2dPolyline
 66
     1
 10
0.0
 20
0.0
 30
0.0
  0
VERTEX
  5
155
330
154
100
AcDbEntity
  8
0
 62
     7
100
AcDbVertex
100
AcDb2dVertex
 10
535.6703955830769
 20
75.42557332818616
 30
0.0
  0
VERTEX
  5
156
330
154
100
AcDbEntity
  8
0
 62
     7
100
AcDbVertex
100
AcDb2dVertex
 10
534.0533971291736
 20
75.42557337013531
 30
0.0
  0
SEQEND
  5
157
330
154
100
AcDbEntity
  8
0
 62
     7
  0
ENDBLK
  5
153
330
150
100
AcDbEntity
  8
0
100
AcDbBlockEnd
  0
BLOCK
  5
15A
330
158
100
AcDbEntity
  8
0
100
AcDbBlockBegin
  2
BLOCK_42
 70
     0
 10
0.0
 20
0.0
 30
0.0
  3
BLOCK_42
  1

  0
SPLINE
  5
15C
330
158
100
AcDbEntity
  8
0
 62
     7
100
AcDbSpline
210
0.0
220
0.0
230
1.0
 70
     8
 71
     3
 72
     8
 73
     4
 74
     0
 42
0.0000000001
 43
0.0000000001
 12
1.0
 22
0.0
 32
0.0
 13
1.0
 23
0.0
 33
0.0
 40
0.0
 40
0.0
 40
0.0
 40
0.0
 40
1.0
 40
1.0
 40
1.0
 40
1.0
 10
533.0528064816582
 20
76.42496658064343
 30
0.0
 10
533.0627047909659
 20
75.87670498505629
 30
0.0
 10
533.5051240739479
 20
75.43481515857009
 30
0.0
 10
534.0533971291736
 20
75.42557337013531
 30
0.0
  0
ENDBLK
  5
15B
330
158
100
AcDbEntity
  8
0
100
AcDbBlockEnd
  0
BLOCK
  5
15F
330
15D
100
AcDbEntity
  8
0
100
AcDbBlockBegin
  2
BLOCK_43
 70
     0
 10
0.0
 20
0.0
 30
0.0
  3
BLOCK_43
  1

  0
POLYLINE
  5
161
330
15D
100
AcDbEntity
  8
0
 62
     7
100
AcDb2dPolyline
 66
     1
 10
0.0
 20
0.0
 30
0.0
  0
VERTEX
  5
162
330
161
100
AcDbEntity
  8
0
 62
     7
100
AcDbVertex
100
AcDb2dVertex
 10
533.0528064816582
 20
76.42496658065626
 30
0.0
  0
VERTEX
  5
163
330
161
100
AcDbEntity
  8
0
 62
     7
100
AcDbVertex
100
AcDb2dVertex
 10
532.6599257717104
 20
87.67559810096726
 30
0.0
  0
SEQEND
  5
164
330
161
100
AcDbEntity
  8
0
 62
     7
  0
ENDBLK
  5
160
330
15D
100
AcDbEntity
  8
0
100
AcDbBlockEnd
  0
BLOCK
  5
167
330
165
100
AcDbEntity
  8
0
100
AcDbBlockBegin
  2
BLOCK_44
 70
     0
 10
0.0
 20
0.0
 30
0.0
  3
BLOCK_44
  1

  0
POLYLINE
  5
169
330
165
100
AcDbEntity
  8
0
 62
     7
100
AcDb2dPolyline
 66
     1
 10
0.0
 20
0.0
 30
0.0
  0
VERTEX
  5
16A
330
169
100
AcDbEntity
  8
0
 62
     7
100
AcDbVertex
100
AcDb2dVertex
 10
544.901043817049
 20
-176.578725176906
 30
0.0
  0
VERTEX
  5
16B
330
169
100
AcDbEntity
  8
0
 62
     7
100
AcDbVertex
100
AcDb2dVertex
 10
536.1700921445299
 20
73.44301831627817
 30
0.0
  0
SEQEND
  5
16C
330
169
100
AcDbEntity
  8
0
 62
     7
  0
ENDBLK
  5
168
330
165
100
AcDbEntity
  8
0
100
AcDbBlockEnd
  0
BLOCK
  5
16F
330
16D
100
AcDbEntity
  8
0
100
AcDbBlockBegin
  2
BLOCK_45
 70
     0
 10
0.0
 20
0.0
 30
0.0
  3
BLOCK_45
  1

  0
SPLINE
  5
171
330
16D
100
AcDbEntity
  8
0
 62
     7
100
AcDbSpline
210
0.0
220
0.0
230
1.0
 70
     8
 71
     3
 72
     8
 73
     4
 74
     0
 42
0.0000000001
 43
0.0000000001
 12
1.0
 22
0.0
 32
0.0
 13
1.0
 23
0.0
 33
0.0
 40
0.0
 40
0.0
 40
0.0
 40
0.0
 40
1.0
 40
1.0
 40
1.0
 40
1.0
 10
544.9010438170361
 20
-176.5787251768957
 30
0.0
 10
545.1172491191792
 20
-182.77003497029
 30
0.0
 10
550.1989822523543
 20
-187.6774076135435
 30
0.0
 10
556.3940659233267
 20
-187.6774076135435
 30
0.0
  0
ENDBLK
  5
170
330
16D
100
AcDbEntity
  8
0
100
AcDbBlockEnd
  0
BLOCK
  5
174
330
172
100
AcDbEntity
  8
0
100
AcDbBlockBegin
  2
BLOCK_46
 70
     0
 10
0.0
 20
0.0
 30
0.0
  3
BLOCK_46
  1

  0
SPLINE
  5
176
330
172
100
AcDbEntity
  8
0
 62
     7
100
AcDbSpline
210
0.0
220
0.0
230
1.0
 70
     8
 71
     3
 72
     8
 73
     4
 74
     0
 42
0.0000000001
 43
0.0000000001
 12
1.0
 22
0.0
 32
0.0
 13
1.0
 23
0.0
 33
0.0
 40
0.0
 40
0.0
 40
0.0
 40
0.0
 40
1.0
 40
1.0
 40
1.0
 40
1.0
 10
536.1700921445299
 20
73.44301831627817
 30
0.0
 10
536.1606919141674
 20
73.71220569357376
 30
0.0
 10
535.9397470031009
 20
73.92556971956878
 30
0.0
 10
535.6703955441798
 20
73.92556972656587
 30
0.0
  0
ENDBLK
  5
175
330
172
100
AcDbEntity
  8
0
100
AcDbBlockEnd
  0
BLOCK
  5
179
330
177
100
AcDbEntity
  8
0
100
AcDbBlockBegin
  2
BLOCK_47
 70
     0
 10
0.0
 20
0.0
 30
0.0
  3
BLOCK_47
  1

  0
POLYLINE
  5
17B
330
177
100
AcDbEntity
  8
0
 62
     7
100
AcDb2dPolyline
 66
     1
 10
0.0
 20
0.0
 30
0.0
  0
VERTEX
  5
17C
330
17B
100
AcDbEntity
  8
0
 62
     7
100
AcDbVertex
100
AcDb2dVertex
 10
535.67039554419
 20
73.92556972656587
 30
0.0
  0
VERTEX
  5
17D
330
17B
100
AcDbEntity
  8
0
 62
     7
100
AcDbVertex
100
AcDb2dVertex
 10
534.0435702660491
 20
73.92556976878966
 30
0.0
  0
SEQEND
  5
17E
330
17B
100
AcDbEntity
  8
0
 62
     7
  0
ENDBLK
  5
17A
330
177
100
AcDbEntity
  8
0
100
AcDbBlockEnd
  0
BLOCK
  5
181
330
17F
100
AcDbEntity
  8
0
100
AcDbBlockBegin
  2
BLOCK_48
 70
     0
 10
0.0
 20
0.0
 30
0.0
  3
BLOCK_48
  1

  0
SPLINE
  5
183
330
17F
100
AcDbEntity
  8
0
 62
     7
100
AcDbSpline
210
0.0
220
0.0
230
1.0
 70
     8
 71
     3
 72
     8
 73
     4
 74
     0
 42
0.0000000001
 43
0.0000000001
 12
1.0
 22
0.0
 32
0.0
 13
1.0
 23
0.0
 33
0.0
 40
0.0
 40
0.0
 40
0.0
 40
0.0
 40
1.0
 40
1.0
 40
1.0
 40
1.0
 10
531.553373690492
 20
76.38243804786737
 30
0.0
 10
531.5861821895041
 20
75.02642957200071
 30
0.0
 10
532.6872428342036
 20
73.9401053043369
 30
0.0
 10
534.0435702660619
 20
73.92556976878966
 30
0.0
  0
ENDBLK
  5
182
330
17F
100
AcDbEntity
  8
0
100
AcDbBlockEnd
  0
BLOCK
  5
186
330
184
100
AcDbEntity
  8
0
100
AcDbBlockBegin
  2
BLOCK_49
 70
     0
 10
0.0
 20
0.0
 30
0.0
  3
BLOCK_49
  1

  0
POLYLINE
  5
188
330
184
100
AcDbEntity
  8
0
 62
     7
100
AcDb2dPolyline
 66
     1
 10
0.0
 20
0.0
 30
0.0
  0
VERTEX
  5
189
330
188
100
AcDbEntity
  8
0
 62
     7
100
AcDbVertex
100
AcDb2dVertex
 10
531.5533736905126
 20
76.38243804788277
 30
0.0
  0
VERTEX
  5
18A
330
188
100
AcDbEntity
  8
0
 62
     7
100
AcDbVertex
100
AcDb2dVertex
 10
531.1608359317497
 20
87.6232487302049
 30
0.0
  0
SEQEND
  5
18B
330
188
100
AcDbEntity
  8
0
 62
     7
  0
ENDBLK
  5
187
330
184
100
AcDbEntity
  8
0
100
AcDbBlockEnd
  0
BLOCK
  5
18E
330
18C
100
AcDbEntity
  8
0
100
AcDbBlockBegin
  2
BLOCK_50
 70
     0
 10
0.0
 20
0.0
 30
0.0
  3
BLOCK_50
  1

  0
POLYLINE
  5
190
330
18C
100
AcDbEntity
  8
0
 62
     7
100
AcDb2dPolyline
 66
     1
 10
0.0
 20
0.0
 30
0.0
  0
VERTEX
  5
191
330
190
100
AcDbEntity
  8
0
 62
     7
100
AcDbVertex
100
AcDb2dVertex
 10
532.6599257717104
 20
173.5711151975677
 30
0.0
  0
VERTEX
  5
192
330
190
100
AcDbEntity
  8
0
 62
     7
100
AcDbVertex
100
AcDb2dVertex
 10
532.6599257717104
 20
87.67559810096726
 30
0.0
  0
SEQEND
  5
193
330
190
100
AcDbEntity
  8
0
 62
     7
  0
ENDBLK
  5
18F
330
18C
100
AcDbEntity
  8
0
100
AcDbBlockEnd
  0
BLOCK
  5
196
330
194
100
AcDbEntity
  8
0
100
AcDbBlockBegin
  2
BLOCK_51
 70
     0
 10
0.0
 20
0.0
 30
0.0
  3
BLOCK_51
  1

  0
POLYLINE
  5
198
330
194
100
AcDbEntity
  8
0
 62
     7
100
AcDb2dPolyline
 66
     1
 10
0.0
 20
0.0
 30
0.0
  0
VERTEX
  5
199
330
198
100
AcDbEntity
  8
0
 62
     7
100
AcDbVertex
100
AcDb2dVertex
 10
532.6599257717104
 20
173.5711151971493
 30
0.0
  0
VERTEX
  5
19A
330
198
100
AcDbEntity
  8
0
 62
     7
100
AcDbVertex
100
AcDb2dVertex
 10
531.1608359317497
 20
173.6234645678911
 30
0.0
  0
SEQEND
  5
19B
330
198
100
AcDbEntity
  8
0
 62
     7
  0
ENDBLK
  5
197
330
194
100
AcDbEntity
  8
0
100
AcDbBlockEnd
  0
BLOCK
  5
19E
330
19C
100
AcDbEntity
  8
0
100
AcDbBlockBegin
  2
BLOCK_52
 70
     0
 10
0.0
 20
0.0
 30
0.0
  3
BLOCK_52
  1

  0
SPLINE
  5
1A0
330
19C
100
AcDbEntity
  8
0
 62
     7
100
AcDbSpline
210
0.0
220
0.0
230
1.0
 70
     8
 71
     3
 72
     8
 73
     4
 74
     0
 42
0.0000000001
 43
0.0000000001
 12
1.0
 22
0.0
 32
0.0
 13
1.0
 23
0.0
 33
0.0
 40
0.0
 40
0.0
 40
0.0
 40
0.0
 40
1.0
 40
1.0
 40
1.0
 40
1.0
 10
535.6703955830769
 20
185.821139969933
 30
0.0
 10
536.7478014187795
 20
185.8211399978752
 30
0.0
 10
537.6315810630608
 20
186.6745961018937
 30
0.0
 10
537.6691819844777
 20
187.7513456110709
 30
0.0
  0
ENDBLK
  5
19F
330
19C
100
AcDbEntity
  8
0
100
AcDbBlockEnd
  0
BLOCK
  5
1A3
330
1A1
100
AcDbEntity
  8
0
100
AcDbBlockBegin
  2
BLOCK_53
 70
     0
 10
0.0
 20
0.0
 30
0.0
  3
BLOCK_53
  1

  0
POLYLINE
  5
1A5
330
1A1
100
AcDbEntity
  8
0
 62
     7
100
AcDb2dPolyline
 66
     1
 10
0.0
 20
0.0
 30
0.0
  0
VERTEX
  5
1A6
330
1A5
100
AcDbEntity
  8
0
 62
     7
100
AcDbVertex
100
AcDb2dVertex
 10
535.6703955830769
 20
185.8211399699202
 30
0.0
  0
VERTEX
  5
1A7
330
1A5
100
AcDbEntity
  8
0
 62
     7
100
AcDbVertex
100
AcDb2dVertex
 10
534.0533971291736
 20
185.8211399279761
 30
0.0
  0
SEQEND
  5
1A8
330
1A5
100
AcDbEntity
  8
0
 62
     7
  0
ENDBLK
  5
1A4
330
1A1
100
AcDbEntity
  8
0
100
AcDbBlockEnd
  0
BLOCK
  5
1AB
330
1A9
100
AcDbEntity
  8
0
100
AcDbBlockBegin
  2
BLOCK_54
 70
     0
 10
0.0
 20
0.0
 30
0.0
  3
BLOCK_54
  1

  0
SPLINE
  5
1AD
330
1A9
100
AcDbEntity
  8
0
 62
     7
100
AcDbSpline
210
0.0
220
0.0
230
1.0
 70
     8
 71
     3
 72
     8
 73
     4
 74
     0
 42
0.0000000001
 43
0.0000000001
 12
1.0
 22
0.0
 32
0.0
 13
1.0
 23
0.0
 33
0.0
 40
0.0
 40
0.0
 40
0.0
 40
0.0
 40
1.0
 40
1.0
 40
1.0
 40
1.0
 10
534.0533971291633
 20
185.8211399279761
 30
0.0
 10
533.5051240739479
 20
185.8118981395311
 30
0.0
 10
533.0627047909659
 20
185.3700083130526
 30
0.0
 10
533.0528064816582
 20
184.8217467174552
 30
0.0
  0
ENDBLK
  5
1AC
330
1A9
100
AcDbEntity
  8
0
100
AcDbBlockEnd
  0
BLOCK
  5
1B0
330
1AE
100
AcDbEntity
  8
0
100
AcDbBlockBegin
  2
BLOCK_55
 70
     0
 10
0.0
 20
0.0
 30
0.0
  3
BLOCK_55
  1

  0
POLYLINE
  5
1B2
330
1AE
100
AcDbEntity
  8
0
 62
     7
100
AcDb2dPolyline
 66
     1
 10
0.0
 20
0.0
 30
0.0
  0
VERTEX
  5
1B3
330
1B2
100
AcDbEntity
  8
0
 62
     7
100
AcDbVertex
100
AcDb2dVertex
 10
533.0528064816582
 20
184.8217467174552
 30
0.0
  0
VERTEX
  5
1B4
330
1B2
100
AcDbEntity
  8
0
 62
     7
100
AcDbVertex
100
AcDb2dVertex
 10
532.6599257717104
 20
173.5711151971493
 30
0.0
  0
SEQEND
  5
1B5
330
1B2
100
AcDbEntity
  8
0
 62
     7
  0
ENDBLK
  5
1B1
330
1AE
100
AcDbEntity
  8
0
100
AcDbBlockEnd
  0
BLOCK
  5
1B8
330
1B6
100
AcDbEntity
  8
0
100
AcDbBlockBegin
  2
BLOCK_56
 70
     0
 10
0.0
 20
0.0
 30
0.0
  3
BLOCK_56
  1

  0
SPLINE
  5
1BA
330
1B6
100
AcDbEntity
  8
0
 62
     7
100
AcDbSpline
210
0.0
220
0.0
230
1.0
 70
     8
 71
     3
 72
     8
 73
     4
 74
     0
 42
0.0000000001
 43
0.0000000001
 12
1.0
 22
0.0
 32
0.0
 13
1.0
 23
0.0
 33
0.0
 40
0.0
 40
0.0
 40
0.0
 40
0.0
 40
1.0
 40
1.0
 40
1.0
 40
1.0
 10
535.6703955441798
 20
187.3211435715405
 30
0.0
 10
535.9397470031009
 20
187.3211435785298
 30
0.0
 10
536.1606919141674
 20
187.5345076045326
 30
0.0
 10
536.1700921445299
 20
187.8036949818256
 30
0.0
  0
ENDBLK
  5
1B9
330
1B6
100
AcDbEntity
  8
0
100
AcDbBlockEnd
  0
BLOCK
  5
1BD
330
1BB
100
AcDbEntity
  8
0
100
AcDbBlockBegin
  2
BLOCK_57
 70
     0
 10
0.0
 20
0.0
 30
0.0
  3
BLOCK_57
  1

  0
POLYLINE
  5
1BF
330
1BB
100
AcDbEntity
  8
0
 62
     7
100
AcDb2dPolyline
 66
     1
 10
0.0
 20
0.0
 30
0.0
  0
VERTEX
  5
1C0
330
1BF
100
AcDbEntity
  8
0
 62
     7
100
AcDbVertex
100
AcDb2dVertex
 10
535.67039554419
 20
187.3211435715328
 30
0.0
  0
VERTEX
  5
1C1
330
1BF
100
AcDbEntity
  8
0
 62
     7
100
AcDbVertex
100
AcDb2dVertex
 10
534.0435702660491
 20
187.3211435293295
 30
0.0
  0
SEQEND
  5
1C2
330
1BF
100
AcDbEntity
  8
0
 62
     7
  0
ENDBLK
  5
1BE
330
1BB
100
AcDbEntity
  8
0
100
AcDbBlockEnd
  0
BLOCK
  5
1C5
330
1C3
100
AcDbEntity
  8
0
100
AcDbBlockBegin
  2
BLOCK_58
 70
     0
 10
0.0
 20
0.0
 30
0.0
  3
BLOCK_58
  1

  0
SPLINE
  5
1C7
330
1C3
100
AcDbEntity
  8
0
 62
     7
100
AcDbSpline
210
0.0
220
0.0
230
1.0
 70
     8
 71
     3
 72
     8
 73
     4
 74
     0
 42
0.0000000001
 43
0.0000000001
 12
1.0
 22
0.0
 32
0.0
 13
1.0
 23
0.0
 33
0.0
 40
0.0
 40
0.0
 40
0.0
 40
0.0
 40
1.0
 40
1.0
 40
1.0
 40
1.0
 10
534.0435702660619
 20
187.3211435293295
 30
0.0
 10
532.6872428341806
 20
187.3066079937694
 30
0.0
 10
531.5861821894758
 20
186.2202837260902
 30
0.0
 10
531.553373690492
 20
184.8642752501953
 30
0.0
  0
ENDBLK
  5
1C6
330
1C3
100
AcDbEntity
  8
0
100
AcDbBlockEnd
  0
BLOCK
  5
1CA
330
1C8
100
AcDbEntity
  8
0
100
AcDbBlockBegin
  2
BLOCK_59
 70
     0
 10
0.0
 20
0.0
 30
0.0
  3
BLOCK_59
  1

  0
POLYLINE
  5
1CC
330
1C8
100
AcDbEntity
  8
0
 62
     7
100
AcDb2dPolyline
 66
     1
 10
0.0
 20
0.0
 30
0.0
  0
VERTEX
  5
1CD
330
1CC
100
AcDbEntity
  8
0
 62
     7
100
AcDbVertex
100
AcDb2dVertex
 10
531.5533736905126
 20
184.864275250221
 30
0.0
  0
VERTEX
  5
1CE
330
1CC
100
AcDbEntity
  8
0
 62
     7
100
AcDbVertex
100
AcDb2dVertex
 10
531.1608359317497
 20
173.6234645678911
 30
0.0
  0
SEQEND
  5
1CF
330
1CC
100
AcDbEntity
  8
0
 62
     7
  0
ENDBLK
  5
1CB
330
1C8
100
AcDbEntity
  8
0
100
AcDbBlockEnd
  0
BLOCK
  5
1D2
330
1D0
100
AcDbEntity
  8
0
100
AcDbBlockBegin
  2
BLOCK_60
 70
     0
 10
0.0
 20
0.0
 30
0.0
  3
BLOCK_60
  1

  0
POLYLINE
  5
1D4
330
1D0
100
AcDbEntity
  8
0
 62
     7
100
AcDb2dPolyline
 66
     1
 10
0.0
 20
0.0
 30
0.0
  0
VERTEX
  5
1D5
330
1D4
100
AcDbEntity
  8
0
 62
     7
100
AcDbVertex
100
AcDb2dVertex
 10
798.6435664723125
 20
245.6236327731415
 30
0.0
  0
VERTEX
  5
1D6
330
1D4
100
AcDbEntity
  8
0
 62
     7
100
AcDbVertex
100
AcDb2dVertex
 10
549.3470377194488
 20
245.6236327731286
 30
0.0
  0
SEQEND
  5
1D7
330
1D4
100
AcDbEntity
  8
0
 62
     7
  0
ENDBLK
  5
1D3
330
1D0
100
AcDbEntity
  8
0
100
AcDbBlockEnd
  0
BLOCK
  5
1DA
330
1D8
100
AcDbEntity
  8
0
100
AcDbBlockBegin
  2
BLOCK_61
 70
     0
 10
0.0
 20
0.0
 30
0.0
  3
BLOCK_61
  1

  0
SPLINE
  5
1DC
330
1D8
100
AcDbEntity
  8
0
 62
     7
100
AcDbSpline
210
0.0
220
0.0
230
1.0
 70
     8
 71
     3
 72
     8
 73
     4
 74
     0
 42
0.0000000001
 43
0.0000000001
 12
1.0
 22
0.0
 32
0.0
 13
1.0
 23
0.0
 33
0.0
 40
0.0
 40
0.0
 40
0.0
 40
0.0
 40
1.0
 40
1.0
 40
1.0
 40
1.0
 10
549.3470377194488
 20
245.6236327731286
 30
0.0
 10
543.9600084403353
 20
245.6236327731286
 30
0.0
 10
539.5411100636712
 20
241.3563522137716
 30
0.0
 10
539.3531054531138
 20
235.972604567344
 30
0.0
  0
ENDBLK
  5
1DB
330
1D8
100
AcDbEntity
  8
0
100
AcDbBlockEnd
  0
BLOCK
  5
1DF
330
1DD
100
AcDbEntity
  8
0
100
AcDbBlockBegin
  2
BLOCK_62
 70
     0
 10
0.0
 20
0.0
 30
0.0
  3
BLOCK_62
  1

  0
POLYLINE
  5
1E1
330
1DD
100
AcDbEntity
  8
0
 62
     7
100
AcDb2dPolyline
 66
     1
 10
0.0
 20
0.0
 30
0.0
  0
VERTEX
  5
1E2
330
1E1
100
AcDbEntity
  8
0
 62
     7
100
AcDbVertex
100
AcDb2dVertex
 10
798.6435664723125
 20
247.1236363747566
 30
0.0
  0
VERTEX
  5
1E3
330
1E1
100
AcDbEntity
  8
0
 62
     7
100
AcDbVertex
100
AcDb2dVertex
 10
549.3470377193847
 20
247.1236363747438
 30
0.0
  0
SEQEND
  5
1E4
330
1E1
100
AcDbEntity
  8
0
 62
     7
  0
ENDBLK
  5
1E0
330
1DD
100
AcDbEntity
  8
0
100
AcDbBlockEnd
  0
BLOCK
  5
1E7
330
1E5
100
AcDbEntity
  8
0
100
AcDbBlockBegin
  2
BLOCK_63
 70
     0
 10
0.0
 20
0.0
 30
0.0
  3
BLOCK_63
  1

  0
POLYLINE
  5
1E9
330
1E5
100
AcDbEntity
  8
0
 62
     7
100
AcDb2dPolyline
 66
     1
 10
0.0
 20
0.0
 30
0.0
  0
VERTEX
  5
1EA
330
1E9
100
AcDbEntity
  8
0
 62
     7
100
AcDbVertex
100
AcDb2dVertex
 10
539.3531054531036
 20
235.972604567344
 30
0.0
  0
VERTEX
  5
1EB
330
1E9
100
AcDbEntity
  8
0
 62
     7
100
AcDbVertex
100
AcDb2dVertex
 10
537.6691819844957
 20
187.7513456115124
 30
0.0
  0
SEQEND
  5
1EC
330
1E9
100
AcDbEntity
  8
0
 62
     7
  0
ENDBLK
  5
1E8
330
1E5
100
AcDbEntity
  8
0
100
AcDbBlockEnd
  0
BLOCK
  5
1EF
330
1ED
100
AcDbEntity
  8
0
100
AcDbBlockBegin
  2
BLOCK_64
 70
     0
 10
0.0
 20
0.0
 30
0.0
  3
BLOCK_64
  1

  0
POLYLINE
  5
1F1
330
1ED
100
AcDbEntity
  8
0
 62
     7
100
AcDb2dPolyline
 66
     1
 10
0.0
 20
0.0
 30
0.0
  0
VERTEX
  5
1F2
330
1F1
100
AcDbEntity
  8
0
 62
     7
100
AcDbVertex
100
AcDb2dVertex
 10
537.8540156131121
 20
236.0249539381012
 30
0.0
  0
VERTEX
  5
1F3
330
1F1
100
AcDbEntity
  8
0
 62
     7
100
AcDbVertex
100
AcDb2dVertex
 10
536.1700921445299
 20
187.8036949822671
 30
0.0
  0
SEQEND
  5
1F4
330
1F1
100
AcDbEntity
  8
0
 62
     7
  0
ENDBLK
  5
1F0
330
1ED
100
AcDbEntity
  8
0
100
AcDbBlockEnd
  0
BLOCK
  5
1F7
330
1F5
100
AcDbEntity
  8
0
100
AcDbBlockBegin
  2
BLOCK_65
 70
     0
 10
0.0
 20
0.0
 30
0.0
  3
BLOCK_65
  1

  0
SPLINE
  5
1F9
330
1F5
100
AcDbEntity
  8
0
 62
     7
100
AcDbSpline
210
0.0
220
0.0
230
1.0
 70
     8
 71
     3
 72
     8
 73
     4
 74
     0
 42
0.0000000001
 43
0.0000000001
 12
1.0
 22
0.0
 32
0.0
 13
1.0
 23
0.0
 33
0.0
 40
0.0
 40
0.0
 40
0.0
 40
0.0
 40
1.0
 40
1.0
 40
1.0
 40
1.0
 10
549.3470377193847
 20
247.1236363747438
 30
0.0
 10
543.1519540484201
 20
247.1236363747438
 30
0.0
 10
538.0702209152603
 20
242.2162637314775
 30
0.0
 10
537.8540156131019
 20
236.0249539381012
 30
0.0
  0
ENDBLK
  5
1F8
330
1F5
100
AcDbEntity
  8
0
100
AcDbBlockEnd
  0
BLOCK
  5
1FC
330
1FA
100
AcDbEntity
  8
0
100
AcDbBlockBegin
  2
BLOCK_66
 70
     0
 10
0.0
 20
0.0
 30
0.0
  3
BLOCK_66
  1

  0
SPLINE
  5
1FE
330
1FA
100
AcDbEntity
  8
0
 62
     7
100
AcDbSpline
210
0.0
220
0.0
230
1.0
 70
    11
 71
     3
 72
    29
 73
    25
 74
     0
 42
0.0000000001
 43
0.0000000001
 12
1.0
 22
0.0
 32
0.0
 13
1.0
 23
0.0
 33
0.0
 40
0.0
 40
0.0
 40
0.0
 40
0.0
 40
1.0
 40
1.0
 40
1.0
 40
2.0
 40
2.0
 40
2.0
 40
3.0
 40
3.0
 40
3.0
 40
4.0
 40
4.0
 40
4.0
 40
5.0
 40
5.0
 40
5.0
 40
6.0
 40
6.0
 40
6.0
 40
7.0
 40
7.0
 40
7.0
 40
8.0
 40
8.0
 40
8.0
 40
8.0
 10
-516.3883376224206
 20
-186.1774040119411
 30
0.0
 10
-516.3883376224206
 20
-186.1774040119411
 30
0.0
 10
225.6134439767744
 20
-186.1774040119411
 30
0.0
 10
225.6134439767744
 20
-186.1774040119411
 30
0.0
 10
231.1363047358678
 20
-186.1774040119411
 30
0.0
 10
235.6134679875473
 20
-181.7002407602642
 30
0.0
 10
235.6134679875473
 20
-176.1773800011708
 30
0.0
 10
235.6134679875473
 20
-176.1773800011708
 30
0.0
 10
235.6134679875473
 20
235.623608762366
 30
0.0
 10
235.6134679875473
 20
235.623608762366
 30
0.0
 10
235.6134679875473
 20
241.1464695214517
 30
0.0
 10
231.1363047358678
 20
245.6236327731415
 30
0.0
 10
225.6134439767744
 20
245.6236327731415
 30
0.0
 10
225.6134439767744
 20
245.6236327731415
 30
0.0
 10
-516.3883376224206
 20
245.6236327731415
 30
0.0
 10
-516.3883376224206
 20
245.6236327731415
 30
0.0
 10
-521.9111983815088
 20
245.6236327731415
 30
0.0
 10
-526.3883616331884
 20
241.1464695214517
 30
0.0
 10
-526.3883616331884
 20
235.623608762366
 30
0.0
 10
-526.3883616331884
 20
235.623608762366
 30
0.0
 10
-526.3883616331884
 20
-176.1773800011708
 30
0.0
 10
-526.3883616331884
 20
-176.1773800011708
 30
0.0
 10
-526.3883616331884
 20
-181.7002407602642
 30
0.0
 10
-521.9111983815088
 20
-186.1774040119411
 30
0.0
 10
-516.3883376224206
 20
-186.1774040119411
 30
0.0
  0
ENDBLK
  5
1FD
330
1FA
100
AcDbEntity
  8
0
100
AcDbBlockEnd
  0
BLOCK
  5
201
330
1FF
100
AcDbEntity
  8
0
100
AcDbBlockBegin
  2
BLOCK_67
 70
     0
 10
0.0
 20
0.0
 30
0.0
  3
BLOCK_67
  1

  0
POLYLINE
  5
203
330
1FF
100
AcDbEntity
  8
0
 62
     7
100
AcDb2dPolyline
 66
     1
 10
0.0
 20
0.0
 30
0.0
  0
VERTEX
  5
204
330
203
100
AcDbEntity
  8
0
 62
     7
100
AcDbVertex
100
AcDb2dVertex
 10
-526.3883616331884
 20
-211.5774649992979
 30
0.0
  0
VERTEX
  5
205
330
203
100
AcDbEntity
  8
0
 62
     7
100
AcDbVertex
100
AcDb2dVertex
 10
235.6134679875473
 20
-211.5774649992979
 30
0.0
  0
VERTEX
  5
206
330
203
100
AcDbEntity
  8
0
 62
     7
100
AcDbVertex
100
AcDb2dVertex
 10
261.0135289749091
 20
-186.1774040119411
 30
0.0
  0
VERTEX
  5
207
330
203
100
AcDbEntity
  8
0
 62
     7
100
AcDbVertex
100
AcDb2dVertex
 10
261.0135289749091
 20
245.6236327731415
 30
0.0
  0
VERTEX
  5
208
330
203
100
AcDbEntity
  8
0
 62
     7
100
AcDbVertex
100
AcDb2dVertex
 10
235.6134679875473
 20
271.0236937604982
 30
0.0
  0
VERTEX
  5
209
330
203
100
AcDbEntity
  8
0
 62
     7
100
AcDbVertex
100
AcDb2dVertex
 10
-526.3883616331884
 20
271.0236937604982
 30
0.0
  0
VERTEX
  5
20A
330
203
100
AcDbEntity
  8
0
 62
     7
100
AcDbVertex
100
AcDb2dVertex
 10
-551.7884226205425
 20
245.6236327731415
 30
0.0
  0
VERTEX
  5
20B
330
203
100
AcDbEntity
  8
0
 62
     7
100
AcDbVertex
100
AcDb2dVertex
 10
-551.7884226205425
 20
-186.1774040119411
 30
0.0
  0
VERTEX
  5
20C
330
203
100
AcDbEntity
  8
0
 62
     7
100
AcDbVertex
100
AcDb2dVertex
 10
-526.3883616331884
 20
-211.5774649992979
 30
0.0
  0
SEQEND
  5
20D
330
203
100
AcDbEntity
  8
0
 62
     7
  0
ENDBLK
  5
202
330
1FF
100
AcDbEntity
  8
0
100
AcDbBlockEnd
  0
BLOCK
  5
210
330
20E
100
AcDbEntity
  8
0
100
AcDbBlockBegin
  2
BLOCK_68
 70
     0
 10
0.0
 20
0.0
 30
0.0
  3
BLOCK_68
  1

  0
SPLINE
  5
212
330
20E
100
AcDbEntity
  8
0
 62
     7
100
AcDbSpline
210
0.0
220
0.0
230
1.0
 70
    11
 71
     3
 72
    20
 73
    16
 74
     0
 42
0.0000000001
 43
0.0000000001
 12
1.0
 22
0.0
 32
0.0
 13
1.0
 23
0.0
 33
0.0
 40
0.0
 40
0.0
 40
0.0
 40
0.0
 40
1.0
 40
1.0
 40
1.0
 40
2.0
 40
2.0
 40
2.0
 40
3.0
 40
3.0
 40
3.0
 40
4.0
 40
4.0
 40
4.0
 40
5.0
 40
5.0
 40
5.0
 40
5.0
 10
-205.3875908875002
 20
130.6233566490993
 30
0.0
 10
-205.3875908875002
 20
163.7605212036364
 30
0.0
 10
-178.5246113774179
 20
190.6235007137212
 30
0.0
 10
-145.3874468228783
 20
190.6235007137212
 30
0.0
 10
-112.2502822683361
 20
190.6235007137212
 30
0.0
 10
-85.38730275824874
 20
163.7605212036364
 30
0.0
 10
-85.38730275824874
 20
130.6233566490993
 30
0.0
 10
-85.38730275824874
 20
97.48619209454435
 30
0.0
 10
-112.2502822683361
 20
70.62321258447493
 30
0.0
 10
-145.3874468228783
 20
70.62321258447493
 30
0.0
 10
-178.5246113774179
 20
70.62321258447493
 30
0.0
 10
-205.3875908875002
 20
97.48619209454435
 30
0.0
 10
-205.3875908875002
 20
130.6233566490993
 30
0.0
 10
-205.3875908875002
 20
130.6233566490993
 30
0.0
 10
-205.3875908875002
 20
130.6233566490993
 30
0.0
 10
-205.3875908875002
 20
130.6233566490993
 30
0.0
  0
ENDBLK
  5
211
330
20E
100
AcDbEntity
  8
0
100
AcDbBlockEnd
  0
BLOCK
  5
215
330
213
100
AcDbEntity
  8
0
100
AcDbBlockBegin
  2
BLOCK_69
 70
     0
 10
0.0
 20
0.0
 30
0.0
  3
BLOCK_69
  1

  0
SPLINE
  5
217
330
213
100
AcDbEntity
  8
0
 62
     7
100
AcDbSpline
210
0.0
220
0.0
230
1.0
 70
    11
 71
     3
 72
    20
 73
    16
 74
     0
 42
0.0000000001
 43
0.0000000001
 12
1.0
 22
0.0
 32
0.0
 13
1.0
 23
0.0
 33
0.0
 40
0.0
 40
0.0
 40
0.0
 40
0.0
 40
1.0
 40
1.0
 40
1.0
 40
2.0
 40
2.0
 40
2.0
 40
3.0
 40
3.0
 40
3.0
 40
4.0
 40
4.0
 40
4.0
 40
5.0
 40
5.0
 40
5.0
 40
5.0
 10
-202.8875848848031
 20
130.6233566490993
 30
0.0
 10
-202.8875848848031
 20
162.3798060138688
 30
0.0
 10
-177.1438961876401
 20
188.1234947110319
 30
0.0
 10
-145.3874468228783
 20
188.1234947110319
 30
0.0
 10
-113.6309974581114
 20
188.1234947110319
 30
0.0
 10
-87.88730876094324
 20
162.3798060138688
 30
0.0
 10
-87.88730876094324
 20
130.6233566490993
 30
0.0
 10
-87.88730876094324
 20
98.86690728432475
 30
0.0
 10
-113.6309974581114
 20
73.12321858716943
 30
0.0
 10
-145.3874468228783
 20
73.12321858716943
 30
0.0
 10
-177.1438961876401
 20
73.12321858716943
 30
0.0
 10
-202.8875848848031
 20
98.86690728432475
 30
0.0
 10
-202.8875848848031
 20
130.6233566490993
 30
0.0
 10
-202.8875848848031
 20
130.6233566490993
 30
0.0
 10
-202.8875848848031
 20
130.6233566490993
 30
0.0
 10
-202.8875848848031
 20
130.6233566490993
 30
0.0
  0
ENDBLK
  5
216
330
213
100
AcDbEntity
  8
0
100
AcDbBlockEnd
  0
BLOCK
  5
21A
330
218
100
AcDbEntity
  8
0
100
AcDbBlockBegin
  2
BLOCK_70
 70
     0
 10
0.0
 20
0.0
 30
0.0
  3
BLOCK_70
  1

  0
POLYLINE
  5
21C
330
218
100
AcDbEntity
  8
0
 62
     7
100
AcDb2dPolyline
 66
     1
 10
0.0
 20
0.0
 30
0.0
  0
VERTEX
  5
21D
330
21C
100
AcDbEntity
  8
0
 62
     7
100
AcDbVertex
100
AcDb2dVertex
 10
-498.5561815328144
 20
661.2130475143912
 30
0.0
  0
VERTEX
  5
21E
330
21C
100
AcDbEntity
  8
0
 62
     7
100
AcDbVertex
100
AcDb2dVertex
 10
268.4456600937672
 20
661.2130475143989
 30
0.0
  0
SEQEND
  5
21F
330
21C
100
AcDbEntity
  8
0
 62
     7
  0
ENDBLK
  5
21B
330
218
100
AcDbEntity
  8
0
100
AcDbBlockEnd
  0
BLOCK
  5
222
330
220
100
AcDbEntity
  8
0
100
AcDbBlockBegin
  2
BLOCK_71
 70
     0
 10
0.0
 20
0.0
 30
0.0
  3
BLOCK_71
  1

  0
POLYLINE
  5
224
330
220
100
AcDbEntity
  8
0
 62
     7
100
AcDb2dPolyline
 66
     1
 10
0.0
 20
0.0
 30
0.0
  0
VERTEX
  5
225
330
224
100
AcDbEntity
  8
0
 62
     7
100
AcDbVertex
100
AcDb2dVertex
 10
268.4456600937672
 20
661.2130475143989
 30
0.0
  0
VERTEX
  5
226
330
224
100
AcDbEntity
  8
0
 62
     7
100
AcDbVertex
100
AcDb2dVertex
 10
291.3457150784371
 20
661.2130475143989
 30
0.0
  0
SEQEND
  5
227
330
224
100
AcDbEntity
  8
0
 62
     7
  0
ENDBLK
  5
223
330
220
100
AcDbEntity
  8
0
100
AcDbBlockEnd
  0
BLOCK
  5
22A
330
228
100
AcDbEntity
  8
0
100
AcDbBlockBegin
  2
BLOCK_72
 70
     0
 10
0.0
 20
0.0
 30
0.0
  3
BLOCK_72
  1

  0
POLYLINE
  5
22C
330
228
100
AcDbEntity
  8
0
 62
     7
100
AcDb2dPolyline
 66
     1
 10
0.0
 20
0.0
 30
0.0
  0
VERTEX
  5
22D
330
22C
100
AcDbEntity
  8
0
 62
     7
100
AcDbVertex
100
AcDb2dVertex
 10
268.4456600937672
 20
659.7130439127862
 30
0.0
  0
VERTEX
  5
22E
330
22C
100
AcDbEntity
  8
0
 62
     7
100
AcDbVertex
100
AcDb2dVertex
 10
291.3457150784371
 20
659.7130439127862
 30
0.0
  0
SEQEND
  5
22F
330
22C
100
AcDbEntity
  8
0
 62
     7
  0
ENDBLK
  5
22B
330
228
100
AcDbEntity
  8
0
100
AcDbBlockEnd
  0
BLOCK
  5
232
330
230
100
AcDbEntity
  8
0
100
AcDbBlockBegin
  2
BLOCK_73
 70
     0
 10
0.0
 20
0.0
 30
0.0
  3
BLOCK_73
  1

  0
SPLINE
  5
234
330
230
100
AcDbEntity
  8
0
 62
     7
100
AcDbSpline
210
0.0
220
0.0
230
1.0
 70
     8
 71
     3
 72
     8
 73
     4
 74
     0
 42
0.0000000001
 43
0.0000000001
 12
1.0
 22
0.0
 32
0.0
 13
1.0
 23
0.0
 33
0.0
 40
0.0
 40
0.0
 40
0.0
 40
0.0
 40
1.0
 40
1.0
 40
1.0
 40
1.0
 10
268.4456600937672
 20
661.2130475143989
 30
0.0
 10
267.0649449040047
 20
661.2130475143989
 30
0.0
 10
265.9456540910753
 20
660.0937567014745
 30
0.0
 10
265.9456540910753
 20
658.7130415117095
 30
0.0
  0
ENDBLK
  5
233
330
230
100
AcDbEntity
  8
0
100
AcDbBlockEnd
  0
BLOCK
  5
237
330
235
100
AcDbEntity
  8
0
100
AcDbBlockBegin
  2
BLOCK_74
 70
     0
 10
0.0
 20
0.0
 30
0.0
  3
BLOCK_74
  1

  0
SPLINE
  5
239
330
235
100
AcDbEntity
  8
0
 62
     7
100
AcDbSpline
210
0.0
220
0.0
230
1.0
 70
     8
 71
     3
 72
     8
 73
     4
 74
     0
 42
0.0000000001
 43
0.0000000001
 12
1.0
 22
0.0
 32
0.0
 13
1.0
 23
0.0
 33
0.0
 40
0.0
 40
0.0
 40
0.0
 40
0.0
 40
1.0
 40
1.0
 40
1.0
 40
1.0
 10
268.4456600937672
 20
659.7130439127862
 30
0.0
 10
267.8933740178607
 20
659.7130439127862
 30
0.0
 10
267.4456576926904
 20
659.2653275876135
 30
0.0
 10
267.4456576926904
 20
658.7130415117095
 30
0.0
  0
ENDBLK
  5
238
330
235
100
AcDbEntity
  8
0
100
AcDbBlockEnd
  0
BLOCK
  5
23C
330
23A
100
AcDbEntity
  8
0
100
AcDbBlockBegin
  2
BLOCK_75
 70
     0
 10
0.0
 20
0.0
 30
0.0
  3
BLOCK_75
  1

  0
POLYLINE
  5
23E
330
23A
100
AcDbEntity
  8
0
 62
     7
100
AcDb2dPolyline
 66
     1
 10
0.0
 20
0.0
 30
0.0
  0
VERTEX
  5
23F
330
23E
100
AcDbEntity
  8
0
 62
     7
100
AcDbVertex
100
AcDb2dVertex
 10
-160.1053735603179
 20
391.2303109711441
 30
0.0
  0
VERTEX
  5
240
330
23E
100
AcDbEntity
  8
0
 62
     7
100
AcDbVertex
100
AcDb2dVertex
 10
-70.00514787826208
 20
391.2303109711441
 30
0.0
  0
SEQEND
  5
241
330
23E
100
AcDbEntity
  8
0
 62
     7
  0
ENDBLK
  5
23D
330
23A
100
AcDbEntity
  8
0
100
AcDbBlockEnd
  0
BLOCK
  5
244
330
242
100
AcDbEntity
  8
0
100
AcDbBlockBegin
  2
BLOCK_76
 70
     0
 10
0.0
 20
0.0
 30
0.0
  3
BLOCK_76
  1

  0
POLYLINE
  5
246
330
242
100
AcDbEntity
  8
0
 62
     7
100
AcDb2dPolyline
 66
     1
 10
0.0
 20
0.0
 30
0.0
  0
VERTEX
  5
247
330
246
100
AcDbEntity
  8
0
 62
     7
100
AcDbVertex
100
AcDb2dVertex
 10
291.3457150784371
 20
661.2130475143989
 30
0.0
  0
VERTEX
  5
248
330
246
100
AcDbEntity
  8
0
 62
     7
100
AcDbVertex
100
AcDb2dVertex
 10
291.3457150784371
 20
659.7130439127862
 30
0.0
  0
SEQEND
  5
249
330
246
100
AcDbEntity
  8
0
 62
     7
  0
ENDBLK
  5
245
330
242
100
AcDbEntity
  8
0
100
AcDbBlockEnd
  0
BLOCK
  5
24C
330
24A
100
AcDbEntity
  8
0
100
AcDbBlockBegin
  2
BLOCK_77
 70
     0
 10
0.0
 20
0.0
 30
0.0
  3
BLOCK_77
  1

  0
POLYLINE
  5
24E
330
24A
100
AcDbEntity
  8
0
 62
     7
100
AcDb2dPolyline
 66
     1
 10
0.0
 20
0.0
 30
0.0
  0
VERTEX
  5
24F
330
24E
100
AcDbEntity
  8
0
 62
     7
100
AcDbVertex
100
AcDb2dVertex
 10
-498.5561815328144
 20
661.2130475143989
 30
0.0
  0
VERTEX
  5
250
330
24E
100
AcDbEntity
  8
0
 62
     7
100
AcDbVertex
100
AcDb2dVertex
 10
-521.4562365174766
 20
661.2130475143989
 30
0.0
  0
SEQEND
  5
251
330
24E
100
AcDbEntity
  8
0
 62
     7
  0
ENDBLK
  5
24D
330
24A
100
AcDbEntity
  8
0
100
AcDbBlockEnd
  0
BLOCK
  5
254
330
252
100
AcDbEntity
  8
0
100
AcDbBlockBegin
  2
BLOCK_78
 70
     0
 10
0.0
 20
0.0
 30
0.0
  3
BLOCK_78
  1

  0
POLYLINE
  5
256
330
252
100
AcDbEntity
  8
0
 62
     7
100
AcDb2dPolyline
 66
     1
 10
0.0
 20
0.0
 30
0.0
  0
VERTEX
  5
257
330
256
100
AcDbEntity
  8
0
 62
     7
100
AcDbVertex
100
AcDb2dVertex
 10
-498.5561815328144
 20
659.7130439127862
 30
0.0
  0
VERTEX
  5
258
330
256
100
AcDbEntity
  8
0
 62
     7
100
AcDbVertex
100
AcDb2dVertex
 10
-521.4562365174766
 20
659.7130439127862
 30
0.0
  0
SEQEND
  5
259
330
256
100
AcDbEntity
  8
0
 62
     7
  0
ENDBLK
  5
255
330
252
100
AcDbEntity
  8
0
100
AcDbBlockEnd
  0
BLOCK
  5
25C
330
25A
100
AcDbEntity
  8
0
100
AcDbBlockBegin
  2
BLOCK_79
 70
     0
 10
0.0
 20
0.0
 30
0.0
  3
BLOCK_79
  1

  0
SPLINE
  5
25E
330
25A
100
AcDbEntity
  8
0
 62
     7
100
AcDbSpline
210
0.0
220
0.0
230
1.0
 70
     8
 71
     3
 72
     8
 73
     4
 74
     0
 42
0.0000000001
 43
0.0000000001
 12
1.0
 22
0.0
 32
0.0
 13
1.0
 23
0.0
 33
0.0
 40
0.0
 40
0.0
 40
0.0
 40
0.0
 40
1.0
 40
1.0
 40
1.0
 40
1.0
 10
-496.0561755301224
 20
658.7130415117095
 30
0.0
 10
-496.0561755301224
 20
660.0937567014745
 30
0.0
 10
-497.1754663430519
 20
661.2130475143989
 30
0.0
 10
-498.5561815328144
 20
661.2130475143989
 30
0.0
  0
ENDBLK
  5
25D
330
25A
100
AcDbEntity
  8
0
100
AcDbBlockEnd
  0
BLOCK
  5
261
330
25F
100
AcDbEntity
  8
0
100
AcDbBlockBegin
  2
BLOCK_80
 70
     0
 10
0.0
 20
0.0
 30
0.0
  3
BLOCK_80
  1

  0
SPLINE
  5
263
330
25F
100
AcDbEntity
  8
0
 62
     7
100
AcDbSpline
210
0.0
220
0.0
230
1.0
 70
     8
 71
     3
 72
     8
 73
     4
 74
     0
 42
0.0000000001
 43
0.0000000001
 12
1.0
 22
0.0
 32
0.0
 13
1.0
 23
0.0
 33
0.0
 40
0.0
 40
0.0
 40
0.0
 40
0.0
 40
1.0
 40
1.0
 40
1.0
 40
1.0
 10
-497.5561791317376
 20
658.7130415117095
 30
0.0
 10
-497.5561791317376
 20
659.2653275876135
 30
0.0
 10
-498.0038954569027
 20
659.7130439127862
 30
0.0
 10
-498.5561815328144
 20
659.7130439127862
 30
0.0
  0
ENDBLK
  5
262
330
25F
100
AcDbEntity
  8
0
100
AcDbBlockEnd
  0
BLOCK
  5
266
330
264
100
AcDbEntity
  8
0
100
AcDbBlockBegin
  2
BLOCK_81
 70
     0
 10
0.0
 20
0.0
 30
0.0
  3
BLOCK_81
  1

  0
POLYLINE
  5
268
330
264
100
AcDbEntity
  8
0
 62
     7
100
AcDb2dPolyline
 66
     1
 10
0.0
 20
0.0
 30
0.0
  0
VERTEX
  5
269
330
268
100
AcDbEntity
  8
0
 62
     7
100
AcDbVertex
100
AcDb2dVertex
 10
-521.4562365174766
 20
661.2130475143989
 30
0.0
  0
VERTEX
  5
26A
330
268
100
AcDbEntity
  8
0
 62
     7
100
AcDbVertex
100
AcDb2dVertex
 10
-521.4562365174766
 20
659.7130439127862
 30
0.0
  0
SEQEND
  5
26B
330
268
100
AcDbEntity
  8
0
 62
     7
  0
ENDBLK
  5
267
330
264
100
AcDbEntity
  8
0
100
AcDbBlockEnd
  0
BLOCK
  5
26E
330
26C
100
AcDbEntity
  8
0
100
AcDbBlockBegin
  2
BLOCK_82
 70
     0
 10
0.0
 20
0.0
 30
0.0
  3
BLOCK_82
  1

  0
POLYLINE
  5
270
330
26C
100
AcDbEntity
  8
0
 62
     7
100
AcDb2dPolyline
 66
     1
 10
0.0
 20
0.0
 30
0.0
  0
VERTEX
  5
271
330
270
100
AcDbEntity
  8
0
 62
     7
100
AcDbVertex
100
AcDb2dVertex
 10
801.143572475002
 20
248.1236387758437
 30
0.0
  0
VERTEX
  5
272
330
270
100
AcDbEntity
  8
0
 62
     7
100
AcDbVertex
100
AcDb2dVertex
 10
801.143572475002
 20
-188.677410014651
 30
0.0
  0
SEQEND
  5
273
330
270
100
AcDbEntity
  8
0
 62
     7
  0
ENDBLK
  5
26F
330
26C
100
AcDbEntity
  8
0
100
AcDbBlockEnd
  0
BLOCK
  5
276
330
274
100
AcDbEntity
  8
0
100
AcDbBlockBegin
  2
BLOCK_83
 70
     0
 10
0.0
 20
0.0
 30
0.0
  3
BLOCK_83
  1

  0
POLYLINE
  5
278
330
274
100
AcDbEntity
  8
0
 62
     7
100
AcDb2dPolyline
 66
     1
 10
0.0
 20
0.0
 30
0.0
  0
VERTEX
  5
279
330
278
100
AcDbEntity
  8
0
 62
     7
100
AcDbVertex
100
AcDb2dVertex
 10
801.143572475002
 20
-188.677410014651
 30
0.0
  0
VERTEX
  5
27A
330
278
100
AcDbEntity
  8
0
 62
     7
100
AcDbVertex
100
AcDb2dVertex
 10
801.143572475002
 20
-211.5774649992979
 30
0.0
  0
SEQEND
  5
27B
330
278
100
AcDbEntity
  8
0
 62
     7
  0
ENDBLK
  5
277
330
274
100
AcDbEntity
  8
0
100
AcDbBlockEnd
  0
BLOCK
  5
27E
330
27C
100
AcDbEntity
  8
0
100
AcDbBlockBegin
  2
BLOCK_84
 70
     0
 10
0.0
 20
0.0
 30
0.0
  3
BLOCK_84
  1

  0
POLYLINE
  5
280
330
27C
100
AcDbEntity
  8
0
 62
     7
100
AcDb2dPolyline
 66
     1
 10
0.0
 20
0.0
 30
0.0
  0
VERTEX
  5
281
330
280
100
AcDbEntity
  8
0
 62
     7
100
AcDbVertex
100
AcDb2dVertex
 10
799.6435688733816
 20
-188.677410014651
 30
0.0
  0
VERTEX
  5
282
330
280
100
AcDbEntity
  8
0
 62
     7
100
AcDbVertex
100
AcDb2dVertex
 10
799.6435688733816
 20
-211.5774649992979
 30
0.0
  0
SEQEND
  5
283
330
280
100
AcDbEntity
  8
0
 62
     7
  0
ENDBLK
  5
27F
330
27C
100
AcDbEntity
  8
0
100
AcDbBlockEnd
  0
BLOCK
  5
286
330
284
100
AcDbEntity
  8
0
100
AcDbBlockBegin
  2
BLOCK_85
 70
     0
 10
0.0
 20
0.0
 30
0.0
  3
BLOCK_85
  1

  0
SPLINE
  5
288
330
284
100
AcDbEntity
  8
0
 62
     7
100
AcDbSpline
210
0.0
220
0.0
230
1.0
 70
     8
 71
     3
 72
     8
 73
     4
 74
     0
 42
0.0000000001
 43
0.0000000001
 12
1.0
 22
0.0
 32
0.0
 13
1.0
 23
0.0
 33
0.0
 40
0.0
 40
0.0
 40
0.0
 40
0.0
 40
1.0
 40
1.0
 40
1.0
 40
1.0
 10
801.143572475002
 20
-188.677410014651
 30
0.0
 10
801.143572475002
 20
-187.2966948248655
 30
0.0
 10
800.0242816620878
 20
-186.1774040119463
 30
0.0
 10
798.6435664723125
 20
-186.1774040119463
 30
0.0
  0
ENDBLK
  5
287
330
284
100
AcDbEntity
  8
0
100
AcDbBlockEnd
  0
BLOCK
  5
28B
330
289
100
AcDbEntity
  8
0
100
AcDbBlockBegin
  2
BLOCK_86
 70
     0
 10
0.0
 20
0.0
 30
0.0
  3
BLOCK_86
  1

  0
SPLINE
  5
28D
330
289
100
AcDbEntity
  8
0
 62
     7
100
AcDbSpline
210
0.0
220
0.0
230
1.0
 70
     8
 71
     3
 72
     8
 73
     4
 74
     0
 42
0.0000000001
 43
0.0000000001
 12
1.0
 22
0.0
 32
0.0
 13
1.0
 23
0.0
 33
0.0
 40
0.0
 40
0.0
 40
0.0
 40
0.0
 40
1.0
 40
1.0
 40
1.0
 40
1.0
 10
799.6435688733816
 20
-188.677410014651
 30
0.0
 10
799.6435688733816
 20
-188.1251239387368
 30
0.0
 10
799.1958525482216
 20
-187.6774076135666
 30
0.0
 10
798.6435664723125
 20
-187.6774076135666
 30
0.0
  0
ENDBLK
  5
28C
330
289
100
AcDbEntity
  8
0
100
AcDbBlockEnd
  0
BLOCK
  5
290
330
28E
100
AcDbEntity
  8
0
100
AcDbBlockBegin
  2
BLOCK_87
 70
     0
 10
0.0
 20
0.0
 30
0.0
  3
BLOCK_87
  1

  0
POLYLINE
  5
292
330
28E
100
AcDbEntity
  8
0
 62
     7
100
AcDb2dPolyline
 66
     1
 10
0.0
 20
0.0
 30
0.0
  0
VERTEX
  5
293
330
292
100
AcDbEntity
  8
0
 62
     7
100
AcDbVertex
100
AcDb2dVertex
 10
531.1608359317497
 20
173.6234645678424
 30
0.0
  0
VERTEX
  5
294
330
292
100
AcDbEntity
  8
0
 62
     7
100
AcDbVertex
100
AcDb2dVertex
 10
531.1608359317497
 20
87.6232487302049
 30
0.0
  0
SEQEND
  5
295
330
292
100
AcDbEntity
  8
0
 62
     7
  0
ENDBLK
  5
291
330
28E
100
AcDbEntity
  8
0
100
AcDbBlockEnd
  0
BLOCK
  5
298
330
296
100
AcDbEntity
  8
0
100
AcDbBlockBegin
  2
BLOCK_88
 70
     0
 10
0.0
 20
0.0
 30
0.0
  3
BLOCK_88
  1

  0
POLYLINE
  5
29A
330
296
100
AcDbEntity
  8
0
 62
     7
100
AcDb2dPolyline
 66
     1
 10
0.0
 20
0.0
 30
0.0
  0
VERTEX
  5
29B
330
29A
100
AcDbEntity
  8
0
 62
     7
100
AcDbVertex
100
AcDb2dVertex
 10
801.143572475002
 20
-211.5774649992979
 30
0.0
  0
VERTEX
  5
29C
330
29A
100
AcDbEntity
  8
0
 62
     7
100
AcDbVertex
100
AcDb2dVertex
 10
799.6435688733816
 20
-211.5774649992979
 30
0.0
  0
SEQEND
  5
29D
330
29A
100
AcDbEntity
  8
0
 62
     7
  0
ENDBLK
  5
299
330
296
100
AcDbEntity
  8
0
100
AcDbBlockEnd
  0
BLOCK
  5
2A0
330
29E
100
AcDbEntity
  8
0
100
AcDbBlockBegin
  2
BLOCK_89
 70
     0
 10
0.0
 20
0.0
 30
0.0
  3
BLOCK_89
  1

  0
POLYLINE
  5
2A2
330
29E
100
AcDbEntity
  8
0
 62
     7
100
AcDb2dPolyline
 66
     1
 10
0.0
 20
0.0
 30
0.0
  0
VERTEX
  5
2A3
330
2A2
100
AcDbEntity
  8
0
 62
     7
100
AcDbVertex
100
AcDb2dVertex
 10
801.143572475002
 20
248.1236387758437
 30
0.0
  0
VERTEX
  5
2A4
330
2A2
100
AcDbEntity
  8
0
 62
     7
100
AcDbVertex
100
AcDb2dVertex
 10
801.143572475002
 20
271.0236937604982
 30
0.0
  0
SEQEND
  5
2A5
330
2A2
100
AcDbEntity
  8
0
 62
     7
  0
ENDBLK
  5
2A1
330
29E
100
AcDbEntity
  8
0
100
AcDbBlockEnd
  0
BLOCK
  5
2A8
330
2A6
100
AcDbEntity
  8
0
100
AcDbBlockBegin
  2
BLOCK_90
 70
     0
 10
0.0
 20
0.0
 30
0.0
  3
BLOCK_90
  1

  0
POLYLINE
  5
2AA
330
2A6
100
AcDbEntity
  8
0
 62
     7
100
AcDb2dPolyline
 66
     1
 10
0.0
 20
0.0
 30
0.0
  0
VERTEX
  5
2AB
330
2AA
100
AcDbEntity
  8
0
 62
     7
100
AcDbVertex
100
AcDb2dVertex
 10
799.6435688733816
 20
248.1236387758437
 30
0.0
  0
VERTEX
  5
2AC
330
2AA
100
AcDbEntity
  8
0
 62
     7
100
AcDbVertex
100
AcDb2dVertex
 10
799.6435688733816
 20
271.0236937604982
 30
0.0
  0
SEQEND
  5
2AD
330
2AA
100
AcDbEntity
  8
0
 62
     7
  0
ENDBLK
  5
2A9
330
2A6
100
AcDbEntity
  8
0
100
AcDbBlockEnd
  0
BLOCK
  5
2B0
330
2AE
100
AcDbEntity
  8
0
100
AcDbBlockBegin
  2
BLOCK_91
 70
     0
 10
0.0
 20
0.0
 30
0.0
  3
BLOCK_91
  1

  0
SPLINE
  5
2B2
330
2AE
100
AcDbEntity
  8
0
 62
     7
100
AcDbSpline
210
0.0
220
0.0
230
1.0
 70
     8
 71
     3
 72
     8
 73
     4
 74
     0
 42
0.0000000001
 43
0.0000000001
 12
1.0
 22
0.0
 32
0.0
 13
1.0
 23
0.0
 33
0.0
 40
0.0
 40
0.0
 40
0.0
 40
0.0
 40
1.0
 40
1.0
 40
1.0
 40
1.0
 10
798.6435664723125
 20
245.6236327731415
 30
0.0
 10
800.0242816620878
 20
245.6236327731415
 30
0.0
 10
801.143572475002
 20
246.742923586071
 30
0.0
 10
801.143572475002
 20
248.1236387758437
 30
0.0
  0
ENDBLK
  5
2B1
330
2AE
100
AcDbEntity
  8
0
100
AcDbBlockEnd
  0
BLOCK
  5
2B5
330
2B3
100
AcDbEntity
  8
0
100
AcDbBlockBegin
  2
BLOCK_92
 70
     0
 10
0.0
 20
0.0
 30
0.0
  3
BLOCK_92
  1

  0
SPLINE
  5
2B7
330
2B3
100
AcDbEntity
  8
0
 62
     7
100
AcDbSpline
210
0.0
220
0.0
230
1.0
 70
     8
 71
     3
 72
     8
 73
     4
 74
     0
 42
0.0000000001
 43
0.0000000001
 12
1.0
 22
0.0
 32
0.0
 13
1.0
 23
0.0
 33
0.0
 40
0.0
 40
0.0
 40
0.0
 40
0.0
 40
1.0
 40
1.0
 40
1.0
 40
1.0
 10
798.6435664723125
 20
247.1236363747566
 30
0.0
 10
799.1958525482216
 20
247.1236363747566
 30
0.0
 10
799.6435688733816
 20
247.5713526999294
 30
0.0
 10
799.6435688733816
 20
248.1236387758437
 30
0.0
  0
ENDBLK
  5
2B6
330
2B3
100
AcDbEntity
  8
0
100
AcDbBlockEnd
  0
BLOCK
  5
2BA
330
2B8
100
AcDbEntity
  8
0
100
AcDbBlockBegin
  2
BLOCK_93
 70
     0
 10
0.0
 20
0.0
 30
0.0
  3
BLOCK_93
  1

  0
POLYLINE
  5
2BC
330
2B8
100
AcDbEntity
  8
0
 62
     7
100
AcDb2dPolyline
 66
     1
 10
0.0
 20
0.0
 30
0.0
  0
VERTEX
  5
2BD
330
2BC
100
AcDbEntity
  8
0
 62
     7
100
AcDbVertex
100
AcDb2dVertex
 10
801.143572475002
 20
271.0236937604982
 30
0.0
  0
VERTEX
  5
2BE
330
2BC
100
AcDbEntity
  8
0
 62
     7
100
AcDbVertex
100
AcDb2dVertex
 10
799.6435688733816
 20
271.0236937604982
 30
0.0
  0
SEQEND
  5
2BF
330
2BC
100
AcDbEntity
  8
0
 62
     7
  0
ENDBLK
  5
2BB
330
2B8
100
AcDbEntity
  8
0
100
AcDbBlockEnd
  0
BLOCK
  5
2C2
330
2C0
100
AcDbEntity
  8
0
100
AcDbBlockBegin
  2
BLOCK_94
 70
     0
 10
0.0
 20
0.0
 30
0.0
  3
BLOCK_94
  1

  0
POLYLINE
  5
2C4
330
2C0
100
AcDbEntity
  8
0
 62
     7
100
AcDb2dPolyline
 66
     1
 10
0.0
 20
0.0
 30
0.0
  0
VERTEX
  5
2C5
330
2C4
100
AcDbEntity
  8
0
 62
     7
100
AcDbVertex
100
AcDb2dVertex
 10
-203.1199481921603
 20
146.9627438292443
 30
0.0
  0
VERTEX
  5
2C6
330
2C4
100
AcDbEntity
  8
0
 62
     7
100
AcDbVertex
100
AcDb2dVertex
 10
-516.3883376224206
 20
235.623608762366
 30
0.0
  0
SEQEND
  5
2C7
330
2C4
100
AcDbEntity
  8
0
 62
     7
  0
ENDBLK
  5
2C3
330
2C0
100
AcDbEntity
  8
0
100
AcDbBlockEnd
  0
BLOCK
  5
2CA
330
2C8
100
AcDbEntity
  8
0
100
AcDbBlockBegin
  2
BLOCK_95
 70
     0
 10
0.0
 20
0.0
 30
0.0
  3
BLOCK_95
  1

  0
POLYLINE
  5
2CC
330
2C8
100
AcDbEntity
  8
0
 62
     7
100
AcDb2dPolyline
 66
     1
 10
0.0
 20
0.0
 30
0.0
  0
VERTEX
  5
2CD
330
2CC
100
AcDbEntity
  8
0
 62
     7
100
AcDbVertex
100
AcDb2dVertex
 10
-191.6255679428947
 20
92.38654921089052
 30
0.0
  0
VERTEX
  5
2CE
330
2CC
100
AcDbEntity
  8
0
 62
     7
100
AcDbVertex
100
AcDb2dVertex
 10
-516.3883376224206
 20
-176.1773800011708
 30
0.0
  0
SEQEND
  5
2CF
330
2CC
100
AcDbEntity
  8
0
 62
     7
  0
ENDBLK
  5
2CB
330
2C8
100
AcDbEntity
  8
0
100
AcDbBlockEnd
  0
BLOCK
  5
2D2
330
2D0
100
AcDbEntity
  8
0
100
AcDbBlockBegin
  2
BLOCK_96
 70
     0
 10
0.0
 20
0.0
 30
0.0
  3
BLOCK_96
  1

  0
POLYLINE
  5
2D4
330
2D0
100
AcDbEntity
  8
0
 62
     7
100
AcDb2dPolyline
 66
     1
 10
0.0
 20
0.0
 30
0.0
  0
VERTEX
  5
2D5
330
2D4
100
AcDbEntity
  8
0
 62
     7
100
AcDbVertex
100
AcDb2dVertex
 10
-87.65494545352699
 20
146.9627438292443
 30
0.0
  0
VERTEX
  5
2D6
330
2D4
100
AcDbEntity
  8
0
 62
     7
100
AcDbVertex
100
AcDb2dVertex
 10
225.6134439767436
 20
235.623608762366
 30
0.0
  0
SEQEND
  5
2D7
330
2D4
100
AcDbEntity
  8
0
 62
     7
  0
ENDBLK
  5
2D3
330
2D0
100
AcDbEntity
  8
0
100
AcDbBlockEnd
  0
BLOCK
  5
2DA
330
2D8
100
AcDbEntity
  8
0
100
AcDbBlockBegin
  2
BLOCK_97
 70
     0
 10
0.0
 20
0.0
 30
0.0
  3
BLOCK_97
  1

  0
POLYLINE
  5
2DC
330
2D8
100
AcDbEntity
  8
0
 62
     7
100
AcDb2dPolyline
 66
     1
 10
0.0
 20
0.0
 30
0.0
  0
VERTEX
  5
2DD
330
2DC
100
AcDbEntity
  8
0
 62
     7
100
AcDbVertex
100
AcDb2dVertex
 10
-99.1493257027772
 20
92.38654921089052
 30
0.0
  0
VERTEX
  5
2DE
330
2DC
100
AcDbEntity
  8
0
 62
     7
100
AcDbVertex
100
AcDb2dVertex
 10
225.6134439767436
 20
-176.1773800011708
 30
0.0
  0
SEQEND
  5
2DF
330
2DC
100
AcDbEntity
  8
0
 62
     7
  0
ENDBLK
  5
2DB
330
2D8
100
AcDbEntity
  8
0
100
AcDbBlockEnd
  0
BLOCK
  5
2E2
330
2E0
100
AcDbEntity
  8
0
100
AcDbBlockBegin
  2
BLOCK_98
 70
     0
 10
0.0
 20
0.0
 30
0.0
  3
BLOCK_98
  1

  0
SPLINE
  5
2E4
330
2E0
100
AcDbEntity
  8
0
 62
     7
100
AcDbSpline
210
0.0
220
0.0
230
1.0
 70
    11
 71
     3
 72
    20
 73
    16
 74
     0
 42
0.0000000001
 43
0.0000000001
 12
1.0
 22
0.0
 32
0.0
 13
1.0
 23
0.0
 33
0.0
 40
0.0
 40
0.0
 40
0.0
 40
0.0
 40
1.0
 40
1.0
 40
1.0
 40
2.0
 40
2.0
 40
2.0
 40
3.0
 40
3.0
 40
3.0
 40
4.0
 40
4.0
 40
4.0
 40
5.0
 40
5.0
 40
5.0
 40
5.0
 10
-191.3875572724022
 20
130.6233566492765
 30
0.0
 10
-191.3875572724022
 20
156.0285161410838
 30
0.0
 10
-170.7926063146574
 20
176.6234670988235
 30
0.0
 10
-145.3874468228526
 20
176.6234670988235
 30
0.0
 10
-119.9822873310376
 20
176.6234670988235
 30
0.0
 10
-99.38733637330304
 20
156.0285161410838
 30
0.0
 10
-99.38733637330304
 20
130.6233566492765
 30
0.0
 10
-99.38733637330304
 20
105.2181971574563
 30
0.0
 10
-119.9822873310376
 20
84.62324619972688
 30
0.0
 10
-145.3874468228526
 20
84.62324619972688
 30
0.0
 10
-170.7926063146574
 20
84.62324619972688
 30
0.0
 10
-191.3875572724022
 20
105.2181971574563
 30
0.0
 10
-191.3875572724022
 20
130.6233566492765
 30
0.0
 10
-191.3875572724022
 20
130.6233566492765
 30
0.0
 10
-191.3875572724022
 20
130.6233566492765
 30
0.0
 10
-191.3875572724022
 20
130.6233566492765
 30
0.0
  0
ENDBLK
  5
2E3
330
2E0
100
AcDbEntity
  8
0
100
AcDbBlockEnd
  0
BLOCK
  5
2E7
330
2E5
100
AcDbEntity
  8
0
100
AcDbBlockBegin
  2
BLOCK_99
 70
     0
 10
0.0
 20
0.0
 30
0.0
  3
BLOCK_99
  1

  0
POLYLINE
  5
2E9
330
2E5
100
AcDbEntity
  8
0
 62
     7
100
AcDb2dPolyline
 66
     1
 10
0.0
 20
0.0
 30
0.0
  0
VERTEX
  5
2EA
330
2E9
100
AcDbEntity
  8
0
 62
     7
100
AcDbVertex
100
AcDb2dVertex
 10
534.0705528012898
 20
184.8033723356774
 30
0.0
  0
VERTEX
  5
2EB
330
2E9
100
AcDbEntity
  8
0
 62
     7
100
AcDbVertex
100
AcDb2dVertex
 10
534.0705528012898
 20
76.44334096244943
 30
0.0
  0
SEQEND
  5
2EC
330
2E9
100
AcDbEntity
  8
0
 62
     7
  0
ENDBLK
  5
2E8
330
2E5
100
AcDbEntity
  8
0
100
AcDbBlockEnd
  0
BLOCK
  5
2EF
330
2ED
100
AcDbEntity
  8
0
100
AcDbBlockBegin
  2
BLOCK_100
 70
     0
 10
0.0
 20
0.0
 30
0.0
  3
BLOCK_100
  1

  0
POLYLINE
  5
2F1
330
2ED
100
AcDbEntity
  8
0
 62
     1
100
AcDb2dPolyline
 66
     1
 10
0.0
 20
0.0
 30
0.0
  0
VERTEX
  5
2F2
330
2F1
100
AcDbEntity
  8
0
 62
     1
100
AcDbVertex
100
AcDb2dVertex
 10
-69.4668196727605
 20
130.6233566492765
 30
0.0
  0
VERTEX
  5
2F3
330
2F1
100
AcDbEntity
  8
0
 62
     1
100
AcDbVertex
100
AcDb2dVertex
 10
-69.4668196727605
 20
130.6233566492765
 30
0.0
  0
SEQEND
  5
2F4
330
2F1
100
AcDbEntity
  8
0
 62
     1
  0
ENDBLK
  5
2F0
330
2ED
100
AcDbEntity
  8
0
100
AcDbBlockEnd
  0
BLOCK
  5
2F7
330
2F5
100
AcDbEntity
  8
0
100
AcDbBlockBegin
  2
BLOCK_101
 70
     0
 10
0.0
 20
0.0
 30
0.0
  3
BLOCK_101
  1

  0
POLYLINE
  5
2F9
330
2F5
100
AcDbEntity
  8
0
 62
     1
100
AcDb2dPolyline
 66
     1
 10
0.0
 20
0.0
 30
0.0
  0
VERTEX
  5
2FA
330
2F9
100
AcDbEntity
  8
0
 62
     1
100
AcDbVertex
100
AcDb2dVertex
 10
-12.1826064569736
 20
245.6236327731415
 30
0.0
  0
VERTEX
  5
2FB
330
2F9
100
AcDbEntity
  8
0
 62
     1
100
AcDbVertex
100
AcDb2dVertex
 10
-12.1826064569736
 20
245.6236327731415
 30
0.0
  0
SEQEND
  5
2FC
330
2F9
100
AcDbEntity
  8
0
 62
     1
  0
ENDBLK
  5
2F8
330
2F5
100
AcDbEntity
  8
0
100
AcDbBlockEnd
  0
BLOCK
  5
2FF
330
2FD
100
AcDbEntity
  8
0
100
AcDbBlockBegin
  2
BLOCK_102
 70
     0
 10
0.0
 20
0.0
 30
0.0
  3
BLOCK_102
  1

  0
POLYLINE
  5
301
330
2FD
100
AcDbEntity
  8
0
 62
     1
100
AcDb2dPolyline
 66
     1
 10
0.0
 20
0.0
 30
0.0
  0
VERTEX
  5
302
330
301
100
AcDbEntity
  8
0
 62
     1
100
AcDbVertex
100
AcDb2dVertex
 10
119.2948971905029
 20
245.6236327731415
 30
0.0
  0
VERTEX
  5
303
330
301
100
AcDbEntity
  8
0
 62
     1
100
AcDbVertex
100
AcDb2dVertex
 10
119.2948971905029
 20
245.6236327731415
 30
0.0
  0
SEQEND
  5
304
330
301
100
AcDbEntity
  8
0
 62
     1
  0
ENDBLK
  5
300
330
2FD
100
AcDbEntity
  8
0
100
AcDbBlockEnd
  0
BLOCK
  5
307
330
305
100
AcDbEntity
  8
0
100
AcDbBlockBegin
  2
BLOCK_103
 70
     0
 10
0.0
 20
0.0
 30
0.0
  3
BLOCK_103
  1

  0
POLYLINE
  5
309
330
305
100
AcDbEntity
  8
0
 62
     1
100
AcDb2dPolyline
 66
     1
 10
0.0
 20
0.0
 30
0.0
  0
VERTEX
  5
30A
330
309
100
AcDbEntity
  8
0
 62
     1
100
AcDbVertex
100
AcDb2dVertex
 10
-185.5070069219433
 20
108.1193334793798
 30
0.0
  0
VERTEX
  5
30B
330
309
100
AcDbEntity
  8
0
 62
     1
100
AcDbVertex
100
AcDb2dVertex
 10
-185.5070069219433
 20
108.1193334793798
 30
0.0
  0
SEQEND
  5
30C
330
309
100
AcDbEntity
  8
0
 62
     1
  0
ENDBLK
  5
308
330
305
100
AcDbEntity
  8
0
100
AcDbBlockEnd
  0
BLOCK
  5
30F
330
30D
100
AcDbEntity
  8
0
100
AcDbBlockBegin
  2
BLOCK_104
 70
     0
 10
0.0
 20
0.0
 30
0.0
  3
BLOCK_104
  1

  0
POLYLINE
  5
311
330
30D
100
AcDbEntity
  8
0
 62
     1
100
AcDb2dPolyline
 66
     1
 10
0.0
 20
0.0
 30
0.0
  0
VERTEX
  5
312
330
311
100
AcDbEntity
  8
0
 62
     1
100
AcDbVertex
100
AcDb2dVertex
 10
-105.2678867239262
 20
153.1273798191885
 30
0.0
  0
VERTEX
  5
313
330
311
100
AcDbEntity
  8
0
 62
     1
100
AcDbVertex
100
AcDb2dVertex
 10
-105.2678867239262
 20
153.1273798191885
 30
0.0
  0
SEQEND
  5
314
330
311
100
AcDbEntity
  8
0
 62
     1
  0
ENDBLK
  5
310
330
30D
100
AcDbEntity
  8
0
100
AcDbBlockEnd
  0
BLOCK
  5
317
330
315
100
AcDbEntity
  8
0
100
AcDbBlockBegin
  2
BLOCK_105
 70
     0
 10
0.0
 20
0.0
 30
0.0
  3
BLOCK_105
  1

  0
POLYLINE
  5
319
330
315
100
AcDbEntity
  8
0
 62
     1
100
AcDb2dPolyline
 66
     1
 10
0.0
 20
0.0
 30
0.0
  0
VERTEX
  5
31A
330
319
100
AcDbEntity
  8
0
 62
     1
100
AcDbVertex
100
AcDb2dVertex
 10
-506.8208437185577
 20
-173.2681635060464
 30
0.0
  0
VERTEX
  5
31B
330
319
100
AcDbEntity
  8
0
 62
     1
100
AcDbVertex
100
AcDb2dVertex
 10
-506.8208437185577
 20
-173.2681635060464
 30
0.0
  0
SEQEND
  5
31C
330
319
100
AcDbEntity
  8
0
 62
     1
  0
ENDBLK
  5
318
330
315
100
AcDbEntity
  8
0
100
AcDbBlockEnd
  0
BLOCK
  5
31F
330
31D
100
AcDbEntity
  8
0
100
AcDbBlockBegin
  2
BLOCK_106
 70
     0
 10
0.0
 20
0.0
 30
0.0
  3
BLOCK_106
  1

  0
POLYLINE
  5
321
330
31D
100
AcDbEntity
  8
0
 62
     1
100
AcDb2dPolyline
 66
     1
 10
0.0
 20
0.0
 30
0.0
  0
VERTEX
  5
322
330
321
100
AcDbEntity
  8
0
 62
     1
100
AcDbVertex
100
AcDb2dVertex
 10
-516.3883376223282
 20
-176.1773800011554
 30
0.0
  0
VERTEX
  5
323
330
321
100
AcDbEntity
  8
0
 62
     1
100
AcDbVertex
100
AcDb2dVertex
 10
-516.3883376223282
 20
-176.1773800011554
 30
0.0
  0
SEQEND
  5
324
330
321
100
AcDbEntity
  8
0
 62
     1
  0
ENDBLK
  5
320
330
31D
100
AcDbEntity
  8
0
100
AcDbBlockEnd
  0
BLOCK
  5
327
330
325
100
AcDbEntity
  8
0
100
AcDbBlockBegin
  2
BLOCK_107
 70
     0
 10
0.0
 20
0.0
 30
0.0
  3
BLOCK_107
  1

  0
POLYLINE
  5
329
330
325
100
AcDbEntity
  8
0
 62
     1
100
AcDb2dPolyline
 66
     1
 10
0.0
 20
0.0
 30
0.0
  0
VERTEX
  5
32A
330
329
100
AcDbEntity
  8
0
 62
     1
100
AcDbVertex
100
AcDb2dVertex
 10
-477.105770905619
 20
423.1654112137595
 30
0.0
  0
VERTEX
  5
32B
330
329
100
AcDbEntity
  8
0
 62
     1
100
AcDbVertex
100
AcDb2dVertex
 10
-477.105770905619
 20
423.1654112137595
 30
0.0
  0
SEQEND
  5
32C
330
329
100
AcDbEntity
  8
0
 62
     1
  0
ENDBLK
  5
328
330
325
100
AcDbEntity
  8
0
100
AcDbBlockEnd
  0
BLOCK
  5
32F
330
32D
100
AcDbEntity
  8
0
100
AcDbBlockBegin
  2
BLOCK_108
 70
     0
 10
0.0
 20
0.0
 30
0.0
  3
BLOCK_108
  1

  0
POLYLINE
  5
331
330
32D
100
AcDbEntity
  8
0
 62
     1
100
AcDb2dPolyline
 66
     1
 10
0.0
 20
0.0
 30
0.0
  0
VERTEX
  5
332
330
331
100
AcDbEntity
  8
0
 62
     1
100
AcDbVertex
100
AcDb2dVertex
 10
-486.0561515192931
 20
418.7054597471221
 30
0.0
  0
VERTEX
  5
333
330
331
100
AcDbEntity
  8
0
 62
     1
100
AcDbVertex
100
AcDb2dVertex
 10
-486.0561515192931
 20
418.7054597471221
 30
0.0
  0
SEQEND
  5
334
330
331
100
AcDbEntity
  8
0
 62
     1
  0
ENDBLK
  5
330
330
32D
100
AcDbEntity
  8
0
100
AcDbBlockEnd
  0
BLOCK
  5
337
330
335
100
AcDbEntity
  8
0
100
AcDbBlockBegin
  2
BLOCK_109
 70
     0
 10
0.0
 20
0.0
 30
0.0
  3
BLOCK_109
  1

  0
POLYLINE
  5
339
330
335
100
AcDbEntity
  8
0
 62
     1
100
AcDb2dPolyline
 66
     1
 10
0.0
 20
0.0
 30
0.0
  0
VERTEX
  5
33A
330
339
100
AcDbEntity
  8
0
 62
     1
100
AcDbVertex
100
AcDb2dVertex
 10
-521.4562365174766
 20
661.2130475143989
 30
0.0
  0
VERTEX
  5
33B
330
339
100
AcDbEntity
  8
0
 62
     1
100
AcDbVertex
100
AcDb2dVertex
 10
-521.4562365174766
 20
661.2130475143989
 30
0.0
  0
SEQEND
  5
33C
330
339
100
AcDbEntity
  8
0
 62
     1
  0
ENDBLK
  5
338
330
335
100
AcDbEntity
  8
0
100
AcDbBlockEnd
  0
BLOCK
  5
33F
330
33D
100
AcDbEntity
  8
0
100
AcDbBlockBegin
  2
BLOCK_110
 70
     0
 10
0.0
 20
0.0
 30
0.0
  3
BLOCK_110
  1

  0
POLYLINE
  5
341
330
33D
100
AcDbEntity
  8
0
 62
     1
100
AcDb2dPolyline
 66
     1
 10
0.0
 20
0.0
 30
0.0
  0
VERTEX
  5
342
330
341
100
AcDbEntity
  8
0
 62
     1
100
AcDbVertex
100
AcDb2dVertex
 10
-486.4574966950796
 20
407.2124376408238
 30
0.0
  0
VERTEX
  5
343
330
341
100
AcDbEntity
  8
0
 62
     1
100
AcDbVertex
100
AcDb2dVertex
 10
-486.4574966950796
 20
407.2124376408238
 30
0.0
  0
SEQEND
  5
344
330
341
100
AcDbEntity
  8
0
 62
     1
  0
ENDBLK
  5
340
330
33D
100
AcDbEntity
  8
0
100
AcDbBlockEnd
  0
BLOCK
  5
347
330
345
100
AcDbEntity
  8
0
100
AcDbBlockBegin
  2
BLOCK_111
 70
     0
 10
0.0
 20
0.0
 30
0.0
  3
BLOCK_111
  1

  0
POLYLINE
  5
349
330
345
100
AcDbEntity
  8
0
 62
     1
100
AcDb2dPolyline
 66
     1
 10
0.0
 20
0.0
 30
0.0
  0
VERTEX
  5
34A
330
349
100
AcDbEntity
  8
0
 62
     1
100
AcDbVertex
100
AcDb2dVertex
 10
-554.5624457158495
 20
407.2124376408238
 30
0.0
  0
VERTEX
  5
34B
330
349
100
AcDbEntity
  8
0
 62
     1
100
AcDbVertex
100
AcDb2dVertex
 10
-554.5624457158495
 20
407.2124376408238
 30
0.0
  0
SEQEND
  5
34C
330
349
100
AcDbEntity
  8
0
 62
     1
  0
ENDBLK
  5
348
330
345
100
AcDbEntity
  8
0
100
AcDbBlockEnd
  0
BLOCK
  5
34F
330
34D
100
AcDbEntity
  8
0
100
AcDbBlockBegin
  2
BLOCK_112
 70
     0
 10
0.0
 20
0.0
 30
0.0
  3
BLOCK_112
  1

  0
POLYLINE
  5
351
330
34D
100
AcDbEntity
  8
0
 62
     1
100
AcDb2dPolyline
 66
     1
 10
0.0
 20
0.0
 30
0.0
  0
VERTEX
  5
352
330
351
100
AcDbEntity
  8
0
 62
     1
100
AcDbVertex
100
AcDb2dVertex
 10
230.3470740167132
 20
271.0236937604982
 30
0.0
  0
VERTEX
  5
353
330
351
100
AcDbEntity
  8
0
 62
     1
100
AcDbVertex
100
AcDb2dVertex
 10
230.3470740167132
 20
271.0236937604982
 30
0.0
  0
SEQEND
  5
354
330
351
100
AcDbEntity
  8
0
 62
     1
  0
ENDBLK
  5
350
330
34D
100
AcDbEntity
  8
0
100
AcDbBlockEnd
  0
BLOCK
  5
357
330
355
100
AcDbEntity
  8
0
100
AcDbBlockBegin
  2
BLOCK_113
 70
     0
 10
0.0
 20
0.0
 30
0.0
  3
BLOCK_113
  1

  0
POLYLINE
  5
359
330
355
100
AcDbEntity
  8
0
 62
     1
100
AcDb2dPolyline
 66
     1
 10
0.0
 20
0.0
 30
0.0
  0
VERTEX
  5
35A
330
359
100
AcDbEntity
  8
0
 62
     1
100
AcDbVertex
100
AcDb2dVertex
 10
235.6134679875473
 20
-211.5774649992979
 30
0.0
  0
VERTEX
  5
35B
330
359
100
AcDbEntity
  8
0
 62
     1
100
AcDbVertex
100
AcDb2dVertex
 10
235.6134679875473
 20
-211.5774649992979
 30
0.0
  0
SEQEND
  5
35C
330
359
100
AcDbEntity
  8
0
 62
     1
  0
ENDBLK
  5
358
330
355
100
AcDbEntity
  8
0
100
AcDbBlockEnd
  0
BLOCK
  5
35F
330
35D
100
AcDbEntity
  8
0
100
AcDbBlockBegin
  2
BLOCK_114
 70
     0
 10
0.0
 20
0.0
 30
0.0
  3
BLOCK_114
  1

  0
POLYLINE
  5
361
330
35D
100
AcDbEntity
  8
0
 62
     1
100
AcDb2dPolyline
 66
     1
 10
0.0
 20
0.0
 30
0.0
  0
VERTEX
  5
362
330
361
100
AcDbEntity
  8
0
 62
     1
100
AcDbVertex
100
AcDb2dVertex
 10
397.1136016215239
 20
-211.5774649992979
 30
0.0
  0
VERTEX
  5
363
330
361
100
AcDbEntity
  8
0
 62
     1
100
AcDbVertex
100
AcDb2dVertex
 10
397.1136016215239
 20
-211.5774649992979
 30
0.0
  0
SEQEND
  5
364
330
361
100
AcDbEntity
  8
0
 62
     1
  0
ENDBLK
  5
360
330
35D
100
AcDbEntity
  8
0
100
AcDbBlockEnd
  0
BLOCK
  5
367
330
365
100
AcDbEntity
  8
0
100
AcDbBlockBegin
  2
BLOCK_115
 70
     0
 10
0.0
 20
0.0
 30
0.0
  3
BLOCK_115
  1

  0
POLYLINE
  5
369
330
365
100
AcDbEntity
  8
0
 62
     1
100
AcDb2dPolyline
 66
     1
 10
0.0
 20
0.0
 30
0.0
  0
VERTEX
  5
36A
330
369
100
AcDbEntity
  8
0
 62
     1
100
AcDbVertex
100
AcDb2dVertex
 10
-526.3883616331884
 20
-176.1773800011708
 30
0.0
  0
VERTEX
  5
36B
330
369
100
AcDbEntity
  8
0
 62
     1
100
AcDbVertex
100
AcDb2dVertex
 10
-526.3883616331884
 20
-176.1773800011708
 30
0.0
  0
SEQEND
  5
36C
330
369
100
AcDbEntity
  8
0
 62
     1
  0
ENDBLK
  5
368
330
365
100
AcDbEntity
  8
0
100
AcDbBlockEnd
  0
BLOCK
  5
36F
330
36D
100
AcDbEntity
  8
0
100
AcDbBlockBegin
  2
BLOCK_116
 70
     0
 10
0.0
 20
0.0
 30
0.0
  3
BLOCK_116
  1

  0
POLYLINE
  5
371
330
36D
100
AcDbEntity
  8
0
 62
     1
100
AcDb2dPolyline
 66
     1
 10
0.0
 20
0.0
 30
0.0
  0
VERTEX
  5
372
330
371
100
AcDbEntity
  8
0
 62
     1
100
AcDbVertex
100
AcDb2dVertex
 10
235.6134679875473
 20
-176.1773800011708
 30
0.0
  0
VERTEX
  5
373
330
371
100
AcDbEntity
  8
0
 62
     1
100
AcDbVertex
100
AcDb2dVertex
 10
235.6134679875473
 20
-176.1773800011708
 30
0.0
  0
SEQEND
  5
374
330
371
100
AcDbEntity
  8
0
 62
     1
  0
ENDBLK
  5
370
330
36D
100
AcDbEntity
  8
0
100
AcDbBlockEnd
  0
BLOCK
  5
377
330
375
100
AcDbEntity
  8
0
100
AcDbBlockBegin
  2
BLOCK_117
 70
     0
 10
0.0
 20
0.0
 30
0.0
  3
BLOCK_117
  1

  0
POLYLINE
  5
379
330
375
100
AcDbEntity
  8
0
 62
     1
100
AcDb2dPolyline
 66
     1
 10
0.0
 20
0.0
 30
0.0
  0
VERTEX
  5
37A
330
379
100
AcDbEntity
  8
0
 62
     1
100
AcDbVertex
100
AcDb2dVertex
 10
235.6134679875473
 20
-254.608046686843
 30
0.0
  0
VERTEX
  5
37B
330
379
100
AcDbEntity
  8
0
 62
     1
100
AcDbVertex
100
AcDb2dVertex
 10
235.6134679875473
 20
-254.608046686843
 30
0.0
  0
SEQEND
  5
37C
330
379
100
AcDbEntity
  8
0
 62
     1
  0
ENDBLK
  5
378
330
375
100
AcDbEntity
  8
0
100
AcDbBlockEnd
  0
BLOCK
  5
37F
330
37D
100
AcDbEntity
  8
0
100
AcDbBlockBegin
  2
BLOCK_118
 70
     0
 10
0.0
 20
0.0
 30
0.0
  3
BLOCK_118
  1

  0
POLYLINE
  5
381
330
37D
100
AcDbEntity
  8
0
 62
     1
100
AcDb2dPolyline
 66
     1
 10
0.0
 20
0.0
 30
0.0
  0
VERTEX
  5
382
330
381
100
AcDbEntity
  8
0
 62
     1
100
AcDbVertex
100
AcDb2dVertex
 10
-551.7884226205425
 20
-186.1774040119411
 30
0.0
  0
VERTEX
  5
383
330
381
100
AcDbEntity
  8
0
 62
     1
100
AcDbVertex
100
AcDb2dVertex
 10
-551.7884226205425
 20
-186.1774040119411
 30
0.0
  0
SEQEND
  5
384
330
381
100
AcDbEntity
  8
0
 62
     1
  0
ENDBLK
  5
380
330
37D
100
AcDbEntity
  8
0
100
AcDbBlockEnd
  0
BLOCK
  5
387
330
385
100
AcDbEntity
  8
0
100
AcDbBlockBegin
  2
BLOCK_119
 70
     0
 10
0.0
 20
0.0
 30
0.0
  3
BLOCK_119
  1

  0
POLYLINE
  5
389
330
385
100
AcDbEntity
  8
0
 62
     1
100
AcDb2dPolyline
 66
     1
 10
0.0
 20
0.0
 30
0.0
  0
VERTEX
  5
38A
330
389
100
AcDbEntity
  8
0
 62
     1
100
AcDbVertex
100
AcDb2dVertex
 10
261.0135289749091
 20
-186.1774040119411
 30
0.0
  0
VERTEX
  5
38B
330
389
100
AcDbEntity
  8
0
 62
     1
100
AcDbVertex
100
AcDb2dVertex
 10
261.0135289749091
 20
-186.1774040119411
 30
0.0
  0
SEQEND
  5
38C
330
389
100
AcDbEntity
  8
0
 62
     1
  0
ENDBLK
  5
388
330
385
100
AcDbEntity
  8
0
100
AcDbBlockEnd
  0
BLOCK
  5
38F
330
38D
100
AcDbEntity
  8
0
100
AcDbBlockBegin
  2
BLOCK_120
 70
     0
 10
0.0
 20
0.0
 30
0.0
  3
BLOCK_120
  1

  0
POLYLINE
  5
391
330
38D
100
AcDbEntity
  8
0
 62
     1
100
AcDb2dPolyline
 66
     1
 10
0.0
 20
0.0
 30
0.0
  0
VERTEX
  5
392
330
391
100
AcDbEntity
  8
0
 62
     1
100
AcDbVertex
100
AcDb2dVertex
 10
261.0135289749091
 20
-289.4341754005508
 30
0.0
  0
VERTEX
  5
393
330
391
100
AcDbEntity
  8
0
 62
     1
100
AcDbVertex
100
AcDb2dVertex
 10
261.0135289749091
 20
-289.4341754005508
 30
0.0
  0
SEQEND
  5
394
330
391
100
AcDbEntity
  8
0
 62
     1
  0
ENDBLK
  5
390
330
38D
100
AcDbEntity
  8
0
100
AcDbBlockEnd
  0
BLOCK
  5
397
330
395
100
AcDbEntity
  8
0
100
AcDbBlockBegin
  2
BLOCK_121
 70
     0
 10
0.0
 20
0.0
 30
0.0
  3
BLOCK_121
  1

  0
POLYLINE
  5
399
330
395
100
AcDbEntity
  8
0
 62
     1
100
AcDb2dPolyline
 66
     1
 10
0.0
 20
0.0
 30
0.0
  0
VERTEX
  5
39A
330
399
100
AcDbEntity
  8
0
 62
     1
100
AcDbVertex
100
AcDb2dVertex
 10
-209.6056462291141
 20
661.2130475143912
 30
0.0
  0
VERTEX
  5
39B
330
399
100
AcDbEntity
  8
0
 62
     1
100
AcDbVertex
100
AcDb2dVertex
 10
-209.6056462291141
 20
661.2130475143912
 30
0.0
  0
SEQEND
  5
39C
330
399
100
AcDbEntity
  8
0
 62
     1
  0
ENDBLK
  5
398
330
395
100
AcDbEntity
  8
0
100
AcDbBlockEnd
  0
BLOCK
  5
39F
330
39D
100
AcDbEntity
  8
0
100
AcDbBlockBegin
  2
BLOCK_122
 70
     0
 10
0.0
 20
0.0
 30
0.0
  3
BLOCK_122
  1

  0
POLYLINE
  5
3A1
330
39D
100
AcDbEntity
  8
0
 62
     1
100
AcDb2dPolyline
 66
     1
 10
0.0
 20
0.0
 30
0.0
  0
VERTEX
  5
3A2
330
3A1
100
AcDbEntity
  8
0
 62
     1
100
AcDbVertex
100
AcDb2dVertex
 10
801.143572475002
 20
29.7231143805976
 30
0.0
  0
VERTEX
  5
3A3
330
3A1
100
AcDbEntity
  8
0
 62
     1
100
AcDbVertex
100
AcDb2dVertex
 10
801.143572475002
 20
29.7231143805976
 30
0.0
  0
SEQEND
  5
3A4
330
3A1
100
AcDbEntity
  8
0
 62
     1
  0
ENDBLK
  5
3A0
330
39D
100
AcDbEntity
  8
0
100
AcDbBlockEnd
  0
BLOCK
  5
3A7
330
3A5
100
AcDbEntity
  8
0
100
AcDbBlockBegin
  2
BLOCK_123
 70
     0
 10
0.0
 20
0.0
 30
0.0
  3
BLOCK_123
  1

  0
POLYLINE
  5
3A9
330
3A5
100
AcDbEntity
  8
0
 62
     1
100
AcDb2dPolyline
 66
     1
 10
0.0
 20
0.0
 30
0.0
  0
VERTEX
  5
3AA
330
3A9
100
AcDbEntity
  8
0
 62
     1
100
AcDbVertex
100
AcDb2dVertex
 10
801.143572475002
 20
26.98819075064999
 30
0.0
  0
VERTEX
  5
3AB
330
3A9
100
AcDbEntity
  8
0
 62
     1
100
AcDbVertex
100
AcDb2dVertex
 10
801.143572475002
 20
26.98819075064999
 30
0.0
  0
SEQEND
  5
3AC
330
3A9
100
AcDbEntity
  8
0
 62
     1
  0
ENDBLK
  5
3A8
330
3A5
100
AcDbEntity
  8
0
100
AcDbBlockEnd
  0
BLOCK
  5
3AF
330
3AD
100
AcDbEntity
  8
0
100
AcDbBlockBegin
  2
BLOCK_124
 70
     0
 10
0.0
 20
0.0
 30
0.0
  3
BLOCK_124
  1

  0
POLYLINE
  5
3B1
330
3AD
100
AcDbEntity
  8
0
 62
     1
100
AcDb2dPolyline
 66
     1
 10
0.0
 20
0.0
 30
0.0
  0
VERTEX
  5
3B2
330
3B1
100
AcDbEntity
  8
0
 62
     1
100
AcDbVertex
100
AcDb2dVertex
 10
-73.30353576381619
 20
661.2130475143912
 30
0.0
  0
VERTEX
  5
3B3
330
3B1
100
AcDbEntity
  8
0
 62
     1
100
AcDbVertex
100
AcDb2dVertex
 10
-73.30353576381619
 20
661.2130475143912
 30
0.0
  0
SEQEND
  5
3B4
330
3B1
100
AcDbEntity
  8
0
 62
     1
  0
ENDBLK
  5
3B0
330
3AD
100
AcDbEntity
  8
0
100
AcDbBlockEnd
  0
BLOCK
  5
3B7
330
3B5
100
AcDbEntity
  8
0
100
AcDbBlockBegin
  2
BLOCK_125
 70
     0
 10
0.0
 20
0.0
 30
0.0
  3
BLOCK_125
  1

  0
POLYLINE
  5
3B9
330
3B5
100
AcDbEntity
  8
0
 62
     1
100
AcDb2dPolyline
 66
     1
 10
0.0
 20
0.0
 30
0.0
  0
VERTEX
  5
3BA
330
3B9
100
AcDbEntity
  8
0
 62
     1
100
AcDbVertex
100
AcDb2dVertex
 10
-73.30353576381619
 20
661.2130475143912
 30
0.0
  0
VERTEX
  5
3BB
330
3B9
100
AcDbEntity
  8
0
 62
     1
100
AcDbVertex
100
AcDb2dVertex
 10
-73.30353576381619
 20
661.2130475143912
 30
0.0
  0
SEQEND
  5
3BC
330
3B9
100
AcDbEntity
  8
0
 62
     1
  0
ENDBLK
  5
3B8
330
3B5
100
AcDbEntity
  8
0
100
AcDbBlockEnd
  0
BLOCK
  5
3BF
330
3BD
100
AcDbEntity
  8
0
100
AcDbBlockBegin
  2
BLOCK_126
 70
     0
 10
0.0
 20
0.0
 30
0.0
  3
BLOCK_126
  1

  0
POLYLINE
  5
3C1
330
3BD
100
AcDbEntity
  8
0
 62
     1
100
AcDb2dPolyline
 66
     1
 10
0.0
 20
0.0
 30
0.0
  0
VERTEX
  5
3C2
330
3C1
100
AcDbEntity
  8
0
 62
     1
100
AcDbVertex
100
AcDb2dVertex
 10
549.347037719359
 20
235.6236087623814
 30
0.0
  0
VERTEX
  5
3C3
330
3C1
100
AcDbEntity
  8
0
 62
     1
100
AcDbVertex
100
AcDb2dVertex
 10
549.347037719359
 20
235.6236087623814
 30
0.0
  0
SEQEND
  5
3C4
330
3C1
100
AcDbEntity
  8
0
 62
     1
  0
ENDBLK
  5
3C0
330
3BD
100
AcDbEntity
  8
0
100
AcDbBlockEnd
  0
BLOCK
  5
3C7
330
3C5
100
AcDbEntity
  8
0
100
AcDbBlockBegin
  2
BLOCK_127
 70
     0
 10
0.0
 20
0.0
 30
0.0
  3
BLOCK_127
  1

  0
POLYLINE
  5
3C9
330
3C5
100
AcDbEntity
  8
0
 62
     1
100
AcDb2dPolyline
 66
     1
 10
0.0
 20
0.0
 30
0.0
  0
VERTEX
  5
3CA
330
3C9
100
AcDbEntity
  8
0
 62
     1
100
AcDbVertex
100
AcDb2dVertex
 10
-172.303048962406
 20
395.7398706225022
 30
0.0
  0
VERTEX
  5
3CB
330
3C9
100
AcDbEntity
  8
0
 62
     1
100
AcDbVertex
100
AcDb2dVertex
 10
-172.303048962406
 20
395.7398706225022
 30
0.0
  0
SEQEND
  5
3CC
330
3C9
100
AcDbEntity
  8
0
 62
     1
  0
ENDBLK
  5
3C8
330
3C5
100
AcDbEntity
  8
0
100
AcDbBlockEnd
  0
BLOCK
  5
3CF
330
3CD
100
AcDbEntity
  8
0
100
AcDbBlockBegin
  2
BLOCK_128
 70
     0
 10
0.0
 20
0.0
 30
0.0
  3
BLOCK_128
  1

  0
POLYLINE
  5
3D1
330
3CD
100
AcDbEntity
  8
0
 62
     1
100
AcDb2dPolyline
 66
     1
 10
0.0
 20
0.0
 30
0.0
  0
VERTEX
  5
3D2
330
3D1
100
AcDbEntity
  8
0
 62
     1
100
AcDbVertex
100
AcDb2dVertex
 10
-57.80747247623564
 20
395.7398706225022
 30
0.0
  0
VERTEX
  5
3D3
330
3D1
100
AcDbEntity
  8
0
 62
     1
100
AcDbVertex
100
AcDb2dVertex
 10
-57.80747247623564
 20
395.7398706225022
 30
0.0
  0
SEQEND
  5
3D4
330
3D1
100
AcDbEntity
  8
0
 62
     1
  0
ENDBLK
  5
3D0
330
3CD
100
AcDbEntity
  8
0
100
AcDbBlockEnd
  0
BLOCK
  5
3D7
330
3D5
100
AcDbEntity
  8
0
100
AcDbBlockBegin
  2
BLOCK_129
 70
     0
 10
0.0
 20
0.0
 30
0.0
  3
BLOCK_129
  1

  0
POLYLINE
  5
3D9
330
3D5
100
AcDbEntity
  8
0
 62
     1
100
AcDb2dPolyline
 66
     1
 10
0.0
 20
0.0
 30
0.0
  0
VERTEX
  5
3DA
330
3D9
100
AcDbEntity
  8
0
 62
     1
100
AcDbVertex
100
AcDb2dVertex
 10
-57.80747247623564
 20
454.9896579490751
 30
0.0
  0
VERTEX
  5
3DB
330
3D9
100
AcDbEntity
  8
0
 62
     1
100
AcDbVertex
100
AcDb2dVertex
 10
-57.80747247623564
 20
454.9896579490751
 30
0.0
  0
SEQEND
  5
3DC
330
3D9
100
AcDbEntity
  8
0
 62
     1
  0
ENDBLK
  5
3D8
330
3D5
100
AcDbEntity
  8
0
100
AcDbBlockEnd
  0
BLOCK
  5
3DF
330
3DD
100
AcDbEntity
  8
0
100
AcDbBlockBegin
  2
BLOCK_130
 70
     0
 10
0.0
 20
0.0
 30
0.0
  3
BLOCK_130
  1

  0
POLYLINE
  5
3E1
330
3DD
100
AcDbEntity
  8
0
 62
     1
100
AcDb2dPolyline
 66
     1
 10
0.0
 20
0.0
 30
0.0
  0
VERTEX
  5
3E2
330
3E1
100
AcDbEntity
  8
0
 62
     1
100
AcDbVertex
100
AcDb2dVertex
 10
225.6134439767744
 20
245.6236327731415
 30
0.0
  0
VERTEX
  5
3E3
330
3E1
100
AcDbEntity
  8
0
 62
     1
100
AcDbVertex
100
AcDb2dVertex
 10
225.6134439767744
 20
245.6236327731415
 30
0.0
  0
SEQEND
  5
3E4
330
3E1
100
AcDbEntity
  8
0
 62
     1
  0
ENDBLK
  5
3E0
330
3DD
100
AcDbEntity
  8
0
100
AcDbBlockEnd
  0
BLOCK
  5
3E7
330
3E5
100
AcDbEntity
  8
0
100
AcDbBlockBegin
  2
BLOCK_131
 70
     0
 10
0.0
 20
0.0
 30
0.0
  3
BLOCK_131
  1

  0
POLYLINE
  5
3E9
330
3E5
100
AcDbEntity
  8
0
 62
     1
100
AcDb2dPolyline
 66
     1
 10
0.0
 20
0.0
 30
0.0
  0
VERTEX
  5
3EA
330
3E9
100
AcDbEntity
  8
0
 62
     1
100
AcDbVertex
100
AcDb2dVertex
 10
225.6134439767744
 20
-186.1774040119411
 30
0.0
  0
VERTEX
  5
3EB
330
3E9
100
AcDbEntity
  8
0
 62
     1
100
AcDbVertex
100
AcDb2dVertex
 10
225.6134439767744
 20
-186.1774040119411
 30
0.0
  0
SEQEND
  5
3EC
330
3E9
100
AcDbEntity
  8
0
 62
     1
  0
ENDBLK
  5
3E8
330
3E5
100
AcDbEntity
  8
0
100
AcDbBlockEnd
  0
BLOCK
  5
3EF
330
3ED
100
AcDbEntity
  8
0
100
AcDbBlockBegin
  2
BLOCK_132
 70
     0
 10
0.0
 20
0.0
 30
0.0
  3
BLOCK_132
  1

  0
POLYLINE
  5
3F1
330
3ED
100
AcDbEntity
  8
0
 62
     1
100
AcDb2dPolyline
 66
     1
 10
0.0
 20
0.0
 30
0.0
  0
VERTEX
  5
3F2
330
3F1
100
AcDbEntity
  8
0
 62
     1
100
AcDbVertex
100
AcDb2dVertex
 10
356.6945395275435
 20
-186.1774040119411
 30
0.0
  0
VERTEX
  5
3F3
330
3F1
100
AcDbEntity
  8
0
 62
     1
100
AcDbVertex
100
AcDb2dVertex
 10
356.6945395275435
 20
-186.1774040119411
 30
0.0
  0
SEQEND
  5
3F4
330
3F1
100
AcDbEntity
  8
0
 62
     1
  0
ENDBLK
  5
3F0
330
3ED
100
AcDbEntity
  8
0
100
AcDbBlockEnd
  0
BLOCK
  5
3F7
330
3F5
100
AcDbEntity
  8
0
100
AcDbBlockBegin
  2
BLOCK_133
 70
     0
 10
0.0
 20
0.0
 30
0.0
  3
BLOCK_133
  1

  0
POLYLINE
  5
3F9
330
3F5
100
AcDbEntity
  8
0
 62
     1
100
AcDb2dPolyline
 66
     1
 10
0.0
 20
0.0
 30
0.0
  0
VERTEX
  5
3FA
330
3F9
100
AcDbEntity
  8
0
 62
     1
100
AcDbVertex
100
AcDb2dVertex
 10
-64.46680766737663
 20
130.6233566492765
 30
0.0
  0
VERTEX
  5
3FB
330
3F9
100
AcDbEntity
  8
0
 62
     1
100
AcDbVertex
100
AcDb2dVertex
 10
124.2949091958842
 20
130.6233566492765
 30
0.0
  0
SEQEND
  5
3FC
330
3F9
100
AcDbEntity
  8
0
 62
     1
  0
ENDBLK
  5
3F8
330
3F5
100
AcDbEntity
  8
0
100
AcDbBlockEnd
  0
BLOCK
  5
3FF
330
3FD
100
AcDbEntity
  8
0
100
AcDbBlockBegin
  2
BLOCK_134
 70
     0
 10
0.0
 20
0.0
 30
0.0
  3
BLOCK_134
  1

  0
POLYLINE
  5
401
330
3FD
100
AcDbEntity
  8
0
 62
     1
100
AcDb2dPolyline
 66
     1
 10
0.0
 20
0.0
 30
0.0
  0
VERTEX
  5
402
330
401
100
AcDbEntity
  8
0
 62
     1
100
AcDbVertex
100
AcDb2dVertex
 10
-7.182594451584593
 20
245.6236327731415
 30
0.0
  0
VERTEX
  5
403
330
401
100
AcDbEntity
  8
0
 62
     1
100
AcDbVertex
100
AcDb2dVertex
 10
124.2949091958842
 20
245.6236327731415
 30
0.0
  0
SEQEND
  5
404
330
401
100
AcDbEntity
  8
0
 62
     1
  0
ENDBLK
  5
400
330
3FD
100
AcDbEntity
  8
0
100
AcDbBlockEnd
  0
BLOCK
  5
407
330
405
100
AcDbEntity
  8
0
100
AcDbBlockBegin
  2
BLOCK_135
 70
     0
 10
0.0
 20
0.0
 30
0.0
  3
BLOCK_135
  1

  0
POLYLINE
  5
409
330
405
100
AcDbEntity
  8
0
 62
     1
100
AcDb2dPolyline
 66
     1
 10
0.0
 20
0.0
 30
0.0
  0
VERTEX
  5
40A
330
409
100
AcDbEntity
  8
0
 62
     1
100
AcDbVertex
100
AcDb2dVertex
 10
119.2948971905029
 20
145.6233926654332
 30
0.0
  0
VERTEX
  5
40B
330
409
100
AcDbEntity
  8
0
 62
     1
100
AcDbVertex
100
AcDb2dVertex
 10
119.2948971905029
 20
230.6235967569873
 30
0.0
  0
SEQEND
  5
40C
330
409
100
AcDbEntity
  8
0
 62
     1
  0
ENDBLK
  5
408
330
405
100
AcDbEntity
  8
0
100
AcDbBlockEnd
  0
BLOCK
  5
40F
330
40D
100
AcDbEntity
  8
0
100
AcDbBlockBegin
  2
BLOCK_136
 70
     0
 10
0.0
 20
0.0
 30
0.0
  3
BLOCK_136
  1

  0
POLYLINE
  5
411
330
40D
100
AcDbEntity
  8
0
100
AcDb2dPolyline
 66
     1
 10
0.0
 20
0.0
 30
0.0
  0
VERTEX
  5
412
330
411
100
AcDbEntity
  8
0
100
AcDbVertex
100
AcDb2dVertex
 10
116.7948911878109
 20
145.6233926654332
 30
0.0
  0
VERTEX
  5
413
330
411
100
AcDbEntity
  8
0
100
AcDbVertex
100
AcDb2dVertex
 10
119.2948971905029
 20
130.6233566492765
 30
0.0
  0
VERTEX
  5
414
330
411
100
AcDbEntity
  8
0
100
AcDbVertex
100
AcDb2dVertex
 10
121.7949031931974
 20
145.6233926654332
 30
0.0
  0
VERTEX
  5
415
330
411
100
AcDbEntity
  8
0
100
AcDbVertex
100
AcDb2dVertex
 10
116.7948911878109
 20
145.6233926654332
 30
0.0
  0
SEQEND
  5
417
330
411
100
AcDbEntity
  8
0
  0
INSERT
  5
416
330
40D
100
AcDbEntity
  8
0
 62
     1
100
AcDbBlockReference
  2
*U205
 10
0.0
 20
0.0
 30
0.0
1001
ACAD
1002
{
1000
R14_HATCH_DATA
1000
416
1011
1.0
1021
0.0
1031
0.0
1011
0.0
1021
1.0
1031
0.0
1011
0.0
1021
0.0
1031
1.0
1040
0.0
1010
0.0
1020
0.0
1030
1.0
1000
SOLID
1070
     1
1070
     1
1071
        1
1071
        1
1071
        3
1070
     1
1040
116.7948911878109
1040
145.6233926654332
1040
119.2948971905029
1040
130.6233566492765
1070
     1
1040
119.2948971905029
1040
130.6233566492765
1040
121.7949031931974
1040
145.6233926654332
1070
     1
1040
121.7949031931974
1040
145.6233926654332
1040
116.7948911878109
1040
145.6233926654332
1071
        0
1070
     2
1070
     1
1071
        0
1002
}
  0
ENDBLK
  5
410
330
40D
100
AcDbEntity
  8
0
100
AcDbBlockEnd
  0
BLOCK
  5
41A
330
418
100
AcDbEntity
  8
0
100
AcDbBlockBegin
  2
BLOCK_137
 70
     0
 10
0.0
 20
0.0
 30
0.0
  3
BLOCK_137
  1

  0
POLYLINE
  5
41C
330
418
100
AcDbEntity
  8
0
100
AcDb2dPolyline
 66
     1
 10
0.0
 20
0.0
 30
0.0
  0
VERTEX
  5
41D
330
41C
100
AcDbEntity
  8
0
100
AcDbVertex
100
AcDb2dVertex
 10
116.7948911878109
 20
230.6235967569873
 30
0.0
  0
VERTEX
  5
41E
330
41C
100
AcDbEntity
  8
0
100
AcDbVertex
100
AcDb2dVertex
 10
119.2948971905029
 20
245.6236327731415
 30
0.0
  0
VERTEX
  5
41F
330
41C
100
AcDbEntity
  8
0
100
AcDbVertex
100
AcDb2dVertex
 10
121.7949031931974
 20
230.6235967569873
 30
0.0
  0
VERTEX
  5
420
330
41C
100
AcDbEntity
  8
0
100
AcDbVertex
100
AcDb2dVertex
 10
116.7948911878109
 20
230.6235967569873
 30
0.0
  0
SEQEND
  5
422
330
41C
100
AcDbEntity
  8
0
  0
INSERT
  5
421
330
418
100
AcDbEntity
  8
0
 62
     1
100
AcDbBlockReference
  2
*U206
 10
0.0
 20
0.0
 30
0.0
1001
ACAD
1002
{
1000
R14_HATCH_DATA
1000
421
1011
1.0
1021
0.0
1031
0.0
1011
0.0
1021
1.0
1031
0.0
1011
0.0
1021
0.0
1031
1.0
1040
0.0
1010
0.0
1020
0.0
1030
1.0
1000
SOLID
1070
     1
1070
     1
1071
        1
1071
        1
1071
        3
1070
     1
1040
116.7948911878109
1040
230.6235967569873
1040
119.2948971905029
1040
245.6236327731415
1070
     1
1040
119.2948971905029
1040
245.6236327731415
1040
121.7949031931974
1040
230.6235967569873
1070
     1
1040
121.7949031931974
1040
230.6235967569873
1040
116.7948911878109
1040
230.6235967569873
1071
        0
1070
     2
1070
     1
1071
        0
1002
}
  0
ENDBLK
  5
41B
330
418
100
AcDbEntity
  8
0
100
AcDbBlockEnd
  0
BLOCK
  5
425
330
423
100
AcDbEntity
  8
0
100
AcDbBlockBegin
  2
BLOCK_138
 70
     0
 10
0.0
 20
0.0
 30
0.0
  3
BLOCK_138
  1

  0
MTEXT
  5
427
330
423
100
AcDbEntity
  8
0
 62
     7
100
AcDbMText
 10
125.3229274860304
 20
176.0606466065111
 30
0.0
 40
8.9915999977521
 41
0.0
 71
     7
 72
     1
  1
\fCourier New|b0|i0|c0|p34;\W1;115
  0
ENDBLK
  5
426
330
423
100
AcDbEntity
  8
0
100
AcDbBlockEnd
  0
BLOCK
  5
42A
330
428
100
AcDbEntity
  8
0
100
AcDbBlockBegin
  2
BLOCK_139
 70
     0
 10
0.0
 20
0.0
 30
0.0
  3
BLOCK_139
  1

  0
POLYLINE
  5
42C
330
428
100
AcDbEntity
  8
0
 62
     1
100
AcDb2dPolyline
 66
     1
 10
0.0
 20
0.0
 30
0.0
  0
VERTEX
  5
42D
330
42C
100
AcDbEntity
  8
0
 62
     1
100
AcDbVertex
100
AcDb2dVertex
 10
-299.8488379791801
 20
76.12675857858915
 30
0.0
  0
VERTEX
  5
42E
330
42C
100
AcDbEntity
  8
0
 62
     1
100
AcDbVertex
100
AcDb2dVertex
 10
-242.5424988321556
 20
76.12675857858915
 30
0.0
  0
SEQEND
  5
42F
330
42C
100
AcDbEntity
  8
0
 62
     1
  0
ENDBLK
  5
42B
330
428
100
AcDbEntity
  8
0
100
AcDbBlockEnd
  0
BLOCK
  5
432
330
430
100
AcDbEntity
  8
0
100
AcDbBlockBegin
  2
BLOCK_140
 70
     0
 10
0.0
 20
0.0
 30
0.0
  3
BLOCK_140
  1

  0
POLYLINE
  5
434
330
430
100
AcDbEntity
  8
0
 62
     1
100
AcDb2dPolyline
 66
     1
 10
0.0
 20
0.0
 30
0.0
  0
VERTEX
  5
435
330
434
100
AcDbEntity
  8
0
 62
     1
100
AcDbVertex
100
AcDb2dVertex
 10
-242.5424988321556
 20
76.12675857858915
 30
0.0
  0
VERTEX
  5
436
330
434
100
AcDbEntity
  8
0
 62
     1
100
AcDbVertex
100
AcDb2dVertex
 10
-198.5894721716268
 20
100.7810650544104
 30
0.0
  0
SEQEND
  5
437
330
434
100
AcDbEntity
  8
0
 62
     1
  0
ENDBLK
  5
433
330
430
100
AcDbEntity
  8
0
100
AcDbBlockEnd
  0
BLOCK
  5
43A
330
438
100
AcDbEntity
  8
0
100
AcDbBlockBegin
  2
BLOCK_141
 70
     0
 10
0.0
 20
0.0
 30
0.0
  3
BLOCK_141
  1

  0
POLYLINE
  5
43C
330
438
100
AcDbEntity
  8
0
 62
     1
100
AcDb2dPolyline
 66
     1
 10
0.0
 20
0.0
 30
0.0
  0
VERTEX
  5
43D
330
43C
100
AcDbEntity
  8
0
 62
     1
100
AcDbVertex
100
AcDb2dVertex
 10
-92.18542147424533
 20
160.4656482441631
 30
0.0
  0
VERTEX
  5
43E
330
43C
100
AcDbEntity
  8
0
 62
     1
100
AcDbVertex
100
AcDb2dVertex
 10
-79.10295622458499
 20
167.8039166691146
 30
0.0
  0
SEQEND
  5
43F
330
43C
100
AcDbEntity
  8
0
 62
     1
  0
ENDBLK
  5
43B
330
438
100
AcDbEntity
  8
0
100
AcDbBlockEnd
  0
BLOCK
  5
442
330
440
100
AcDbEntity
  8
0
100
AcDbBlockBegin
  2
BLOCK_142
 70
     0
 10
0.0
 20
0.0
 30
0.0
  3
BLOCK_142
  1

  0
MTEXT
  5
444
330
440
100
AcDbEntity
  8
0
 62
     7
100
AcDbMText
 10
-299.9775552635473
 20
88.32466903173828
 30
0.0
 40
8.9915999977521
 41
0.0
 71
     7
 72
     1
  1
\fCourier New|b0|i0|c0|p34;\W1;Ø92
  0
MTEXT
  5
445
330
440
100
AcDbEntity
  8
0
 62
     7
100
AcDbMText
 10
-265.6988551853114
 20
98.3223361299333
 30
0.0
 40
8.9915999977521
 41
0.0
 71
     7
 72
     1
  1
\fCourier New|b0|i0|c0|p34;\W1;+2
  0
MTEXT
  5
446
330
440
100
AcDbEntity
  8
0
 62
     7
100
AcDbMText
 10
-265.4466741957911
 20
78.65084090915674
 30
0.0
 40
8.9915999977521
 41
0.0
 71
     7
 72
     1
  1
\fCourier New|b0|i0|c0|p34;\W1;-0
  0
ENDBLK
  5
443
330
440
100
AcDbEntity
  8
0
100
AcDbBlockEnd
  0
BLOCK
  5
449
330
447
100
AcDbEntity
  8
0
100
AcDbBlockBegin
  2
BLOCK_143
 70
     0
 10
0.0
 20
0.0
 30
0.0
  3
BLOCK_143
  1

  0
POLYLINE
  5
44B
330
447
100
AcDbEntity
  8
0
 62
     1
100
AcDb2dPolyline
 66
     1
 10
0.0
 20
0.0
 30
0.0
  0
VERTEX
  5
44C
330
44B
100
AcDbEntity
  8
0
 62
     1
100
AcDbVertex
100
AcDb2dVertex
 10
-105.2678867239262
 20
153.1273798191885
 30
0.0
  0
VERTEX
  5
44D
330
44B
100
AcDbEntity
  8
0
 62
     1
100
AcDbVertex
100
AcDb2dVertex
 10
-185.5070069219433
 20
108.1193334793798
 30
0.0
  0
SEQEND
  5
44E
330
44B
100
AcDbEntity
  8
0
 62
     1
  0
ENDBLK
  5
44A
330
447
100
AcDbEntity
  8
0
100
AcDbBlockEnd
  0
BLOCK
  5
451
330
44F
100
AcDbEntity
  8
0
100
AcDbBlockBegin
  2
BLOCK_144
 70
     0
 10
0.0
 20
0.0
 30
0.0
  3
BLOCK_144
  1

  0
POLYLINE
  5
453
330
44F
100
AcDbEntity
  8
0
100
AcDb2dPolyline
 66
     1
 10
0.0
 20
0.0
 30
0.0
  0
VERTEX
  5
454
330
453
100
AcDbEntity
  8
0
100
AcDbVertex
100
AcDb2dVertex
 10
-93.40846621175821
 20
162.6460591191009
 30
0.0
  0
VERTEX
  5
455
330
453
100
AcDbEntity
  8
0
100
AcDbVertex
100
AcDb2dVertex
 10
-105.2678867239262
 20
153.1273798191885
 30
0.0
  0
VERTEX
  5
456
330
453
100
AcDbEntity
  8
0
100
AcDbVertex
100
AcDb2dVertex
 10
-90.96237673675812
 20
158.2852373692022
 30
0.0
  0
VERTEX
  5
457
330
453
100
AcDbEntity
  8
0
100
AcDbVertex
100
AcDb2dVertex
 10
-93.40846621175821
 20
162.6460591191009
 30
0.0
  0
SEQEND
  5
459
330
453
100
AcDbEntity
  8
0
  0
INSERT
  5
458
330
44F
100
AcDbEntity
  8
0
 62
     1
100
AcDbBlockReference
  2
*U207
 10
0.0
 20
0.0
 30
0.0
1001
ACAD
1002
{
1000
R14_HATCH_DATA
1000
458
1011
1.0
1021
0.0
1031
0.0
1011
0.0
1021
1.0
1031
0.0
1011
0.0
1021
0.0
1031
1.0
1040
0.0
1010
0.0
1020
0.0
1030
1.0
1000
SOLID
1070
     1
1070
     1
1071
        1
1071
        1
1071
        3
1070
     1
1040
-93.40846621175821
1040
162.6460591191009
1040
-105.2678867239262
1040
153.1273798191885
1070
     1
1040
-105.2678867239262
1040
153.1273798191885
1040
-90.96237673675812
1040
158.2852373692022
1070
     1
1040
-90.96237673675812
1040
158.2852373692022
1040
-93.40846621175821
1040
162.6460591191009
1071
        0
1070
     2
1070
     1
1071
        0
1002
}
  0
ENDBLK
  5
452
330
44F
100
AcDbEntity
  8
0
100
AcDbBlockEnd
  0
BLOCK
  5
45C
330
45A
100
AcDbEntity
  8
0
100
AcDbBlockBegin
  2
BLOCK_145
 70
     0
 10
0.0
 20
0.0
 30
0.0
  3
BLOCK_145
  1

  0
POLYLINE
  5
45E
330
45A
100
AcDbEntity
  8
0
100
AcDb2dPolyline
 66
     1
 10
0.0
 20
0.0
 30
0.0
  0
VERTEX
  5
45F
330
45E
100
AcDbEntity
  8
0
100
AcDbVertex
100
AcDb2dVertex
 10
-199.8125169091166
 20
102.9614759293585
 30
0.0
  0
VERTEX
  5
460
330
45E
100
AcDbEntity
  8
0
100
AcDbVertex
100
AcDb2dVertex
 10
-185.5070069219433
 20
108.1193334793798
 30
0.0
  0
VERTEX
  5
461
330
45E
100
AcDbEntity
  8
0
100
AcDbVertex
100
AcDb2dVertex
 10
-197.3664274341113
 20
98.60065417946741
 30
0.0
  0
VERTEX
  5
462
330
45E
100
AcDbEntity
  8
0
100
AcDbVertex
100
AcDb2dVertex
 10
-199.8125169091166
 20
102.9614759293585
 30
0.0
  0
SEQEND
  5
464
330
45E
100
AcDbEntity
  8
0
  0
INSERT
  5
463
330
45A
100
AcDbEntity
  8
0
 62
     1
100
AcDbBlockReference
  2
*U208
 10
0.0
 20
0.0
 30
0.0
1001
ACAD
1002
{
1000
R14_HATCH_DATA
1000
463
1011
1.0
1021
0.0
1031
0.0
1011
0.0
1021
1.0
1031
0.0
1011
0.0
1021
0.0
1031
1.0
1040
0.0
1010
0.0
1020
0.0
1030
1.0
1000
SOLID
1070
     1
1070
     1
1071
        1
1071
        1
1071
        3
1070
     1
1040
-199.8125169091166
1040
102.9614759293585
1040
-185.5070069219433
1040
108.1193334793798
1070
     1
1040
-185.5070069219433
1040
108.1193334793798
1040
-197.3664274341113
1040
98.60065417946741
1070
     1
1040
-197.3664274341113
1040
98.60065417946741
1040
-199.8125169091166
1040
102.9614759293585
1071
        0
1070
     2
1070
     1
1071
        0
1002
}
  0
ENDBLK
  5
45D
330
45A
100
AcDbEntity
  8
0
100
AcDbBlockEnd
  0
BLOCK
  5
467
330
465
100
AcDbEntity
  8
0
100
AcDbBlockBegin
  2
BLOCK_146
 70
     0
 10
0.0
 20
0.0
 30
0.0
  3
BLOCK_146
  1

  0
POLYLINE
  5
469
330
465
100
AcDbEntity
  8
0
 62
     1
100
AcDb2dPolyline
 66
     1
 10
0.0
 20
0.0
 30
0.0
  0
VERTEX
  5
46A
330
469
100
AcDbEntity
  8
0
 62
     1
100
AcDbVertex
100
AcDb2dVertex
 10
-383.2036728563723
 20
-151.947464647796
 30
0.0
  0
VERTEX
  5
46B
330
469
100
AcDbEntity
  8
0
 62
     1
100
AcDbVertex
100
AcDb2dVertex
 10
-436.7038013141646
 20
-151.9474646478063
 30
0.0
  0
SEQEND
  5
46C
330
469
100
AcDbEntity
  8
0
 62
     1
  0
ENDBLK
  5
468
330
465
100
AcDbEntity
  8
0
100
AcDbBlockEnd
  0
BLOCK
  5
46F
330
46D
100
AcDbEntity
  8
0
100
AcDbBlockBegin
  2
BLOCK_147
 70
     0
 10
0.0
 20
0.0
 30
0.0
  3
BLOCK_147
  1

  0
POLYLINE
  5
471
330
46D
100
AcDbEntity
  8
0
 62
     1
100
AcDb2dPolyline
 66
     1
 10
0.0
 20
0.0
 30
0.0
  0
VERTEX
  5
472
330
471
100
AcDbEntity
  8
0
 62
     1
100
AcDbVertex
100
AcDb2dVertex
 10
-436.7038013141646
 20
-151.9474646478063
 30
0.0
  0
VERTEX
  5
473
330
471
100
AcDbEntity
  8
0
 62
     1
100
AcDbVertex
100
AcDb2dVertex
 10
-492.4696028627698
 20
-168.9043387633584
 30
0.0
  0
SEQEND
  5
474
330
471
100
AcDbEntity
  8
0
 62
     1
  0
ENDBLK
  5
470
330
46D
100
AcDbEntity
  8
0
100
AcDbBlockEnd
  0
BLOCK
  5
477
330
475
100
AcDbEntity
  8
0
100
AcDbBlockBegin
  2
BLOCK_148
 70
     0
 10
0.0
 20
0.0
 30
0.0
  3
BLOCK_148
  1

  0
MTEXT
  5
479
330
475
100
AcDbEntity
  8
0
 62
     7
100
AcDbMText
 10
-428.0110838773722
 20
-146.9160969684793
 30
0.0
 40
8.9915999977521
 41
0.0
 71
     7
 72
     1
  1
\fCourier New|b0|i0|c0|p34;\W1;4-R10
  0
ENDBLK
  5
478
330
475
100
AcDbEntity
  8
0
100
AcDbBlockEnd
  0
BLOCK
  5
47C
330
47A
100
AcDbEntity
  8
0
100
AcDbBlockBegin
  2
BLOCK_149
 70
     0
 10
0.0
 20
0.0
 30
0.0
  3
BLOCK_149
  1

  0
POLYLINE
  5
47E
330
47A
100
AcDbEntity
  8
0
 62
     1
100
AcDb2dPolyline
 66
     1
 10
0.0
 20
0.0
 30
0.0
  0
VERTEX
  5
47F
330
47E
100
AcDbEntity
  8
0
 62
     1
100
AcDbVertex
100
AcDb2dVertex
 10
-516.3883376223282
 20
-176.1773800011554
 30
0.0
  0
VERTEX
  5
480
330
47E
100
AcDbEntity
  8
0
 62
     1
100
AcDbVertex
100
AcDb2dVertex
 10
-506.8208437185577
 20
-173.2681635060464
 30
0.0
  0
SEQEND
  5
481
330
47E
100
AcDbEntity
  8
0
 62
     1
  0
ENDBLK
  5
47D
330
47A
100
AcDbEntity
  8
0
100
AcDbBlockEnd
  0
BLOCK
  5
484
330
482
100
AcDbEntity
  8
0
100
AcDbBlockBegin
  2
BLOCK_150
 70
     0
 10
0.0
 20
0.0
 30
0.0
  3
BLOCK_150
  1

  0
POLYLINE
  5
486
330
482
100
AcDbEntity
  8
0
100
AcDb2dPolyline
 66
     1
 10
0.0
 20
0.0
 30
0.0
  0
VERTEX
  5
487
330
486
100
AcDbEntity
  8
0
100
AcDbVertex
100
AcDb2dVertex
 10
-493.1969069865387
 20
-166.5124652873894
 30
0.0
  0
VERTEX
  5
488
330
486
100
AcDbEntity
  8
0
100
AcDbVertex
100
AcDb2dVertex
 10
-506.8208437185577
 20
-173.2681635060464
 30
0.0
  0
VERTEX
  5
489
330
486
100
AcDbEntity
  8
0
100
AcDbVertex
100
AcDb2dVertex
 10
-491.7422987390034
 20
-171.2962122393324
 30
0.0
  0
VERTEX
  5
48A
330
486
100
AcDbEntity
  8
0
100
AcDbVertex
100
AcDb2dVertex
 10
-493.1969069865387
 20
-166.5124652873894
 30
0.0
  0
SEQEND
  5
48C
330
486
100
AcDbEntity
  8
0
  0
INSERT
  5
48B
330
482
100
AcDbEntity
  8
0
 62
     1
100
AcDbBlockReference
  2
*U209
 10
0.0
 20
0.0
 30
0.0
1001
ACAD
1002
{
1000
R14_HATCH_DATA
1000
48B
1011
1.0
1021
0.0
1031
0.0
1011
0.0
1021
1.0
1031
0.0
1011
0.0
1021
0.0
1031
1.0
1040
0.0
1010
0.0
1020
0.0
1030
1.0
1000
SOLID
1070
     1
1070
     1
1071
        1
1071
        1
1071
        3
1070
     1
1040
-493.1969069865387
1040
-166.5124652873894
1040
-506.8208437185577
1040
-173.2681635060464
1070
     1
1040
-506.8208437185577
1040
-173.2681635060464
1040
-491.7422987390034
1040
-171.2962122393324
1070
     1
1040
-491.7422987390034
1040
-171.2962122393324
1040
-493.1969069865387
1040
-166.5124652873894
1071
        0
1070
     2
1070
     1
1071
        0
1002
}
  0
ENDBLK
  5
485
330
482
100
AcDbEntity
  8
0
100
AcDbBlockEnd
  0
BLOCK
  5
48F
330
48D
100
AcDbEntity
  8
0
100
AcDbBlockBegin
  2
BLOCK_151
 70
     0
 10
0.0
 20
0.0
 30
0.0
  3
BLOCK_151
  1

  0
SPLINE
  5
491
330
48D
100
AcDbEntity
  8
0
 62
     1
100
AcDbSpline
210
0.0
220
0.0
230
1.0
 70
     8
 71
     3
 72
    11
 73
     7
 74
     0
 42
0.0000000001
 43
0.0000000001
 12
1.0
 22
0.0
 32
0.0
 13
1.0
 23
0.0
 33
0.0
 40
0.0
 40
0.0
 40
0.0
 40
0.0
 40
1.0
 40
1.0
 40
1.0
 40
2.0
 40
2.0
 40
2.0
 40
2.0
 10
-511.59407072491
 20
-184.9532266914043
 30
0.0
 10
-506.7473044310362
 20
-182.3054261973438
 30
0.0
 10
-504.964690438029
 20
-176.2298793976161
 30
0.0
 10
-507.6124909320947
 20
-171.38311310375
 30
0.0
 10
-508.0850879072738
 20
-170.5180301433547
 30
0.0
 10
-508.6829979567271
 20
-169.72757866459
 30
0.0
 10
-509.3868244964942
 20
-169.0374014183408
 30
0.0
  0
ENDBLK
  5
490
330
48D
100
AcDbEntity
  8
0
100
AcDbBlockEnd
  0
BLOCK
  5
494
330
492
100
AcDbEntity
  8
0
100
AcDbBlockBegin
  2
BLOCK_152
 70
     0
 10
0.0
 20
0.0
 30
0.0
  3
BLOCK_152
  1

  0
POLYLINE
  5
496
330
492
100
AcDbEntity
  8
0
 62
     1
100
AcDb2dPolyline
 66
     1
 10
0.0
 20
0.0
 30
0.0
  0
VERTEX
  5
497
330
496
100
AcDbEntity
  8
0
 62
     1
100
AcDbVertex
100
AcDb2dVertex
 10
-395.3123558953516
 20
447.8527279459091
 30
0.0
  0
VERTEX
  5
498
330
496
100
AcDbEntity
  8
0
 62
     1
100
AcDbVertex
100
AcDb2dVertex
 10
-427.562433330084
 20
447.8527279459091
 30
0.0
  0
SEQEND
  5
499
330
496
100
AcDbEntity
  8
0
 62
     1
  0
ENDBLK
  5
495
330
492
100
AcDbEntity
  8
0
100
AcDbBlockEnd
  0
BLOCK
  5
49C
330
49A
100
AcDbEntity
  8
0
100
AcDbBlockBegin
  2
BLOCK_153
 70
     0
 10
0.0
 20
0.0
 30
0.0
  3
BLOCK_153
  1

  0
POLYLINE
  5
49E
330
49A
100
AcDbEntity
  8
0
 62
     1
100
AcDb2dPolyline
 66
     1
 10
0.0
 20
0.0
 30
0.0
  0
VERTEX
  5
49F
330
49E
100
AcDbEntity
  8
0
 62
     1
100
AcDbVertex
100
AcDb2dVertex
 10
-427.562433330084
 20
447.8527279459091
 30
0.0
  0
VERTEX
  5
4A0
330
49E
100
AcDbEntity
  8
0
 62
     1
100
AcDbVertex
100
AcDb2dVertex
 10
-463.6801999850076
 20
429.8553384137939
 30
0.0
  0
SEQEND
  5
4A1
330
49E
100
AcDbEntity
  8
0
 62
     1
  0
ENDBLK
  5
49D
330
49A
100
AcDbEntity
  8
0
100
AcDbBlockEnd
  0
BLOCK
  5
4A4
330
4A2
100
AcDbEntity
  8
0
100
AcDbBlockBegin
  2
BLOCK_154
 70
     0
 10
0.0
 20
0.0
 30
0.0
  3
BLOCK_154
  1

  0
MTEXT
  5
4A6
330
4A2
100
AcDbEntity
  8
0
 62
     7
100
AcDbMText
 10
-420.4353189053078
 20
454.7098848689614
 30
0.0
 40
8.9915999977521
 41
0.0
 71
     7
 72
     1
  1
\fCourier New|b0|i0|c0|p34;\W1;R10
  0
ENDBLK
  5
4A5
330
4A2
100
AcDbEntity
  8
0
100
AcDbBlockEnd
  0
BLOCK
  5
4A9
330
4A7
100
AcDbEntity
  8
0
100
AcDbBlockBegin
  2
BLOCK_155
 70
     0
 10
0.0
 20
0.0
 30
0.0
  3
BLOCK_155
  1

  0
POLYLINE
  5
4AB
330
4A7
100
AcDbEntity
  8
0
 62
     1
100
AcDb2dPolyline
 66
     1
 10
0.0
 20
0.0
 30
0.0
  0
VERTEX
  5
4AC
330
4AB
100
AcDbEntity
  8
0
 62
     1
100
AcDbVertex
100
AcDb2dVertex
 10
-486.0561515192931
 20
418.7054597471221
 30
0.0
  0
VERTEX
  5
4AD
330
4AB
100
AcDbEntity
  8
0
 62
     1
100
AcDbVertex
100
AcDb2dVertex
 10
-477.105770905619
 20
423.1654112137595
 30
0.0
  0
SEQEND
  5
4AE
330
4AB
100
AcDbEntity
  8
0
 62
     1
  0
ENDBLK
  5
4AA
330
4A7
100
AcDbEntity
  8
0
100
AcDbBlockEnd
  0
BLOCK
  5
4B1
330
4AF
100
AcDbEntity
  8
0
100
AcDbBlockBegin
  2
BLOCK_156
 70
     0
 10
0.0
 20
0.0
 30
0.0
  3
BLOCK_156
  1

  0
POLYLINE
  5
4B3
330
4AF
100
AcDbEntity
  8
0
100
AcDb2dPolyline
 66
     1
 10
0.0
 20
0.0
 30
0.0
  0
VERTEX
  5
4B4
330
4B3
100
AcDbEntity
  8
0
100
AcDbVertex
100
AcDb2dVertex
 10
-464.7951878516933
 20
432.092933567242
 30
0.0
  0
VERTEX
  5
4B5
330
4B3
100
AcDbEntity
  8
0
100
AcDbVertex
100
AcDb2dVertex
 10
-477.105770905619
 20
423.1654112137595
 30
0.0
  0
VERTEX
  5
4B6
330
4B3
100
AcDbEntity
  8
0
100
AcDbVertex
100
AcDb2dVertex
 10
-462.5652121183297
 20
427.6177432603561
 30
0.0
  0
VERTEX
  5
4B7
330
4B3
100
AcDbEntity
  8
0
100
AcDbVertex
100
AcDb2dVertex
 10
-464.7951878516933
 20
432.092933567242
 30
0.0
  0
SEQEND
  5
4B9
330
4B3
100
AcDbEntity
  8
0
  0
INSERT
  5
4B8
330
4AF
100
AcDbEntity
  8
0
 62
     1
100
AcDbBlockReference
  2
*U210
 10
0.0
 20
0.0
 30
0.0
1001
ACAD
1002
{
1000
R14_HATCH_DATA
1000
4B8
1011
1.0
1021
0.0
1031
0.0
1011
0.0
1021
1.0
1031
0.0
1011
0.0
1021
0.0
1031
1.0
1040
0.0
1010
0.0
1020
0.0
1030
1.0
1000
SOLID
1070
     1
1070
     1
1071
        1
1071
        1
1071
        3
1070
     1
1040
-464.7951878516933
1040
432.092933567242
1040
-477.105770905619
1040
423.1654112137595
1070
     1
1040
-477.105770905619
1040
423.1654112137595
1040
-462.5652121183297
1040
427.6177432603561
1070
     1
1040
-462.5652121183297
1040
427.6177432603561
1040
-464.7951878516933
1040
432.092933567242
1071
        0
1070
     2
1070
     1
1071
        0
1002
}
  0
ENDBLK
  5
4B2
330
4AF
100
AcDbEntity
  8
0
100
AcDbBlockEnd
  0
BLOCK
  5
4BC
330
4BA
100
AcDbEntity
  8
0
100
AcDbBlockBegin
  2
BLOCK_157
 70
     0
 10
0.0
 20
0.0
 30
0.0
  3
BLOCK_157
  1

  0
SPLINE
  5
4BE
330
4BA
100
AcDbEntity
  8
0
 62
     1
100
AcDbSpline
210
0.0
220
0.0
230
1.0
 70
     8
 71
     3
 72
    11
 73
     7
 74
     0
 42
0.0000000001
 43
0.0000000001
 12
1.0
 22
0.0
 32
0.0
 13
1.0
 23
0.0
 33
0.0
 40
0.0
 40
0.0
 40
0.0
 40
0.0
 40
1.0
 40
1.0
 40
1.0
 40
2.0
 40
2.0
 40
2.0
 40
2.0
 10
-481.5710777923961
 20
409.7676415637664
 30
0.0
 10
-476.6348571129752
 20
412.2446793850052
 30
0.0
 10
-474.6412955147192
 20
418.254312794593
 30
0.0
 10
-477.1183333359529
 20
423.1905334740113
 30
0.0
 10
-477.8654982433103
 20
424.6794775809616
 30
0.0
 10
-478.9728009240533
 20
425.9581719647225
 30
0.0
 10
-480.3396682045475
 20
426.9104764275563
 30
0.0
  0
ENDBLK
  5
4BD
330
4BA
100
AcDbEntity
  8
0
100
AcDbBlockEnd
  0
BLOCK
  5
4C1
330
4BF
100
AcDbEntity
  8
0
100
AcDbBlockBegin
  2
BLOCK_158
 70
     0
 10
0.0
 20
0.0
 30
0.0
  3
BLOCK_158
  1

  0
POLYLINE
  5
4C3
330
4BF
100
AcDbEntity
  8
0
 62
     1
100
AcDb2dPolyline
 66
     1
 10
0.0
 20
0.0
 30
0.0
  0
VERTEX
  5
4C4
330
4C3
100
AcDbEntity
  8
0
 62
     1
100
AcDbVertex
100
AcDb2dVertex
 10
-526.456248522863
 20
661.2130475143989
 30
0.0
  0
VERTEX
  5
4C5
330
4C3
100
AcDbEntity
  8
0
 62
     1
100
AcDbVertex
100
AcDb2dVertex
 10
-559.5624577212334
 20
661.2130475143989
 30
0.0
  0
SEQEND
  5
4C6
330
4C3
100
AcDbEntity
  8
0
 62
     1
  0
ENDBLK
  5
4C2
330
4BF
100
AcDbEntity
  8
0
100
AcDbBlockEnd
  0
BLOCK
  5
4C9
330
4C7
100
AcDbEntity
  8
0
100
AcDbBlockBegin
  2
BLOCK_159
 70
     0
 10
0.0
 20
0.0
 30
0.0
  3
BLOCK_159
  1

  0
POLYLINE
  5
4CB
330
4C7
100
AcDbEntity
  8
0
 62
     1
100
AcDb2dPolyline
 66
     1
 10
0.0
 20
0.0
 30
0.0
  0
VERTEX
  5
4CC
330
4CB
100
AcDbEntity
  8
0
 62
     1
100
AcDbVertex
100
AcDb2dVertex
 10
-491.4575087004634
 20
407.2124376408238
 30
0.0
  0
VERTEX
  5
4CD
330
4CB
100
AcDbEntity
  8
0
 62
     1
100
AcDbVertex
100
AcDb2dVertex
 10
-559.5624577212334
 20
407.2124376408238
 30
0.0
  0
SEQEND
  5
4CE
330
4CB
100
AcDbEntity
  8
0
 62
     1
  0
ENDBLK
  5
4CA
330
4C7
100
AcDbEntity
  8
0
100
AcDbBlockEnd
  0
BLOCK
  5
4D1
330
4CF
100
AcDbEntity
  8
0
100
AcDbBlockBegin
  2
BLOCK_160
 70
     0
 10
0.0
 20
0.0
 30
0.0
  3
BLOCK_160
  1

  0
POLYLINE
  5
4D3
330
4CF
100
AcDbEntity
  8
0
 62
     1
100
AcDb2dPolyline
 66
     1
 10
0.0
 20
0.0
 30
0.0
  0
VERTEX
  5
4D4
330
4D3
100
AcDbEntity
  8
0
 62
     1
100
AcDbVertex
100
AcDb2dVertex
 10
-554.5624457158495
 20
646.2130114982447
 30
0.0
  0
VERTEX
  5
4D5
330
4D3
100
AcDbEntity
  8
0
 62
     1
100
AcDbVertex
100
AcDb2dVertex
 10
-554.5624457158495
 20
422.212473656978
 30
0.0
  0
SEQEND
  5
4D6
330
4D3
100
AcDbEntity
  8
0
 62
     1
  0
ENDBLK
  5
4D2
330
4CF
100
AcDbEntity
  8
0
100
AcDbBlockEnd
  0
BLOCK
  5
4D9
330
4D7
100
AcDbEntity
  8
0
100
AcDbBlockBegin
  2
BLOCK_161
 70
     0
 10
0.0
 20
0.0
 30
0.0
  3
BLOCK_161
  1

  0
POLYLINE
  5
4DB
330
4D7
100
AcDbEntity
  8
0
100
AcDb2dPolyline
 66
     1
 10
0.0
 20
0.0
 30
0.0
  0
VERTEX
  5
4DC
330
4DB
100
AcDbEntity
  8
0
100
AcDbVertex
100
AcDb2dVertex
 10
-557.0624517185414
 20
646.2130114982447
 30
0.0
  0
VERTEX
  5
4DD
330
4DB
100
AcDbEntity
  8
0
100
AcDbVertex
100
AcDb2dVertex
 10
-554.5624457158495
 20
661.2130475143989
 30
0.0
  0
VERTEX
  5
4DE
330
4DB
100
AcDbEntity
  8
0
100
AcDbVertex
100
AcDb2dVertex
 10
-552.0624397131551
 20
646.2130114982447
 30
0.0
  0
VERTEX
  5
4DF
330
4DB
100
AcDbEntity
  8
0
100
AcDbVertex
100
AcDb2dVertex
 10
-557.0624517185414
 20
646.2130114982447
 30
0.0
  0
SEQEND
  5
4E1
330
4DB
100
AcDbEntity
  8
0
  0
INSERT
  5
4E0
330
4D7
100
AcDbEntity
  8
0
 62
     1
100
AcDbBlockReference
  2
*U211
 10
0.0
 20
0.0
 30
0.0
1001
ACAD
1002
{
1000
R14_HATCH_DATA
1000
4E0
1011
1.0
1021
0.0
1031
0.0
1011
0.0
1021
1.0
1031
0.0
1011
0.0
1021
0.0
1031
1.0
1040
0.0
1010
0.0
1020
0.0
1030
1.0
1000
SOLID
1070
     1
1070
     1
1071
        1
1071
        1
1071
        3
1070
     1
1040
-557.0624517185414
1040
646.2130114982447
1040
-554.5624457158495
1040
661.2130475143989
1070
     1
1040
-554.5624457158495
1040
661.2130475143989
1040
-552.0624397131551
1040
646.2130114982447
1070
     1
1040
-552.0624397131551
1040
646.2130114982447
1040
-557.0624517185414
1040
646.2130114982447
1071
        0
1070
     2
1070
     1
1071
        0
1002
}
  0
ENDBLK
  5
4DA
330
4D7
100
AcDbEntity
  8
0
100
AcDbBlockEnd
  0
BLOCK
  5
4E4
330
4E2
100
AcDbEntity
  8
0
100
AcDbBlockBegin
  2
BLOCK_162
 70
     0
 10
0.0
 20
0.0
 30
0.0
  3
BLOCK_162
  1

  0
POLYLINE
  5
4E6
330
4E2
100
AcDbEntity
  8
0
100
AcDb2dPolyline
 66
     1
 10
0.0
 20
0.0
 30
0.0
  0
VERTEX
  5
4E7
330
4E6
100
AcDbEntity
  8
0
100
AcDbVertex
100
AcDb2dVertex
 10
-557.0624517185414
 20
422.212473656978
 30
0.0
  0
VERTEX
  5
4E8
330
4E6
100
AcDbEntity
  8
0
100
AcDbVertex
100
AcDb2dVertex
 10
-554.5624457158495
 20
407.2124376408238
 30
0.0
  0
VERTEX
  5
4E9
330
4E6
100
AcDbEntity
  8
0
100
AcDbVertex
100
AcDb2dVertex
 10
-552.0624397131551
 20
422.212473656978
 30
0.0
  0
VERTEX
  5
4EA
330
4E6
100
AcDbEntity
  8
0
100
AcDbVertex
100
AcDb2dVertex
 10
-557.0624517185414
 20
422.212473656978
 30
0.0
  0
SEQEND
  5
4EC
330
4E6
100
AcDbEntity
  8
0
  0
INSERT
  5
4EB
330
4E2
100
AcDbEntity
  8
0
 62
     1
100
AcDbBlockReference
  2
*U212
 10
0.0
 20
0.0
 30
0.0
1001
ACAD
1002
{
1000
R14_HATCH_DATA
1000
4EB
1011
1.0
1021
0.0
1031
0.0
1011
0.0
1021
1.0
1031
0.0
1011
0.0
1021
0.0
1031
1.0
1040
0.0
1010
0.0
1020
0.0
1030
1.0
1000
SOLID
1070
     1
1070
     1
1071
        1
1071
        1
1071
        3
1070
     1
1040
-557.0624517185414
1040
422.212473656978
1040
-554.5624457158495
1040
407.2124376408238
1070
     1
1040
-554.5624457158495
1040
407.2124376408238
1040
-552.0624397131551
1040
422.212473656978
1070
     1
1040
-552.0624397131551
1040
422.212473656978
1040
-557.0624517185414
1040
422.212473656978
1071
        0
1070
     2
1070
     1
1071
        0
1002
}
  0
ENDBLK
  5
4E5
330
4E2
100
AcDbEntity
  8
0
100
AcDbBlockEnd
  0
BLOCK
  5
4EF
330
4ED
100
AcDbEntity
  8
0
100
AcDbBlockBegin
  2
BLOCK_163
 70
     0
 10
0.0
 20
0.0
 30
0.0
  3
BLOCK_163
  1

  0
MTEXT
  5
4F1
330
4ED
100
AcDbEntity
  8
0
 62
     7
100
AcDbMText
 10
-559.1073023775843
 20
448.4737896857704
 30
0.0
 40
8.9915999977521
 41
0.0
 71
     7
 72
     1
  1
\fCourier New|b0|i0|c0|p34;\W1;254±2 [10"±0.079"]
 11
6.123233995736766E-17
 21
1.0
 31
0.0
  0
ENDBLK
  5
4F0
330
4ED
100
AcDbEntity
  8
0
100
AcDbBlockEnd
  0
BLOCK
  5
4F4
330
4F2
100
AcDbEntity
  8
0
100
AcDbBlockBegin
  2
BLOCK_164
 70
     0
 10
0.0
 20
0.0
 30
0.0
  3
BLOCK_164
  1

  0
POLYLINE
  5
4F6
330
4F2
100
AcDbEntity
  8
0
 62
     1
100
AcDb2dPolyline
 66
     1
 10
0.0
 20
0.0
 30
0.0
  0
VERTEX
  5
4F7
330
4F6
100
AcDbEntity
  8
0
 62
     1
100
AcDbVertex
100
AcDb2dVertex
 10
235.3470860220996
 20
271.0236937604982
 30
0.0
  0
VERTEX
  5
4F8
330
4F6
100
AcDbEntity
  8
0
 62
     1
100
AcDbVertex
100
AcDb2dVertex
 10
402.1136136269104
 20
271.0236937604982
 30
0.0
  0
SEQEND
  5
4F9
330
4F6
100
AcDbEntity
  8
0
 62
     1
  0
ENDBLK
  5
4F5
330
4F2
100
AcDbEntity
  8
0
100
AcDbBlockEnd
  0
BLOCK
  5
4FC
330
4FA
100
AcDbEntity
  8
0
100
AcDbBlockBegin
  2
BLOCK_165
 70
     0
 10
0.0
 20
0.0
 30
0.0
  3
BLOCK_165
  1

  0
POLYLINE
  5
4FE
330
4FA
100
AcDbEntity
  8
0
 62
     1
100
AcDb2dPolyline
 66
     1
 10
0.0
 20
0.0
 30
0.0
  0
VERTEX
  5
4FF
330
4FE
100
AcDbEntity
  8
0
 62
     1
100
AcDbVertex
100
AcDb2dVertex
 10
240.613479992926
 20
-211.5774649992979
 30
0.0
  0
VERTEX
  5
500
330
4FE
100
AcDbEntity
  8
0
 62
     1
100
AcDbVertex
100
AcDb2dVertex
 10
402.1136136269104
 20
-211.5774649992979
 30
0.0
  0
SEQEND
  5
501
330
4FE
100
AcDbEntity
  8
0
 62
     1
  0
ENDBLK
  5
4FD
330
4FA
100
AcDbEntity
  8
0
100
AcDbBlockEnd
  0
BLOCK
  5
504
330
502
100
AcDbEntity
  8
0
100
AcDbBlockBegin
  2
BLOCK_166
 70
     0
 10
0.0
 20
0.0
 30
0.0
  3
BLOCK_166
  1

  0
POLYLINE
  5
506
330
502
100
AcDbEntity
  8
0
 62
     1
100
AcDb2dPolyline
 66
     1
 10
0.0
 20
0.0
 30
0.0
  0
VERTEX
  5
507
330
506
100
AcDbEntity
  8
0
 62
     1
100
AcDbVertex
100
AcDb2dVertex
 10
397.1136016215239
 20
256.0236577443414
 30
0.0
  0
VERTEX
  5
508
330
506
100
AcDbEntity
  8
0
 62
     1
100
AcDbVertex
100
AcDb2dVertex
 10
397.1136016215239
 20
-196.5774289831437
 30
0.0
  0
SEQEND
  5
509
330
506
100
AcDbEntity
  8
0
 62
     1
  0
ENDBLK
  5
505
330
502
100
AcDbEntity
  8
0
100
AcDbBlockEnd
  0
BLOCK
  5
50C
330
50A
100
AcDbEntity
  8
0
100
AcDbBlockBegin
  2
BLOCK_167
 70
     0
 10
0.0
 20
0.0
 30
0.0
  3
BLOCK_167
  1

  0
POLYLINE
  5
50E
330
50A
100
AcDbEntity
  8
0
100
AcDb2dPolyline
 66
     1
 10
0.0
 20
0.0
 30
0.0
  0
VERTEX
  5
50F
330
50E
100
AcDbEntity
  8
0
100
AcDbVertex
100
AcDb2dVertex
 10
394.613595618832
 20
256.0236577443414
 30
0.0
  0
VERTEX
  5
510
330
50E
100
AcDbEntity
  8
0
100
AcDbVertex
100
AcDb2dVertex
 10
397.1136016215239
 20
271.0236937604982
 30
0.0
  0
VERTEX
  5
511
330
50E
100
AcDbEntity
  8
0
100
AcDbVertex
100
AcDb2dVertex
 10
399.6136076242184
 20
256.0236577443414
 30
0.0
  0
VERTEX
  5
512
330
50E
100
AcDbEntity
  8
0
100
AcDbVertex
100
AcDb2dVertex
 10
394.613595618832
 20
256.0236577443414
 30
0.0
  0
SEQEND
  5
514
330
50E
100
AcDbEntity
  8
0
  0
INSERT
  5
513
330
50A
100
AcDbEntity
  8
0
 62
     1
100
AcDbBlockReference
  2
*U213
 10
0.0
 20
0.0
 30
0.0
1001
ACAD
1002
{
1000
R14_HATCH_DATA
1000
513
1011
1.0
1021
0.0
1031
0.0
1011
0.0
1021
1.0
1031
0.0
1011
0.0
1021
0.0
1031
1.0
1040
0.0
1010
0.0
1020
0.0
1030
1.0
1000
SOLID
1070
     1
1070
     1
1071
        1
1071
        1
1071
        3
1070
     1
1040
394.613595618832
1040
256.0236577443414
1040
397.1136016215239
1040
271.0236937604982
1070
     1
1040
397.1136016215239
1040
271.0236937604982
1040
399.6136076242184
1040
256.0236577443414
1070
     1
1040
399.6136076242184
1040
256.0236577443414
1040
394.613595618832
1040
256.0236577443414
1071
        0
1070
     2
1070
     1
1071
        0
1002
}
  0
ENDBLK
  5
50D
330
50A
100
AcDbEntity
  8
0
100
AcDbBlockEnd
  0
BLOCK
  5
517
330
515
100
AcDbEntity
  8
0
100
AcDbBlockBegin
  2
BLOCK_168
 70
     0
 10
0.0
 20
0.0
 30
0.0
  3
BLOCK_168
  1

  0
POLYLINE
  5
519
330
515
100
AcDbEntity
  8
0
100
AcDb2dPolyline
 66
     1
 10
0.0
 20
0.0
 30
0.0
  0
VERTEX
  5
51A
330
519
100
AcDbEntity
  8
0
100
AcDbVertex
100
AcDb2dVertex
 10
394.613595618832
 20
-196.5774289831437
 30
0.0
  0
VERTEX
  5
51B
330
519
100
AcDbEntity
  8
0
100
AcDbVertex
100
AcDb2dVertex
 10
397.1136016215239
 20
-211.5774649992979
 30
0.0
  0
VERTEX
  5
51C
330
519
100
AcDbEntity
  8
0
100
AcDbVertex
100
AcDb2dVertex
 10
399.6136076242184
 20
-196.5774289831437
 30
0.0
  0
VERTEX
  5
51D
330
519
100
AcDbEntity
  8
0
100
AcDbVertex
100
AcDb2dVertex
 10
394.613595618832
 20
-196.5774289831437
 30
0.0
  0
SEQEND
  5
51F
330
519
100
AcDbEntity
  8
0
  0
INSERT
  5
51E
330
515
100
AcDbEntity
  8
0
 62
     1
100
AcDbBlockReference
  2
*U214
 10
0.0
 20
0.0
 30
0.0
1001
ACAD
1002
{
1000
R14_HATCH_DATA
1000
51E
1011
1.0
1021
0.0
1031
0.0
1011
0.0
1021
1.0
1031
0.0
1011
0.0
1021
0.0
1031
1.0
1040
0.0
1010
0.0
1020
0.0
1030
1.0
1000
SOLID
1070
     1
1070
     1
1071
        1
1071
        1
1071
        3
1070
     1
1040
394.613595618832
1040
-196.5774289831437
1040
397.1136016215239
1040
-211.5774649992979
1070
     1
1040
397.1136016215239
1040
-211.5774649992979
1040
399.6136076242184
1040
-196.5774289831437
1070
     1
1040
399.6136076242184
1040
-196.5774289831437
1040
394.613595618832
1040
-196.5774289831437
1071
        0
1070
     2
1070
     1
1071
        0
1002
}
  0
ENDBLK
  5
518
330
515
100
AcDbEntity
  8
0
100
AcDbBlockEnd
  0
BLOCK
  5
522
330
520
100
AcDbEntity
  8
0
100
AcDbBlockBegin
  2
BLOCK_169
 70
     0
 10
0.0
 20
0.0
 30
0.0
  3
BLOCK_169
  1

  0
MTEXT
  5
524
330
520
100
AcDbEntity
  8
0
 62
     7
100
AcDbMText
 10
389.0380966909349
 20
-65.54238850756393
 30
0.0
 40
8.9915999977521
 41
0.0
 71
     7
 72
     1
  1
\fCourier New|b0|i0|c0|p34;\W1;482.6±2 [19"±0.079"]
 11
6.123233995736766E-17
 21
1.0
 31
0.0
  0
ENDBLK
  5
523
330
520
100
AcDbEntity
  8
0
100
AcDbBlockEnd
  0
BLOCK
  5
527
330
525
100
AcDbEntity
  8
0
100
AcDbBlockBegin
  2
BLOCK_170
 70
     0
 10
0.0
 20
0.0
 30
0.0
  3
BLOCK_170
  1

  0
POLYLINE
  5
529
330
525
100
AcDbEntity
  8
0
 62
     1
100
AcDb2dPolyline
 66
     1
 10
0.0
 20
0.0
 30
0.0
  0
VERTEX
  5
52A
330
529
100
AcDbEntity
  8
0
 62
     1
100
AcDbVertex
100
AcDb2dVertex
 10
-526.3883616331884
 20
-181.1773920065598
 30
0.0
  0
VERTEX
  5
52B
330
529
100
AcDbEntity
  8
0
 62
     1
100
AcDbVertex
100
AcDb2dVertex
 10
-526.3883616331884
 20
-259.6080586922269
 30
0.0
  0
SEQEND
  5
52C
330
529
100
AcDbEntity
  8
0
 62
     1
  0
ENDBLK
  5
528
330
525
100
AcDbEntity
  8
0
100
AcDbBlockEnd
  0
BLOCK
  5
52F
330
52D
100
AcDbEntity
  8
0
100
AcDbBlockBegin
  2
BLOCK_171
 70
     0
 10
0.0
 20
0.0
 30
0.0
  3
BLOCK_171
  1

  0
POLYLINE
  5
531
330
52D
100
AcDbEntity
  8
0
 62
     1
100
AcDb2dPolyline
 66
     1
 10
0.0
 20
0.0
 30
0.0
  0
VERTEX
  5
532
330
531
100
AcDbEntity
  8
0
 62
     1
100
AcDbVertex
100
AcDb2dVertex
 10
235.6134679875473
 20
-181.1773920065598
 30
0.0
  0
VERTEX
  5
533
330
531
100
AcDbEntity
  8
0
 62
     1
100
AcDbVertex
100
AcDb2dVertex
 10
235.6134679875473
 20
-259.6080586922269
 30
0.0
  0
SEQEND
  5
534
330
531
100
AcDbEntity
  8
0
 62
     1
  0
ENDBLK
  5
530
330
52D
100
AcDbEntity
  8
0
100
AcDbBlockEnd
  0
BLOCK
  5
537
330
535
100
AcDbEntity
  8
0
100
AcDbBlockBegin
  2
BLOCK_172
 70
     0
 10
0.0
 20
0.0
 30
0.0
  3
BLOCK_172
  1

  0
POLYLINE
  5
539
330
535
100
AcDbEntity
  8
0
 62
     1
100
AcDb2dPolyline
 66
     1
 10
0.0
 20
0.0
 30
0.0
  0
VERTEX
  5
53A
330
539
100
AcDbEntity
  8
0
 62
     1
100
AcDbVertex
100
AcDb2dVertex
 10
-511.3883256170316
 20
-254.608046686843
 30
0.0
  0
VERTEX
  5
53B
330
539
100
AcDbEntity
  8
0
 62
     1
100
AcDbVertex
100
AcDb2dVertex
 10
220.6134319713879
 20
-254.608046686843
 30
0.0
  0
SEQEND
  5
53C
330
539
100
AcDbEntity
  8
0
 62
     1
  0
ENDBLK
  5
538
330
535
100
AcDbEntity
  8
0
100
AcDbBlockEnd
  0
BLOCK
  5
53F
330
53D
100
AcDbEntity
  8
0
100
AcDbBlockBegin
  2
BLOCK_173
 70
     0
 10
0.0
 20
0.0
 30
0.0
  3
BLOCK_173
  1

  0
POLYLINE
  5
541
330
53D
100
AcDbEntity
  8
0
100
AcDb2dPolyline
 66
     1
 10
0.0
 20
0.0
 30
0.0
  0
VERTEX
  5
542
330
541
100
AcDbEntity
  8
0
100
AcDbVertex
100
AcDb2dVertex
 10
-511.3883256170316
 20
-252.1080406841537
 30
0.0
  0
VERTEX
  5
543
330
541
100
AcDbEntity
  8
0
100
AcDbVertex
100
AcDb2dVertex
 10
-526.3883616331884
 20
-254.608046686843
 30
0.0
  0
VERTEX
  5
544
330
541
100
AcDbEntity
  8
0
100
AcDbVertex
100
AcDb2dVertex
 10
-511.3883256170316
 20
-257.1080526895427
 30
0.0
  0
VERTEX
  5
545
330
541
100
AcDbEntity
  8
0
100
AcDbVertex
100
AcDb2dVertex
 10
-511.3883256170316
 20
-252.1080406841537
 30
0.0
  0
SEQEND
  5
547
330
541
100
AcDbEntity
  8
0
  0
INSERT
  5
546
330
53D
100
AcDbEntity
  8
0
 62
     1
100
AcDbBlockReference
  2
*U215
 10
0.0
 20
0.0
 30
0.0
1001
ACAD
1002
{
1000
R14_HATCH_DATA
1000
546
1011
1.0
1021
0.0
1031
0.0
1011
0.0
1021
1.0
1031
0.0
1011
0.0
1021
0.0
1031
1.0
1040
0.0
1010
0.0
1020
0.0
1030
1.0
1000
SOLID
1070
     1
1070
     1
1071
        1
1071
        1
1071
        3
1070
     1
1040
-511.3883256170316
1040
-252.1080406841537
1040
-526.3883616331884
1040
-254.608046686843
1070
     1
1040
-526.3883616331884
1040
-254.608046686843
1040
-511.3883256170316
1040
-257.1080526895427
1070
     1
1040
-511.3883256170316
1040
-257.1080526895427
1040
-511.3883256170316
1040
-252.1080406841537
1071
        0
1070
     2
1070
     1
1071
        0
1002
}
  0
ENDBLK
  5
540
330
53D
100
AcDbEntity
  8
0
100
AcDbBlockEnd
  0
BLOCK
  5
54A
330
548
100
AcDbEntity
  8
0
100
AcDbBlockBegin
  2
BLOCK_174
 70
     0
 10
0.0
 20
0.0
 30
0.0
  3
BLOCK_174
  1

  0
POLYLINE
  5
54C
330
548
100
AcDbEntity
  8
0
100
AcDb2dPolyline
 66
     1
 10
0.0
 20
0.0
 30
0.0
  0
VERTEX
  5
54D
330
54C
100
AcDbEntity
  8
0
100
AcDbVertex
100
AcDb2dVertex
 10
220.6134319713879
 20
-252.1080406841537
 30
0.0
  0
VERTEX
  5
54E
330
54C
100
AcDbEntity
  8
0
100
AcDbVertex
100
AcDb2dVertex
 10
235.6134679875473
 20
-254.608046686843
 30
0.0
  0
VERTEX
  5
54F
330
54C
100
AcDbEntity
  8
0
100
AcDbVertex
100
AcDb2dVertex
 10
220.6134319713879
 20
-257.1080526895427
 30
0.0
  0
VERTEX
  5
550
330
54C
100
AcDbEntity
  8
0
100
AcDbVertex
100
AcDb2dVertex
 10
220.6134319713879
 20
-252.1080406841537
 30
0.0
  0
SEQEND
  5
552
330
54C
100
AcDbEntity
  8
0
  0
INSERT
  5
551
330
548
100
AcDbEntity
  8
0
 62
     1
100
AcDbBlockReference
  2
*U216
 10
0.0
 20
0.0
 30
0.0
1001
ACAD
1002
{
1000
R14_HATCH_DATA
1000
551
1011
1.0
1021
0.0
1031
0.0
1011
0.0
1021
1.0
1031
0.0
1011
0.0
1021
0.0
1031
1.0
1040
0.0
1010
0.0
1020
0.0
1030
1.0
1000
SOLID
1070
     1
1070
     1
1071
        1
1071
        1
1071
        3
1070
     1
1040
220.6134319713879
1040
-252.1080406841537
1040
235.6134679875473
1040
-254.608046686843
1070
     1
1040
235.6134679875473
1040
-254.608046686843
1040
220.6134319713879
1040
-257.1080526895427
1070
     1
1040
220.6134319713879
1040
-257.1080526895427
1040
220.6134319713879
1040
-252.1080406841537
1071
        0
1070
     2
1070
     1
1071
        0
1002
}
  0
ENDBLK
  5
54B
330
548
100
AcDbEntity
  8
0
100
AcDbBlockEnd
  0
BLOCK
  5
555
330
553
100
AcDbEntity
  8
0
100
AcDbBlockBegin
  2
BLOCK_175
 70
     0
 10
0.0
 20
0.0
 30
0.0
  3
BLOCK_175
  1

  0
MTEXT
  5
557
330
553
100
AcDbEntity
  8
0
 62
     7
100
AcDbMText
 10
-224.3542642668281
 20
-247.0305717698396
 30
0.0
 40
8.9915999977521
 41
0.0
 71
     7
 72
     1
  1
\fCourier New|b0|i0|c0|p34;\W1;762±2 [30"±0.079"]
  0
ENDBLK
  5
556
330
553
100
AcDbEntity
  8
0
100
AcDbBlockEnd
  0
BLOCK
  5
55A
330
558
100
AcDbEntity
  8
0
100
AcDbBlockBegin
  2
BLOCK_176
 70
     0
 10
0.0
 20
0.0
 30
0.0
  3
BLOCK_176
  1

  0
POLYLINE
  5
55C
330
558
100
AcDbEntity
  8
0
 62
     1
100
AcDb2dPolyline
 66
     1
 10
0.0
 20
0.0
 30
0.0
  0
VERTEX
  5
55D
330
55C
100
AcDbEntity
  8
0
 62
     1
100
AcDbVertex
100
AcDb2dVertex
 10
-551.7884226205425
 20
-191.177416017325
 30
0.0
  0
VERTEX
  5
55E
330
55C
100
AcDbEntity
  8
0
 62
     1
100
AcDbVertex
100
AcDb2dVertex
 10
-551.7884226205425
 20
-294.4341874059346
 30
0.0
  0
SEQEND
  5
55F
330
55C
100
AcDbEntity
  8
0
 62
     1
  0
ENDBLK
  5
55B
330
558
100
AcDbEntity
  8
0
100
AcDbBlockEnd
  0
BLOCK
  5
562
330
560
100
AcDbEntity
  8
0
100
AcDbBlockBegin
  2
BLOCK_177
 70
     0
 10
0.0
 20
0.0
 30
0.0
  3
BLOCK_177
  1

  0
POLYLINE
  5
564
330
560
100
AcDbEntity
  8
0
 62
     1
100
AcDb2dPolyline
 66
     1
 10
0.0
 20
0.0
 30
0.0
  0
VERTEX
  5
565
330
564
100
AcDbEntity
  8
0
 62
     1
100
AcDbVertex
100
AcDb2dVertex
 10
261.0135289749091
 20
-191.177416017325
 30
0.0
  0
VERTEX
  5
566
330
564
100
AcDbEntity
  8
0
 62
     1
100
AcDbVertex
100
AcDb2dVertex
 10
261.0135289749091
 20
-294.4341874059346
 30
0.0
  0
SEQEND
  5
567
330
564
100
AcDbEntity
  8
0
 62
     1
  0
ENDBLK
  5
563
330
560
100
AcDbEntity
  8
0
100
AcDbBlockEnd
  0
BLOCK
  5
56A
330
568
100
AcDbEntity
  8
0
100
AcDbBlockBegin
  2
BLOCK_178
 70
     0
 10
0.0
 20
0.0
 30
0.0
  3
BLOCK_178
  1

  0
POLYLINE
  5
56C
330
568
100
AcDbEntity
  8
0
 62
     1
100
AcDb2dPolyline
 66
     1
 10
0.0
 20
0.0
 30
0.0
  0
VERTEX
  5
56D
330
56C
100
AcDbEntity
  8
0
 62
     1
100
AcDbVertex
100
AcDb2dVertex
 10
-536.7883866043833
 20
-289.4341754005508
 30
0.0
  0
VERTEX
  5
56E
330
56C
100
AcDbEntity
  8
0
 62
     1
100
AcDbVertex
100
AcDb2dVertex
 10
246.0134929587498
 20
-289.4341754005508
 30
0.0
  0
SEQEND
  5
56F
330
56C
100
AcDbEntity
  8
0
 62
     1
  0
ENDBLK
  5
56B
330
568
100
AcDbEntity
  8
0
100
AcDbBlockEnd
  0
BLOCK
  5
572
330
570
100
AcDbEntity
  8
0
100
AcDbBlockBegin
  2
BLOCK_179
 70
     0
 10
0.0
 20
0.0
 30
0.0
  3
BLOCK_179
  1

  0
POLYLINE
  5
574
330
570
100
AcDbEntity
  8
0
100
AcDb2dPolyline
 66
     1
 10
0.0
 20
0.0
 30
0.0
  0
VERTEX
  5
575
330
574
100
AcDbEntity
  8
0
100
AcDbVertex
100
AcDb2dVertex
 10
-536.7883866043833
 20
-286.9341693978537
 30
0.0
  0
VERTEX
  5
576
330
574
100
AcDbEntity
  8
0
100
AcDbVertex
100
AcDb2dVertex
 10
-551.7884226205425
 20
-289.4341754005508
 30
0.0
  0
VERTEX
  5
577
330
574
100
AcDbEntity
  8
0
100
AcDbVertex
100
AcDb2dVertex
 10
-536.7883866043833
 20
-291.9341814032452
 30
0.0
  0
VERTEX
  5
578
330
574
100
AcDbEntity
  8
0
100
AcDbVertex
100
AcDb2dVertex
 10
-536.7883866043833
 20
-286.9341693978537
 30
0.0
  0
SEQEND
  5
57A
330
574
100
AcDbEntity
  8
0
  0
INSERT
  5
579
330
570
100
AcDbEntity
  8
0
 62
     1
100
AcDbBlockReference
  2
*U217
 10
0.0
 20
0.0
 30
0.0
1001
ACAD
1002
{
1000
R14_HATCH_DATA
1000
579
1011
1.0
1021
0.0
1031
0.0
1011
0.0
1021
1.0
1031
0.0
1011
0.0
1021
0.0
1031
1.0
1040
0.0
1010
0.0
1020
0.0
1030
1.0
1000
SOLID
1070
     1
1070
     1
1071
        1
1071
        1
1071
        3
1070
     1
1040
-536.7883866043833
1040
-286.9341693978537
1040
-551.7884226205425
1040
-289.4341754005508
1070
     1
1040
-551.7884226205425
1040
-289.4341754005508
1040
-536.7883866043833
1040
-291.9341814032452
1070
     1
1040
-536.7883866043833
1040
-291.9341814032452
1040
-536.7883866043833
1040
-286.9341693978537
1071
        0
1070
     2
1070
     1
1071
        0
1002
}
  0
ENDBLK
  5
573
330
570
100
AcDbEntity
  8
0
100
AcDbBlockEnd
  0
BLOCK
  5
57D
330
57B
100
AcDbEntity
  8
0
100
AcDbBlockBegin
  2
BLOCK_180
 70
     0
 10
0.0
 20
0.0
 30
0.0
  3
BLOCK_180
  1

  0
POLYLINE
  5
57F
330
57B
100
AcDbEntity
  8
0
100
AcDb2dPolyline
 66
     1
 10
0.0
 20
0.0
 30
0.0
  0
VERTEX
  5
580
330
57F
100
AcDbEntity
  8
0
100
AcDbVertex
100
AcDb2dVertex
 10
246.0134929587498
 20
-286.9341693978537
 30
0.0
  0
VERTEX
  5
581
330
57F
100
AcDbEntity
  8
0
100
AcDbVertex
100
AcDb2dVertex
 10
261.0135289749091
 20
-289.4341754005508
 30
0.0
  0
VERTEX
  5
582
330
57F
100
AcDbEntity
  8
0
100
AcDbVertex
100
AcDb2dVertex
 10
246.0134929587498
 20
-291.9341814032452
 30
0.0
  0
VERTEX
  5
583
330
57F
100
AcDbEntity
  8
0
100
AcDbVertex
100
AcDb2dVertex
 10
246.0134929587498
 20
-286.9341693978537
 30
0.0
  0
SEQEND
  5
585
330
57F
100
AcDbEntity
  8
0
  0
INSERT
  5
584
330
57B
100
AcDbEntity
  8
0
 62
     1
100
AcDbBlockReference
  2
*U218
 10
0.0
 20
0.0
 30
0.0
1001
ACAD
1002
{
1000
R14_HATCH_DATA
1000
584
1011
1.0
1021
0.0
1031
0.0
1011
0.0
1021
1.0
1031
0.0
1011
0.0
1021
0.0
1031
1.0
1040
0.0
1010
0.0
1020
0.0
1030
1.0
1000
SOLID
1070
     1
1070
     1
1071
        1
1071
        1
1071
        3
1070
     1
1040
246.0134929587498
1040
-286.9341693978537
1040
261.0135289749091
1040
-289.4341754005508
1070
     1
1040
261.0135289749091
1040
-289.4341754005508
1040
246.0134929587498
1040
-291.9341814032452
1070
     1
1040
246.0134929587498
1040
-291.9341814032452
1040
246.0134929587498
1040
-286.9341693978537
1071
        0
1070
     2
1070
     1
1071
        0
1002
}
  0
ENDBLK
  5
57E
330
57B
100
AcDbEntity
  8
0
100
AcDbBlockEnd
  0
BLOCK
  5
588
330
586
100
AcDbEntity
  8
0
100
AcDbBlockBegin
  2
BLOCK_181
 70
     0
 10
0.0
 20
0.0
 30
0.0
  3
BLOCK_181
  1

  0
MTEXT
  5
58A
330
586
100
AcDbEntity
  8
0
 62
     7
100
AcDbMText
 10
-232.6982855321032
 20
-281.8508408583567
 30
0.0
 40
8.9915999977521
 41
0.0
 71
     7
 72
     1
  1
\fCourier New|b0|i0|c0|p34;\W1;812.8±2 [32"±0.079"]
  0
ENDBLK
  5
589
330
586
100
AcDbEntity
  8
0
100
AcDbBlockEnd
  0
BLOCK
  5
58D
330
58B
100
AcDbEntity
  8
0
100
AcDbBlockBegin
  2
BLOCK_182
 70
     0
 10
0.0
 20
0.0
 30
0.0
  3
BLOCK_182
  1

  0
POLYLINE
  5
58F
330
58B
100
AcDbEntity
  8
0
 62
     1
100
AcDb2dPolyline
 66
     1
 10
0.0
 20
0.0
 30
0.0
  0
VERTEX
  5
590
330
58F
100
AcDbEntity
  8
0
 62
     1
100
AcDbVertex
100
AcDb2dVertex
 10
801.143572475002
 20
24.72310237521372
 30
0.0
  0
VERTEX
  5
591
330
58F
100
AcDbEntity
  8
0
 62
     1
100
AcDbVertex
100
AcDb2dVertex
 10
801.143572475002
 20
21.98817874526098
 30
0.0
  0
SEQEND
  5
592
330
58F
100
AcDbEntity
  8
0
 62
     1
  0
ENDBLK
  5
58E
330
58B
100
AcDbEntity
  8
0
100
AcDbBlockEnd
  0
BLOCK
  5
595
330
593
100
AcDbEntity
  8
0
100
AcDbBlockBegin
  2
BLOCK_183
 70
     0
 10
0.0
 20
0.0
 30
0.0
  3
BLOCK_183
  1

  0
POLYLINE
  5
597
330
593
100
AcDbEntity
  8
0
 62
     1
100
AcDb2dPolyline
 66
     1
 10
0.0
 20
0.0
 30
0.0
  0
VERTEX
  5
598
330
597
100
AcDbEntity
  8
0
 62
     1
100
AcDbVertex
100
AcDb2dVertex
 10
-172.303048962406
 20
400.7398826278861
 30
0.0
  0
VERTEX
  5
599
330
597
100
AcDbEntity
  8
0
 62
     1
100
AcDbVertex
100
AcDb2dVertex
 10
-172.303048962406
 20
459.9896699544641
 30
0.0
  0
SEQEND
  5
59A
330
597
100
AcDbEntity
  8
0
 62
     1
  0
ENDBLK
  5
596
330
593
100
AcDbEntity
  8
0
100
AcDbBlockEnd
  0
BLOCK
  5
59D
330
59B
100
AcDbEntity
  8
0
100
AcDbBlockBegin
  2
BLOCK_184
 70
     0
 10
0.0
 20
0.0
 30
0.0
  3
BLOCK_184
  1

  0
POLYLINE
  5
59F
330
59B
100
AcDbEntity
  8
0
 62
     1
100
AcDb2dPolyline
 66
     1
 10
0.0
 20
0.0
 30
0.0
  0
VERTEX
  5
5A0
330
59F
100
AcDbEntity
  8
0
 62
     1
100
AcDbVertex
100
AcDb2dVertex
 10
-57.80747247623564
 20
400.7398826278861
 30
0.0
  0
VERTEX
  5
5A1
330
59F
100
AcDbEntity
  8
0
 62
     1
100
AcDbVertex
100
AcDb2dVertex
 10
-57.80747247623564
 20
459.9896699544641
 30
0.0
  0
SEQEND
  5
5A2
330
59F
100
AcDbEntity
  8
0
 62
     1
  0
ENDBLK
  5
59E
330
59B
100
AcDbEntity
  8
0
100
AcDbBlockEnd
  0
BLOCK
  5
5A5
330
5A3
100
AcDbEntity
  8
0
100
AcDbBlockBegin
  2
BLOCK_185
 70
     0
 10
0.0
 20
0.0
 30
0.0
  3
BLOCK_185
  1

  0
POLYLINE
  5
5A7
330
5A3
100
AcDbEntity
  8
0
 62
     1
100
AcDb2dPolyline
 66
     1
 10
0.0
 20
0.0
 30
0.0
  0
VERTEX
  5
5A8
330
5A7
100
AcDbEntity
  8
0
 62
     1
100
AcDbVertex
100
AcDb2dVertex
 10
-157.3030129462492
 20
454.9896579490751
 30
0.0
  0
VERTEX
  5
5A9
330
5A7
100
AcDbEntity
  8
0
 62
     1
100
AcDbVertex
100
AcDb2dVertex
 10
-72.80750849239239
 20
454.9896579490751
 30
0.0
  0
SEQEND
  5
5AA
330
5A7
100
AcDbEntity
  8
0
 62
     1
  0
ENDBLK
  5
5A6
330
5A3
100
AcDbEntity
  8
0
100
AcDbBlockEnd
  0
BLOCK
  5
5AD
330
5AB
100
AcDbEntity
  8
0
100
AcDbBlockBegin
  2
BLOCK_186
 70
     0
 10
0.0
 20
0.0
 30
0.0
  3
BLOCK_186
  1

  0
POLYLINE
  5
5AF
330
5AB
100
AcDbEntity
  8
0
100
AcDb2dPolyline
 66
     1
 10
0.0
 20
0.0
 30
0.0
  0
VERTEX
  5
5B0
330
5AF
100
AcDbEntity
  8
0
100
AcDbVertex
100
AcDb2dVertex
 10
-157.3030129462492
 20
457.4896639517671
 30
0.0
  0
VERTEX
  5
5B1
330
5AF
100
AcDbEntity
  8
0
100
AcDbVertex
100
AcDb2dVertex
 10
-172.303048962406
 20
454.9896579490751
 30
0.0
  0
VERTEX
  5
5B2
330
5AF
100
AcDbEntity
  8
0
100
AcDbVertex
100
AcDb2dVertex
 10
-157.3030129462492
 20
452.4896519463858
 30
0.0
  0
VERTEX
  5
5B3
330
5AF
100
AcDbEntity
  8
0
100
AcDbVertex
100
AcDb2dVertex
 10
-157.3030129462492
 20
457.4896639517671
 30
0.0
  0
SEQEND
  5
5B5
330
5AF
100
AcDbEntity
  8
0
  0
INSERT
  5
5B4
330
5AB
100
AcDbEntity
  8
0
 62
     1
100
AcDbBlockReference
  2
*U219
 10
0.0
 20
0.0
 30
0.0
1001
ACAD
1002
{
1000
R14_HATCH_DATA
1000
5B4
1011
1.0
1021
0.0
1031
0.0
1011
0.0
1021
1.0
1031
0.0
1011
0.0
1021
0.0
1031
1.0
1040
0.0
1010
0.0
1020
0.0
1030
1.0
1000
SOLID
1070
     1
1070
     1
1071
        1
1071
        1
1071
        3
1070
     1
1040
-157.3030129462492
1040
457.4896639517671
1040
-172.303048962406
1040
454.9896579490751
1070
     1
1040
-172.303048962406
1040
454.9896579490751
1040
-157.3030129462492
1040
452.4896519463858
1070
     1
1040
-157.3030129462492
1040
452.4896519463858
1040
-157.3030129462492
1040
457.4896639517671
1071
        0
1070
     2
1070
     1
1071
        0
1002
}
  0
ENDBLK
  5
5AE
330
5AB
100
AcDbEntity
  8
0
100
AcDbBlockEnd
  0
BLOCK
  5
5B8
330
5B6
100
AcDbEntity
  8
0
100
AcDbBlockBegin
  2
BLOCK_187
 70
     0
 10
0.0
 20
0.0
 30
0.0
  3
BLOCK_187
  1

  0
POLYLINE
  5
5BA
330
5B6
100
AcDbEntity
  8
0
100
AcDb2dPolyline
 66
     1
 10
0.0
 20
0.0
 30
0.0
  0
VERTEX
  5
5BB
330
5BA
100
AcDbEntity
  8
0
100
AcDbVertex
100
AcDb2dVertex
 10
-72.80750849239239
 20
457.4896639517671
 30
0.0
  0
VERTEX
  5
5BC
330
5BA
100
AcDbEntity
  8
0
100
AcDbVertex
100
AcDb2dVertex
 10
-57.80747247623564
 20
454.9896579490751
 30
0.0
  0
VERTEX
  5
5BD
330
5BA
100
AcDbEntity
  8
0
100
AcDbVertex
100
AcDb2dVertex
 10
-72.80750849239239
 20
452.4896519463858
 30
0.0
  0
VERTEX
  5
5BE
330
5BA
100
AcDbEntity
  8
0
100
AcDbVertex
100
AcDb2dVertex
 10
-72.80750849239239
 20
457.4896639517671
 30
0.0
  0
SEQEND
  5
5C0
330
5BA
100
AcDbEntity
  8
0
  0
INSERT
  5
5BF
330
5B6
100
AcDbEntity
  8
0
 62
     1
100
AcDbBlockReference
  2
*U220
 10
0.0
 20
0.0
 30
0.0
1001
ACAD
1002
{
1000
R14_HATCH_DATA
1000
5BF
1011
1.0
1021
0.0
1031
0.0
1011
0.0
1021
1.0
1031
0.0
1011
0.0
1021
0.0
1031
1.0
1040
0.0
1010
0.0
1020
0.0
1030
1.0
1000
SOLID
1070
     1
1070
     1
1071
        1
1071
        1
1071
        3
1070
     1
1040
-72.80750849239239
1040
457.4896639517671
1040
-57.80747247623564
1040
454.9896579490751
1070
     1
1040
-57.80747247623564
1040
454.9896579490751
1040
-72.80750849239239
1040
452.4896519463858
1070
     1
1040
-72.80750849239239
1040
452.4896519463858
1040
-72.80750849239239
1040
457.4896639517671
1071
        0
1070
     2
1070
     1
1071
        0
1002
}
  0
ENDBLK
  5
5B9
330
5B6
100
AcDbEntity
  8
0
100
AcDbBlockEnd
  0
BLOCK
  5
5C3
330
5C1
100
AcDbEntity
  8
0
100
AcDbBlockBegin
  2
BLOCK_188
 70
     0
 10
0.0
 20
0.0
 30
0.0
  3
BLOCK_188
  1

  0
MTEXT
  5
5C5
330
5C1
100
AcDbEntity
  8
0
 62
     7
100
AcDbMText
 10
-166.9286566422956
 20
466.5727266628707
 30
0.0
 40
8.9915999977521
 41
0.0
 71
     7
 72
     1
  1
\fCourier New|b0|i0|c0|p34;\W1;Ø114.5
  0
MTEXT
  5
5C6
330
5C1
100
AcDbEntity
  8
0
 62
     7
100
AcDbMText
 10
-103.6505208074207
 20
476.5745278756481
 30
0.0
 40
8.9915999977521
 41
0.0
 71
     7
 72
     1
  1
\fCourier New|b0|i0|c0|p34;\W1;+0.5
  0
MTEXT
  5
5C7
330
5C1
100
AcDbEntity
  8
0
 62
     7
100
AcDbMText
 10
-103.3942057033181
 20
458.4195636874784
 30
0.0
 40
8.9915999977521
 41
0.0
 71
     7
 72
     1
  1
\fCourier New|b0|i0|c0|p34;\W1;-0
  0
ENDBLK
  5
5C4
330
5C1
100
AcDbEntity
  8
0
100
AcDbBlockEnd
  0
BLOCK
  5
5CA
330
5C8
100
AcDbEntity
  8
0
100
AcDbBlockBegin
  2
BLOCK_189
 70
     0
 10
0.0
 20
0.0
 30
0.0
  3
BLOCK_189
  1

  0
POLYLINE
  5
5CC
330
5C8
100
AcDbEntity
  8
0
 62
     1
100
AcDb2dPolyline
 66
     1
 10
0.0
 20
0.0
 30
0.0
  0
VERTEX
  5
5CD
330
5CC
100
AcDbEntity
  8
0
 62
     1
100
AcDbVertex
100
AcDb2dVertex
 10
230.6134559821608
 20
245.6236327731415
 30
0.0
  0
VERTEX
  5
5CE
330
5CC
100
AcDbEntity
  8
0
 62
     1
100
AcDbVertex
100
AcDb2dVertex
 10
361.6945515329325
 20
245.6236327731415
 30
0.0
  0
SEQEND
  5
5CF
330
5CC
100
AcDbEntity
  8
0
 62
     1
  0
ENDBLK
  5
5CB
330
5C8
100
AcDbEntity
  8
0
100
AcDbBlockEnd
  0
BLOCK
  5
5D2
330
5D0
100
AcDbEntity
  8
0
100
AcDbBlockBegin
  2
BLOCK_190
 70
     0
 10
0.0
 20
0.0
 30
0.0
  3
BLOCK_190
  1

  0
POLYLINE
  5
5D4
330
5D0
100
AcDbEntity
  8
0
 62
     1
100
AcDb2dPolyline
 66
     1
 10
0.0
 20
0.0
 30
0.0
  0
VERTEX
  5
5D5
330
5D4
100
AcDbEntity
  8
0
 62
     1
100
AcDbVertex
100
AcDb2dVertex
 10
230.6134559821608
 20
-186.1774040119411
 30
0.0
  0
VERTEX
  5
5D6
330
5D4
100
AcDbEntity
  8
0
 62
     1
100
AcDbVertex
100
AcDb2dVertex
 10
361.6945515329325
 20
-186.1774040119411
 30
0.0
  0
SEQEND
  5
5D7
330
5D4
100
AcDbEntity
  8
0
 62
     1
  0
ENDBLK
  5
5D3
330
5D0
100
AcDbEntity
  8
0
100
AcDbBlockEnd
  0
BLOCK
  5
5DA
330
5D8
100
AcDbEntity
  8
0
100
AcDbBlockBegin
  2
BLOCK_191
 70
     0
 10
0.0
 20
0.0
 30
0.0
  3
BLOCK_191
  1

  0
POLYLINE
  5
5DC
330
5D8
100
AcDbEntity
  8
0
 62
     1
100
AcDb2dPolyline
 66
     1
 10
0.0
 20
0.0
 30
0.0
  0
VERTEX
  5
5DD
330
5DC
100
AcDbEntity
  8
0
 62
     1
100
AcDbVertex
100
AcDb2dVertex
 10
356.6945395275435
 20
230.6235967569873
 30
0.0
  0
VERTEX
  5
5DE
330
5DC
100
AcDbEntity
  8
0
 62
     1
100
AcDbVertex
100
AcDb2dVertex
 10
356.6945395275435
 20
-171.1773679957818
 30
0.0
  0
SEQEND
  5
5DF
330
5DC
100
AcDbEntity
  8
0
 62
     1
  0
ENDBLK
  5
5DB
330
5D8
100
AcDbEntity
  8
0
100
AcDbBlockEnd
  0
BLOCK
  5
5E2
330
5E0
100
AcDbEntity
  8
0
100
AcDbBlockBegin
  2
BLOCK_192
 70
     0
 10
0.0
 20
0.0
 30
0.0
  3
BLOCK_192
  1

  0
POLYLINE
  5
5E4
330
5E0
100
AcDbEntity
  8
0
100
AcDb2dPolyline
 66
     1
 10
0.0
 20
0.0
 30
0.0
  0
VERTEX
  5
5E5
330
5E4
100
AcDbEntity
  8
0
100
AcDbVertex
100
AcDb2dVertex
 10
354.194533524849
 20
230.6235967569873
 30
0.0
  0
VERTEX
  5
5E6
330
5E4
100
AcDbEntity
  8
0
100
AcDbVertex
100
AcDb2dVertex
 10
356.6945395275435
 20
245.6236327731415
 30
0.0
  0
VERTEX
  5
5E7
330
5E4
100
AcDbEntity
  8
0
100
AcDbVertex
100
AcDb2dVertex
 10
359.194545530238
 20
230.6235967569873
 30
0.0
  0
VERTEX
  5
5E8
330
5E4
100
AcDbEntity
  8
0
100
AcDbVertex
100
AcDb2dVertex
 10
354.194533524849
 20
230.6235967569873
 30
0.0
  0
SEQEND
  5
5EA
330
5E4
100
AcDbEntity
  8
0
  0
INSERT
  5
5E9
330
5E0
100
AcDbEntity
  8
0
 62
     1
100
AcDbBlockReference
  2
*U221
 10
0.0
 20
0.0
 30
0.0
1001
ACAD
1002
{
1000
R14_HATCH_DATA
1000
5E9
1011
1.0
1021
0.0
1031
0.0
1011
0.0
1021
1.0
1031
0.0
1011
0.0
1021
0.0
1031
1.0
1040
0.0
1010
0.0
1020
0.0
1030
1.0
1000
SOLID
1070
     1
1070
     1
1071
        1
1071
        1
1071
        3
1070
     1
1040
354.194533524849
1040
230.6235967569873
1040
356.6945395275435
1040
245.6236327731415
1070
     1
1040
356.6945395275435
1040
245.6236327731415
1040
359.194545530238
1040
230.6235967569873
1070
     1
1040
359.194545530238
1040
230.6235967569873
1040
354.194533524849
1040
230.6235967569873
1071
        0
1070
     2
1070
     1
1071
        0
1002
}
  0
ENDBLK
  5
5E3
330
5E0
100
AcDbEntity
  8
0
100
AcDbBlockEnd
  0
BLOCK
  5
5ED
330
5EB
100
AcDbEntity
  8
0
100
AcDbBlockBegin
  2
BLOCK_193
 70
     0
 10
0.0
 20
0.0
 30
0.0
  3
BLOCK_193
  1

  0
POLYLINE
  5
5EF
330
5EB
100
AcDbEntity
  8
0
100
AcDb2dPolyline
 66
     1
 10
0.0
 20
0.0
 30
0.0
  0
VERTEX
  5
5F0
330
5EF
100
AcDbEntity
  8
0
100
AcDbVertex
100
AcDb2dVertex
 10
354.194533524849
 20
-171.1773679957818
 30
0.0
  0
VERTEX
  5
5F1
330
5EF
100
AcDbEntity
  8
0
100
AcDbVertex
100
AcDb2dVertex
 10
356.6945395275435
 20
-186.1774040119411
 30
0.0
  0
VERTEX
  5
5F2
330
5EF
100
AcDbEntity
  8
0
100
AcDbVertex
100
AcDb2dVertex
 10
359.194545530238
 20
-171.1773679957818
 30
0.0
  0
VERTEX
  5
5F3
330
5EF
100
AcDbEntity
  8
0
100
AcDbVertex
100
AcDb2dVertex
 10
354.194533524849
 20
-171.1773679957818
 30
0.0
  0
SEQEND
  5
5F5
330
5EF
100
AcDbEntity
  8
0
  0
INSERT
  5
5F4
330
5EB
100
AcDbEntity
  8
0
 62
     1
100
AcDbBlockReference
  2
*U222
 10
0.0
 20
0.0
 30
0.0
1001
ACAD
1002
{
1000
R14_HATCH_DATA
1000
5F4
1011
1.0
1021
0.0
1031
0.0
1011
0.0
1021
1.0
1031
0.0
1011
0.0
1021
0.0
1031
1.0
1040
0.0
1010
0.0
1020
0.0
1030
1.0
1000
SOLID
1070
     1
1070
     1
1071
        1
1071
        1
1071
        3
1070
     1
1040
354.194533524849
1040
-171.1773679957818
1040
356.6945395275435
1040
-186.1774040119411
1070
     1
1040
356.6945395275435
1040
-186.1774040119411
1040
359.194545530238
1040
-171.1773679957818
1070
     1
1040
359.194545530238
1040
-171.1773679957818
1040
354.194533524849
1040
-171.1773679957818
1071
        0
1070
     2
1070
     1
1071
        0
1002
}
  0
ENDBLK
  5
5EE
330
5EB
100
AcDbEntity
  8
0
100
AcDbBlockEnd
  0
BLOCK
  5
5F8
330
5F6
100
AcDbEntity
  8
0
100
AcDbBlockBegin
  2
BLOCK_194
 70
     0
 10
0.0
 20
0.0
 30
0.0
  3
BLOCK_194
  1

  0
MTEXT
  5
5FA
330
5F6
100
AcDbEntity
  8
0
 62
     7
100
AcDbMText
 10
348.6202364579838
 20
-65.54238850756393
 30
0.0
 40
8.9915999977521
 41
0.0
 71
     7
 72
     1
  1
\fCourier New|b0|i0|c0|p34;\W1;431.8±2 [17"±0.079"]
 11
6.123233995736766E-17
 21
1.0
 31
0.0
  0
ENDBLK
  5
5F9
330
5F6
100
AcDbEntity
  8
0
100
AcDbBlockEnd
  0
BLOCK
  5
5FD
330
5FB
100
AcDbEntity
  8
0
100
AcDbBlockBegin
  2
BLOCK_195
 70
     0
 10
0.0
 20
0.0
 30
0.0
  3
BLOCK_195
  1

  0
POLYLINE
  5
5FF
330
5FB
100
AcDbEntity
  8
0
  6
AI-LINETYPE-1
 62
     6
100
AcDb2dPolyline
 66
     1
 10
0.0
 20
0.0
 30
0.0
  0
VERTEX
  5
600
330
5FF
100
AcDbEntity
  8
0
  6
AI-LINETYPE-1
 62
     6
100
AcDbVertex
100
AcDb2dVertex
 10
-221.3080739729396
 20
130.6233566492765
 30
0.0
  0
VERTEX
  5
601
330
5FF
100
AcDbEntity
  8
0
  6
AI-LINETYPE-1
 62
     6
100
AcDbVertex
100
AcDb2dVertex
 10
-69.4668196727605
 20
130.6233566492765
 30
0.0
  0
SEQEND
  5
603
330
5FF
100
AcDbEntity
  8
0
  6
AI-LINETYPE-1
 62
     6
  0
ENDBLK
  5
5FE
330
5FB
100
AcDbEntity
  8
0
100
AcDbBlockEnd
  0
BLOCK
  5
606
330
604
100
AcDbEntity
  8
0
100
AcDbBlockBegin
  2
BLOCK_196
 70
     0
 10
0.0
 20
0.0
 30
0.0
  3
BLOCK_196
  1

  0
POLYLINE
  5
608
330
604
100
AcDbEntity
  8
0
  6
AI-LINETYPE-2
 62
     6
100
AcDb2dPolyline
 66
     1
 10
0.0
 20
0.0
 30
0.0
  0
VERTEX
  5
609
330
608
100
AcDbEntity
  8
0
  6
AI-LINETYPE-2
 62
     6
100
AcDbVertex
100
AcDb2dVertex
 10
-145.3874468228526
 20
206.1861490135182
 30
0.0
  0
VERTEX
  5
60A
330
608
100
AcDbEntity
  8
0
  6
AI-LINETYPE-2
 62
     6
100
AcDbVertex
100
AcDb2dVertex
 10
-145.3874468228526
 20
54.3432001527045
 30
0.0
  0
SEQEND
  5
60C
330
608
100
AcDbEntity
  8
0
  6
AI-LINETYPE-2
 62
     6
  0
ENDBLK
  5
607
330
604
100
AcDbEntity
  8
0
100
AcDbBlockEnd
  0
BLOCK
  5
60F
330
60D
100
AcDbEntity
  8
0
100
AcDbBlockBegin
  2
BLOCK_197
 70
     0
 10
0.0
 20
0.0
 30
0.0
  3
BLOCK_197
  1

  0
POLYLINE
  5
611
330
60D
100
AcDbEntity
  8
0
  6
AI-LINETYPE-3
 62
     6
100
AcDb2dPolyline
 66
     1
 10
0.0
 20
0.0
 30
0.0
  0
VERTEX
  5
612
330
611
100
AcDbEntity
  8
0
  6
AI-LINETYPE-3
 62
     6
100
AcDbVertex
100
AcDb2dVertex
 10
-115.0552607195249
 20
420.5579486983299
 30
0.0
  0
VERTEX
  5
613
330
611
100
AcDbEntity
  8
0
  6
AI-LINETYPE-3
 62
     6
100
AcDbVertex
100
AcDb2dVertex
 10
-115.0552607195249
 20
364.9008529238746
 30
0.0
  0
SEQEND
  5
615
330
611
100
AcDbEntity
  8
0
  6
AI-LINETYPE-3
 62
     6
  0
ENDBLK
  5
610
330
60D
100
AcDbEntity
  8
0
100
AcDbBlockEnd
  0
BLOCK
  5
618
330
616
100
AcDbEntity
  8
0
100
AcDbBlockBegin
  2
BLOCK_198
 70
     0
 10
0.0
 20
0.0
 30
0.0
  3
BLOCK_198
  1

  0
POLYLINE
  5
61A
330
616
100
AcDbEntity
  8
0
  6
AI-LINETYPE-4
 62
     6
100
AcDb2dPolyline
 66
     1
 10
0.0
 20
0.0
 30
0.0
  0
VERTEX
  5
61B
330
61A
100
AcDbEntity
  8
0
  6
AI-LINETYPE-4
 62
     6
100
AcDbVertex
100
AcDb2dVertex
 10
560.4884736589304
 20
130.6233566492765
 30
0.0
  0
VERTEX
  5
61C
330
61A
100
AcDbEntity
  8
0
  6
AI-LINETYPE-4
 62
     6
100
AcDbVertex
100
AcDb2dVertex
 10
504.8313778844956
 20
130.6233566492765
 30
0.0
  0
SEQEND
  5
61E
330
61A
100
AcDbEntity
  8
0
  6
AI-LINETYPE-4
 62
     6
  0
ENDBLK
  5
619
330
616
100
AcDbEntity
  8
0
100
AcDbBlockEnd
  0
BLOCK
  5
621
330
61F
100
AcDbEntity
  8
0
100
AcDbBlockBegin
  2
BLOCK_199
 70
     0
 10
0.0
 20
0.0
 30
0.0
  3
BLOCK_199
  1

  0
POLYLINE
  5
623
330
61F
100
AcDbEntity
  8
0
 62
     1
100
AcDb2dPolyline
 66
     1
 10
0.0
 20
0.0
 30
0.0
  0
VERTEX
  5
624
330
623
100
AcDbEntity
  8
0
 62
     1
100
AcDbVertex
100
AcDb2dVertex
 10
557.6081949588753
 20
232.2258631231356
 30
0.0
  0
VERTEX
  5
625
330
623
100
AcDbEntity
  8
0
 62
     1
100
AcDbVertex
100
AcDb2dVertex
 10
557.6081949588753
 20
232.2258631231356
 30
0.0
  0
SEQEND
  5
626
330
623
100
AcDbEntity
  8
0
 62
     1
  0
ENDBLK
  5
622
330
61F
100
AcDbEntity
  8
0
100
AcDbBlockEnd
  0
BLOCK
  5
629
330
627
100
AcDbEntity
  8
0
100
AcDbBlockBegin
  2
BLOCK_200
 70
     0
 10
0.0
 20
0.0
 30
0.0
  3
BLOCK_200
  1

  0
POLYLINE
  5
62B
330
627
100
AcDbEntity
  8
0
 62
     1
100
AcDb2dPolyline
 66
     1
 10
0.0
 20
0.0
 30
0.0
  0
VERTEX
  5
62C
330
62B
100
AcDbEntity
  8
0
 62
     1
100
AcDbVertex
100
AcDb2dVertex
 10
639.4016099691426
 20
207.538546390986
 30
0.0
  0
VERTEX
  5
62D
330
62B
100
AcDbEntity
  8
0
 62
     1
100
AcDbVertex
100
AcDb2dVertex
 10
607.1515325344102
 20
207.538546390986
 30
0.0
  0
SEQEND
  5
62E
330
62B
100
AcDbEntity
  8
0
 62
     1
  0
ENDBLK
  5
62A
330
627
100
AcDbEntity
  8
0
100
AcDbBlockEnd
  0
BLOCK
  5
631
330
62F
100
AcDbEntity
  8
0
100
AcDbBlockBegin
  2
BLOCK_201
 70
     0
 10
0.0
 20
0.0
 30
0.0
  3
BLOCK_201
  1

  0
POLYLINE
  5
633
330
62F
100
AcDbEntity
  8
0
 62
     1
100
AcDb2dPolyline
 66
     1
 10
0.0
 20
0.0
 30
0.0
  0
VERTEX
  5
634
330
633
100
AcDbEntity
  8
0
 62
     1
100
AcDbVertex
100
AcDb2dVertex
 10
607.1515325344102
 20
207.538546390986
 30
0.0
  0
VERTEX
  5
635
330
633
100
AcDbEntity
  8
0
 62
     1
100
AcDbVertex
100
AcDb2dVertex
 10
571.0337658794865
 20
225.5359359231011
 30
0.0
  0
SEQEND
  5
636
330
633
100
AcDbEntity
  8
0
 62
     1
  0
ENDBLK
  5
632
330
62F
100
AcDbEntity
  8
0
100
AcDbBlockEnd
  0
BLOCK
  5
639
330
637
100
AcDbEntity
  8
0
100
AcDbBlockBegin
  2
BLOCK_202
 70
     0
 10
0.0
 20
0.0
 30
0.0
  3
BLOCK_202
  1

  0
MTEXT
  5
63B
330
637
100
AcDbEntity
  8
0
 62
     7
100
AcDbMText
 10
648.1197847229528
 20
203.3953153313669
 30
0.0
 40
8.9915999977521
 41
0.0
 71
     7
 72
     1
  1
\fCourier New|b0|i0|c0|p34;\W1;R10
  0
ENDBLK
  5
63A
330
637
100
AcDbEntity
  8
0
100
AcDbBlockEnd
  0
BLOCK
  5
63E
330
63C
100
AcDbEntity
  8
0
100
AcDbBlockBegin
  2
BLOCK_203
 70
     0
 10
0.0
 20
0.0
 30
0.0
  3
BLOCK_203
  1

  0
POLYLINE
  5
640
330
63C
100
AcDbEntity
  8
0
 62
     1
100
AcDb2dPolyline
 66
     1
 10
0.0
 20
0.0
 30
0.0
  0
VERTEX
  5
641
330
640
100
AcDbEntity
  8
0
 62
     1
100
AcDbVertex
100
AcDb2dVertex
 10
548.6578143452011
 20
236.685814589773
 30
0.0
  0
VERTEX
  5
642
330
640
100
AcDbEntity
  8
0
 62
     1
100
AcDbVertex
100
AcDb2dVertex
 10
557.6081949588753
 20
232.2258631231356
 30
0.0
  0
SEQEND
  5
643
330
640
100
AcDbEntity
  8
0
 62
     1
  0
ENDBLK
  5
63F
330
63C
100
AcDbEntity
  8
0
100
AcDbBlockEnd
  0
BLOCK
  5
646
330
644
100
AcDbEntity
  8
0
100
AcDbBlockBegin
  2
BLOCK_204
 70
     0
 10
0.0
 20
0.0
 30
0.0
  3
BLOCK_204
  1

  0
POLYLINE
  5
648
330
644
100
AcDbEntity
  8
0
100
AcDb2dPolyline
 66
     1
 10
0.0
 20
0.0
 30
0.0
  0
VERTEX
  5
649
330
648
100
AcDbEntity
  8
0
100
AcDbVertex
100
AcDb2dVertex
 10
569.9187780128009
 20
223.2983407696531
 30
0.0
  0
VERTEX
  5
64A
330
648
100
AcDbEntity
  8
0
100
AcDbVertex
100
AcDb2dVertex
 10
557.6081949588753
 20
232.2258631231356
 30
0.0
  0
VERTEX
  5
64B
330
648
100
AcDbEntity
  8
0
100
AcDbVertex
100
AcDb2dVertex
 10
572.1487537461645
 20
227.7735310765389
 30
0.0
  0
VERTEX
  5
64C
330
648
100
AcDbEntity
  8
0
100
AcDbVertex
100
AcDb2dVertex
 10
569.9187780128009
 20
223.2983407696531
 30
0.0
  0
SEQEND
  5
64E
330
648
100
AcDbEntity
  8
0
  0
INSERT
  5
64D
330
644
100
AcDbEntity
  8
0
 62
     1
100
AcDbBlockReference
  2
*U223
 10
0.0
 20
0.0
 30
0.0
1001
ACAD
1002
{
1000
R14_HATCH_DATA
1000
64D
1011
1.0
1021
0.0
1031
0.0
1011
0.0
1021
1.0
1031
0.0
1011
0.0
1021
0.0
1031
1.0
1040
0.0
1010
0.0
1020
0.0
1030
1.0
1000
SOLID
1070
     1
1070
     1
1071
        1
1071
        1
1071
        3
1070
     1
1040
569.9187780128009
1040
223.2983407696531
1040
557.6081949588753
1040
232.2258631231356
1070
     1
1040
557.6081949588753
1040
232.2258631231356
1040
572.1487537461645
1040
227.7735310765389
1070
     1
1040
572.1487537461645
1040
227.7735310765389
1040
569.9187780128009
1040
223.2983407696531
1071
        0
1070
     2
1070
     1
1071
        0
1002
}
  0
ENDBLK
  5
647
330
644
100
AcDbEntity
  8
0
100
AcDbBlockEnd
  0
BLOCK
  5
651
330
64F
100
AcDbEntity
  8
0
100
AcDbBlockBegin
  2
BLOCK_205
 70
     0
 10
0.0
 20
0.0
 30
0.0
  3
BLOCK_205
  1

  0
SPLINE
  5
653
330
64F
100
AcDbEntity
  8
0
 62
     1
100
AcDbSpline
210
0.0
220
0.0
230
1.0
 70
     8
 71
     3
 72
    11
 73
     7
 74
     0
 42
0.0000000001
 43
0.0000000001
 12
1.0
 22
0.0
 32
0.0
 13
1.0
 23
0.0
 33
0.0
 40
0.0
 40
0.0
 40
0.0
 40
0.0
 40
1.0
 40
1.0
 40
1.0
 40
2.0
 40
2.0
 40
2.0
 40
2.0
 10
553.142888072098
 20
245.6236327731286
 30
0.0
 10
558.0791087515189
 20
243.1465949518899
 30
0.0
 10
560.072670349775
 20
237.1369615423021
 30
0.0
 10
557.5956325285413
 20
232.2007408628838
 30
0.0
 10
556.8484676211839
 20
230.7117967559334
 30
0.0
 10
555.7411649404409
 20
229.4331023721726
 30
0.0
 10
554.3742976599466
 20
228.4807979093388
 30
0.0
  0
ENDBLK
  5
652
330
64F
100
AcDbEntity
  8
0
100
AcDbBlockEnd
  0
BLOCK
  5
69C
330
669
100
AcDbEntity
  8
0
100
AcDbBlockBegin
  2
*U205
 70
     1
 10
0.0
 20
0.0
 30
0.0
  3
*U205
  1

  0
SOLID
  5
66A
330
669
100
AcDbEntity
  8
0
 62
     1
100
AcDbTrace
 10
119.2948971905029
 20
130.6233566492765
 30
0.0
 11
116.7948911878109
 21
145.6233926654332
 31
0.0
 12
119.2948971905029
 22
145.6233926654332
 32
0.0
 13
119.2948971905029
 23
145.6233926654332
 33
0.0
  0
SOLID
  5
66B
330
669
100
AcDbEntity
  8
0
 62
     1
100
AcDbTrace
 10
119.2948971905029
 20
130.6233566492765
 30
0.0
 11
119.2948971905029
 21
145.6233926654332
 31
0.0
 12
121.7949031931974
 22
145.6233926654332
 32
0.0
 13
121.7949031931974
 23
145.6233926654332
 33
0.0
  0
ENDBLK
  5
69D
330
669
100
AcDbEntity
  8
0
100
AcDbBlockEnd
  0
BLOCK
  5
69E
330
66C
100
AcDbEntity
  8
0
100
AcDbBlockBegin
  2
*U206
 70
     1
 10
0.0
 20
0.0
 30
0.0
  3
*U206
  1

  0
SOLID
  5
66D
330
66C
100
AcDbEntity
  8
0
 62
     1
100
AcDbTrace
 10
119.2948971905029
 20
230.6235967569873
 30
0.0
 11
116.7948911878109
 21
230.6235967569873
 31
0.0
 12
119.2948971905029
 22
245.6236327731415
 32
0.0
 13
119.2948971905029
 23
245.6236327731415
 33
0.0
  0
SOLID
  5
66E
330
66C
100
AcDbEntity
  8
0
 62
     1
100
AcDbTrace
 10
119.2948971905029
 20
230.6235967569873
 30
0.0
 11
119.2948971905029
 21
245.6236327731415
 31
0.0
 12
121.7949031931974
 22
230.6235967569873
 32
0.0
 13
121.7949031931974
 23
230.6235967569873
 33
0.0
  0
ENDBLK
  5
69F
330
66C
100
AcDbEntity
  8
0
100
AcDbBlockEnd
  0
BLOCK
  5
6A0
330
66F
100
AcDbEntity
  8
0
100
AcDbBlockBegin
  2
*U207
 70
     1
 10
0.0
 20
0.0
 30
0.0
  3
*U207
  1

  0
SOLID
  5
670
330
66F
100
AcDbEntity
  8
0
 62
     1
100
AcDbTrace
 10
-93.40846621175821
 20
157.4032987960261
 30
0.0
 11
-105.2678867239262
 21
153.1273798191885
 31
0.0
 12
-93.40846621175821
 22
162.6460591191009
 32
0.0
 13
-93.40846621175821
 23
162.6460591191009
 33
0.0
  0
SOLID
  5
671
330
66F
100
AcDbEntity
  8
0
 62
     1
100
AcDbTrace
 10
-93.40846621175821
 20
157.4032987960261
 30
0.0
 11
-93.40846621175821
 21
162.6460591191009
 31
0.0
 12
-90.96237673675812
 22
158.2852373692022
 32
0.0
 13
-90.96237673675812
 23
158.2852373692022
 33
0.0
  0
ENDBLK
  5
6A1
330
66F
100
AcDbEntity
  8
0
100
AcDbBlockEnd
  0
BLOCK
  5
6A2
330
672
100
AcDbEntity
  8
0
100
AcDbBlockBegin
  2
*U208
 70
     1
 10
0.0
 20
0.0
 30
0.0
  3
*U208
  1

  0
SOLID
  5
673
330
672
100
AcDbEntity
  8
0
 62
     1
100
AcDbTrace
 10
-197.3664274341113
 20
98.60065417946741
 30
0.0
 11
-199.8125169091166
 21
102.9614759293585
 31
0.0
 12
-197.3664274341113
 22
103.8434145025373
 32
0.0
 13
-197.3664274341113
 23
103.8434145025373
 33
0.0
  0
SOLID
  5
674
330
672
100
AcDbEntity
  8
0
 62
     1
100
AcDbTrace
 10
-197.3664274341113
 20
98.60065417946741
 30
0.0
 11
-197.3664274341113
 21
103.8434145025373
 31
0.0
 12
-185.5070069219433
 22
108.1193334793798
 32
0.0
 13
-185.5070069219433
 23
108.1193334793798
 33
0.0
  0
ENDBLK
  5
6A3
330
672
100
AcDbEntity
  8
0
100
AcDbBlockEnd
  0
BLOCK
  5
6A4
330
675
100
AcDbEntity
  8
0
100
AcDbBlockBegin
  2
*U209
 70
     1
 10
0.0
 20
0.0
 30
0.0
  3
*U209
  1

  0
SOLID
  5
676
330
675
100
AcDbEntity
  8
0
 62
     1
100
AcDbTrace
 10
-493.1969069865387
 20
-171.4864438949855
 30
0.0
 11
-506.8208437185577
 21
-173.2681635060464
 31
0.0
 12
-493.1969069865387
 22
-166.5124652873894
 32
0.0
 13
-493.1969069865387
 23
-166.5124652873894
 33
0.0
  0
SOLID
  5
677
330
675
100
AcDbEntity
  8
0
 62
     1
100
AcDbTrace
 10
-493.1969069865387
 20
-171.4864438949855
 30
0.0
 11
-493.1969069865387
 21
-166.5124652873894
 31
0.0
 12
-491.7422987390034
 22
-171.2962122393324
 32
0.0
 13
-491.7422987390034
 23
-171.2962122393324
 33
0.0
  0
ENDBLK
  5
6A5
330
675
100
AcDbEntity
  8
0
100
AcDbBlockEnd
  0
BLOCK
  5
6A6
330
678
100
AcDbEntity
  8
0
100
AcDbBlockBegin
  2
*U210
 70
     1
 10
0.0
 20
0.0
 30
0.0
  3
*U210
  1

  0
SOLID
  5
679
330
678
100
AcDbEntity
  8
0
 62
     1
100
AcDbTrace
 10
-464.7951878516933
 20
426.9349227053808
 30
0.0
 11
-477.105770905619
 21
423.1654112137595
 31
0.0
 12
-464.7951878516933
 22
432.092933567242
 32
0.0
 13
-464.7951878516933
 23
432.092933567242
 33
0.0
  0
SOLID
  5
67A
330
678
100
AcDbEntity
  8
0
 62
     1
100
AcDbTrace
 10
-464.7951878516933
 20
426.9349227053808
 30
0.0
 11
-464.7951878516933
 21
432.092933567242
 31
0.0
 12
-462.5652121183297
 22
427.6177432603561
 32
0.0
 13
-462.5652121183297
 23
427.6177432603561
 33
0.0
  0
ENDBLK
  5
6A7
330
678
100
AcDbEntity
  8
0
100
AcDbBlockEnd
  0
BLOCK
  5
6A8
330
67B
100
AcDbEntity
  8
0
100
AcDbBlockBegin
  2
*U211
 70
     1
 10
0.0
 20
0.0
 30
0.0
  3
*U211
  1

  0
SOLID
  5
67C
330
67B
100
AcDbEntity
  8
0
 62
     1
100
AcDbTrace
 10
-554.5624457158495
 20
646.2130114982447
 30
0.0
 11
-557.0624517185414
 21
646.2130114982447
 31
0.0
 12
-554.5624457158495
 22
661.2130475143989
 32
0.0
 13
-554.5624457158495
 23
661.2130475143989
 33
0.0
  0
SOLID
  5
67D
330
67B
100
AcDbEntity
  8
0
 62
     1
100
AcDbTrace
 10
-554.5624457158495
 20
646.2130114982447
 30
0.0
 11
-554.5624457158495
 21
661.2130475143989
 31
0.0
 12
-552.0624397131551
 22
646.2130114982447
 32
0.0
 13
-552.0624397131551
 23
646.2130114982447
 33
0.0
  0
ENDBLK
  5
6A9
330
67B
100
AcDbEntity
  8
0
100
AcDbBlockEnd
  0
BLOCK
  5
6AA
330
67E
100
AcDbEntity
  8
0
100
AcDbBlockBegin
  2
*U212
 70
     1
 10
0.0
 20
0.0
 30
0.0
  3
*U212
  1

  0
SOLID
  5
67F
330
67E
100
AcDbEntity
  8
0
 62
     1
100
AcDbTrace
 10
-554.5624457158495
 20
407.2124376408238
 30
0.0
 11
-557.0624517185414
 21
422.212473656978
 31
0.0
 12
-554.5624457158495
 22
422.212473656978
 32
0.0
 13
-554.5624457158495
 23
422.212473656978
 33
0.0
  0
SOLID
  5
680
330
67E
100
AcDbEntity
  8
0
 62
     1
100
AcDbTrace
 10
-554.5624457158495
 20
407.2124376408238
 30
0.0
 11
-554.5624457158495
 21
422.212473656978
 31
0.0
 12
-552.0624397131551
 22
422.212473656978
 32
0.0
 13
-552.0624397131551
 23
422.212473656978
 33
0.0
  0
ENDBLK
  5
6AB
330
67E
100
AcDbEntity
  8
0
100
AcDbBlockEnd
  0
BLOCK
  5
6AC
330
681
100
AcDbEntity
  8
0
100
AcDbBlockBegin
  2
*U213
 70
     1
 10
0.0
 20
0.0
 30
0.0
  3
*U213
  1

  0
SOLID
  5
682
330
681
100
AcDbEntity
  8
0
 62
     1
100
AcDbTrace
 10
397.1136016215239
 20
256.0236577443414
 30
0.0
 11
394.613595618832
 21
256.0236577443414
 31
0.0
 12
397.1136016215239
 22
271.0236937604982
 32
0.0
 13
397.1136016215239
 23
271.0236937604982
 33
0.0
  0
SOLID
  5
683
330
681
100
AcDbEntity
  8
0
 62
     1
100
AcDbTrace
 10
397.1136016215239
 20
256.0236577443414
 30
0.0
 11
397.1136016215239
 21
271.0236937604982
 31
0.0
 12
399.6136076242184
 22
256.0236577443414
 32
0.0
 13
399.6136076242184
 23
256.0236577443414
 33
0.0
  0
ENDBLK
  5
6AD
330
681
100
AcDbEntity
  8
0
100
AcDbBlockEnd
  0
BLOCK
  5
6AE
330
684
100
AcDbEntity
  8
0
100
AcDbBlockBegin
  2
*U214
 70
     1
 10
0.0
 20
0.0
 30
0.0
  3
*U214
  1

  0
SOLID
  5
685
330
684
100
AcDbEntity
  8
0
 62
     1
100
AcDbTrace
 10
397.1136016215239
 20
-211.5774649992979
 30
0.0
 11
394.613595618832
 21
-196.5774289831437
 31
0.0
 12
397.1136016215239
 22
-196.5774289831437
 32
0.0
 13
397.1136016215239
 23
-196.5774289831437
 33
0.0
  0
SOLID
  5
686
330
684
100
AcDbEntity
  8
0
 62
     1
100
AcDbTrace
 10
397.1136016215239
 20
-211.5774649992979
 30
0.0
 11
397.1136016215239
 21
-196.5774289831437
 31
0.0
 12
399.6136076242184
 22
-196.5774289831437
 32
0.0
 13
399.6136076242184
 23
-196.5774289831437
 33
0.0
  0
ENDBLK
  5
6AF
330
684
100
AcDbEntity
  8
0
100
AcDbBlockEnd
  0
BLOCK
  5
6B0
330
687
100
AcDbEntity
  8
0
100
AcDbBlockBegin
  2
*U215
 70
     1
 10
0.0
 20
0.0
 30
0.0
  3
*U215
  1

  0
SOLID
  5
688
330
687
100
AcDbEntity
  8
0
 62
     1
100
AcDbTrace
 10
-511.3883256170316
 20
-257.1080526895427
 30
0.0
 11
-526.3883616331884
 21
-254.608046686843
 31
0.0
 12
-511.3883256170316
 22
-252.1080406841537
 32
0.0
 13
-511.3883256170316
 23
-252.1080406841537
 33
0.0
  0
ENDBLK
  5
6B1
330
687
100
AcDbEntity
  8
0
100
AcDbBlockEnd
  0
BLOCK
  5
6B2
330
689
100
AcDbEntity
  8
0
100
AcDbBlockBegin
  2
*U216
 70
     1
 10
0.0
 20
0.0
 30
0.0
  3
*U216
  1

  0
SOLID
  5
68A
330
689
100
AcDbEntity
  8
0
 62
     1
100
AcDbTrace
 10
220.6134319713879
 20
-257.1080526895427
 30
0.0
 11
220.6134319713879
 21
-252.1080406841537
 31
0.0
 12
235.6134679875473
 22
-254.608046686843
 32
0.0
 13
235.6134679875473
 23
-254.608046686843
 33
0.0
  0
ENDBLK
  5
6B3
330
689
100
AcDbEntity
  8
0
100
AcDbBlockEnd
  0
BLOCK
  5
6B4
330
68B
100
AcDbEntity
  8
0
100
AcDbBlockBegin
  2
*U217
 70
     1
 10
0.0
 20
0.0
 30
0.0
  3
*U217
  1

  0
SOLID
  5
68C
330
68B
100
AcDbEntity
  8
0
 62
     1
100
AcDbTrace
 10
-536.7883866043833
 20
-291.9341814032452
 30
0.0
 11
-551.7884226205425
 21
-289.4341754005508
 31
0.0
 12
-536.7883866043833
 22
-286.9341693978537
 32
0.0
 13
-536.7883866043833
 23
-286.9341693978537
 33
0.0
  0
ENDBLK
  5
6B5
330
68B
100
AcDbEntity
  8
0
100
AcDbBlockEnd
  0
BLOCK
  5
6B6
330
68D
100
AcDbEntity
  8
0
100
AcDbBlockBegin
  2
*U218
 70
     1
 10
0.0
 20
0.0
 30
0.0
  3
*U218
  1

  0
SOLID
  5
68E
330
68D
100
AcDbEntity
  8
0
 62
     1
100
AcDbTrace
 10
246.0134929587498
 20
-291.9341814032452
 30
0.0
 11
246.0134929587498
 21
-286.9341693978537
 31
0.0
 12
261.0135289749091
 22
-289.4341754005508
 32
0.0
 13
261.0135289749091
 23
-289.4341754005508
 33
0.0
  0
ENDBLK
  5
6B7
330
68D
100
AcDbEntity
  8
0
100
AcDbBlockEnd
  0
BLOCK
  5
6B8
330
68F
100
AcDbEntity
  8
0
100
AcDbBlockBegin
  2
*U219
 70
     1
 10
0.0
 20
0.0
 30
0.0
  3
*U219
  1

  0
SOLID
  5
690
330
68F
100
AcDbEntity
  8
0
 62
     1
100
AcDbTrace
 10
-157.3030129462492
 20
452.4896519463858
 30
0.0
 11
-172.303048962406
 21
454.9896579490751
 31
0.0
 12
-157.3030129462492
 22
457.4896639517671
 32
0.0
 13
-157.3030129462492
 23
457.4896639517671
 33
0.0
  0
ENDBLK
  5
6B9
330
68F
100
AcDbEntity
  8
0
100
AcDbBlockEnd
  0
BLOCK
  5
6BA
330
691
100
AcDbEntity
  8
0
100
AcDbBlockBegin
  2
*U220
 70
     1
 10
0.0
 20
0.0
 30
0.0
  3
*U220
  1

  0
SOLID
  5
692
330
691
100
AcDbEntity
  8
0
 62
     1
100
AcDbTrace
 10
-72.80750849239239
 20
452.4896519463858
 30
0.0
 11
-72.80750849239239
 21
457.4896639517671
 31
0.0
 12
-57.80747247623564
 22
454.9896579490751
 32
0.0
 13
-57.80747247623564
 23
454.9896579490751
 33
0.0
  0
ENDBLK
  5
6BB
330
691
100
AcDbEntity
  8
0
100
AcDbBlockEnd
  0
BLOCK
  5
6BC
330
693
100
AcDbEntity
  8
0
100
AcDbBlockBegin
  2
*U221
 70
     1
 10
0.0
 20
0.0
 30
0.0
  3
*U221
  1

  0
SOLID
  5
694
330
693
100
AcDbEntity
  8
0
 62
     1
100
AcDbTrace
 10
356.6945395275435
 20
230.6235967569873
 30
0.0
 11
354.194533524849
 21
230.6235967569873
 31
0.0
 12
356.6945395275435
 22
245.6236327731415
 32
0.0
 13
356.6945395275435
 23
245.6236327731415
 33
0.0
  0
SOLID
  5
695
330
693
100
AcDbEntity
  8
0
 62
     1
100
AcDbTrace
 10
356.6945395275435
 20
230.6235967569873
 30
0.0
 11
356.6945395275435
 21
245.6236327731415
 31
0.0
 12
359.194545530238
 22
230.6235967569873
 32
0.0
 13
359.194545530238
 23
230.6235967569873
 33
0.0
  0
ENDBLK
  5
6BD
330
693
100
AcDbEntity
  8
0
100
AcDbBlockEnd
  0
BLOCK
  5
6BE
330
696
100
AcDbEntity
  8
0
100
AcDbBlockBegin
  2
*U222
 70
     1
 10
0.0
 20
0.0
 30
0.0
  3
*U222
  1

  0
SOLID
  5
697
330
696
100
AcDbEntity
  8
0
 62
     1
100
AcDbTrace
 10
356.6945395275435
 20
-186.1774040119411
 30
0.0
 11
354.194533524849
 21
-171.1773679957818
 31
0.0
 12
356.6945395275435
 22
-171.1773679957818
 32
0.0
 13
356.6945395275435
 23
-171.1773679957818
 33
0.0
  0
SOLID
  5
698
330
696
100
AcDbEntity
  8
0
 62
     1
100
AcDbTrace
 10
356.6945395275435
 20
-186.1774040119411
 30
0.0
 11
356.6945395275435
 21
-171.1773679957818
 31
0.0
 12
359.194545530238
 22
-171.1773679957818
 32
0.0
 13
359.194545530238
 23
-171.1773679957818
 33
0.0
  0
ENDBLK
  5
6BF
330
696
100
AcDbEntity
  8
0
100
AcDbBlockEnd
  0
BLOCK
  5
6C0
330
699
100
AcDbEntity
  8
0
100
AcDbBlockBegin
  2
*U223
 70
     1
 10
0.0
 20
0.0
 30
0.0
  3
*U223
  1

  0
SOLID
  5
69A
330
699
100
AcDbEntity
  8
0
 62
     1
100
AcDbTrace
 10
569.9187780128009
 20
223.2983407696531
 30
0.0
 11
557.6081949588753
 21
232.2258631231356
 31
0.0
 12
569.9187780128009
 22
228.4563516315143
 32
0.0
 13
569.9187780128009
 23
228.4563516315143
 33
0.0
  0
SOLID
  5
69B
330
699
100
AcDbEntity
  8
0
 62
     1
100
AcDbTrace
 10
569.9187780128009
 20
223.2983407696531
 30
0.0
 11
569.9187780128009
 21
228.4563516315143
 31
0.0
 12
572.1487537461645
 22
227.7735310765389
 32
0.0
 13
572.1487537461645
 23
227.7735310765389
 33
0.0
  0
ENDBLK
  5
6C1
330
699
100
AcDbEntity
  8
0
100
AcDbBlockEnd
  0
ENDSEC
  0
SECTION
  2
ENTITIES
  0
MTEXT
  5
41
330
1F
100
AcDbEntity
  8
0
 62
     7
100
AcDbMText
 10
586.7250025183087
 20
543.3156736922961
 30
0.0
 40
17.9831999955042
 41
0.0
 71
     7
 72
     1
  1
\fCourier New|b0|i0|c0|p34;\W1;MODENA 32
  0
INSERT
  5
43
330
1F
100
AcDbEntity
  8
0
100
AcDbBlockReference
  2
BLOCK_2
 10
0.0
 20
0.0
 30
0.0
  0
INSERT
  5
4B
330
1F
100
AcDbEntity
  8
0
100
AcDbBlockReference
  2
BLOCK_3
 10
0.0
 20
0.0
 30
0.0
  0
INSERT
  5
53
330
1F
100
AcDbEntity
  8
0
100
AcDbBlockReference
  2
BLOCK_4
 10
0.0
 20
0.0
 30
0.0
  0
INSERT
  5
5B
330
1F
100
AcDbEntity
  8
0
100
AcDbBlockReference
  2
BLOCK_5
 10
0.0
 20
0.0
 30
0.0
  0
INSERT
  5
63
330
1F
100
AcDbEntity
  8
0
100
AcDbBlockReference
  2
BLOCK_6
 10
0.0
 20
0.0
 30
0.0
  0
INSERT
  5
6B
330
1F
100
AcDbEntity
  8
0
100
AcDbBlockReference
  2
BLOCK_7
 10
0.0
 20
0.0
 30
0.0
  0
INSERT
  5
70
330
1F
100
AcDbEntity
  8
0
100
AcDbBlockReference
  2
BLOCK_8
 10
0.0
 20
0.0
 30
0.0
  0
INSERT
  5
75
330
1F
100
AcDbEntity
  8
0
100
AcDbBlockReference
  2
BLOCK_9
 10
0.0
 20
0.0
 30
0.0
  0
INSERT
  5
7D
330
1F
100
AcDbEntity
  8
0
100
AcDbBlockReference
  2
BLOCK_10
 10
0.0
 20
0.0
 30
0.0
  0
INSERT
  5
82
330
1F
100
AcDbEntity
  8
0
100
AcDbBlockReference
  2
BLOCK_11
 10
0.0
 20
0.0
 30
0.0
  0
INSERT
  5
8A
330
1F
100
AcDbEntity
  8
0
100
AcDbBlockReference
  2
BLOCK_12
 10
0.0
 20
0.0
 30
0.0
  0
INSERT
  5
92
330
1F
100
AcDbEntity
  8
0
100
AcDbBlockReference
  2
BLOCK_13
 10
0.0
 20
0.0
 30
0.0
  0
INSERT
  5
97
330
1F
100
AcDbEntity
  8
0
100
AcDbBlockReference
  2
BLOCK_14
 10
0.0
 20
0.0
 30
0.0
  0
INSERT
  5
9C
330
1F
100
AcDbEntity
  8
0
100
AcDbBlockReference
  2
BLOCK_15
 10
0.0
 20
0.0
 30
0.0
  0
INSERT
  5
A4
330
1F
100
AcDbEntity
  8
0
100
AcDbBlockReference
  2
BLOCK_16
 10
0.0
 20
0.0
 30
0.0
  0
INSERT
  5
A9
330
1F
100
AcDbEntity
  8
0
100
AcDbBlockReference
  2
BLOCK_17
 10
0.0
 20
0.0
 30
0.0
  0
INSERT
  5
B1
330
1F
100
AcDbEntity
  8
0
100
AcDbBlockReference
  2
BLOCK_18
 10
0.0
 20
0.0
 30
0.0
  0
INSERT
  5
B9
330
1F
100
AcDbEntity
  8
0
100
AcDbBlockReference
  2
BLOCK_19
 10
0.0
 20
0.0
 30
0.0
  0
INSERT
  5
C1
330
1F
100
AcDbEntity
  8
0
100
AcDbBlockReference
  2
BLOCK_20
 10
0.0
 20
0.0
 30
0.0
  0
INSERT
  5
C6
330
1F
100
AcDbEntity
  8
0
100
AcDbBlockReference
  2
BLOCK_21
 10
0.0
 20
0.0
 30
0.0
  0
INSERT
  5
CE
330
1F
100
AcDbEntity
  8
0
100
AcDbBlockReference
  2
BLOCK_22
 10
0.0
 20
0.0
 30
0.0
  0
INSERT
  5
D3
330
1F
100
AcDbEntity
  8
0
100
AcDbBlockReference
  2
BLOCK_23
 10
0.0
 20
0.0
 30
0.0
  0
INSERT
  5
DB
330
1F
100
AcDbEntity
  8
0
100
AcDbBlockReference
  2
BLOCK_24
 10
0.0
 20
0.0
 30
0.0
  0
INSERT
  5
E0
330
1F
100
AcDbEntity
  8
0
100
AcDbBlockReference
  2
BLOCK_25
 10
0.0
 20
0.0
 30
0.0
  0
INSERT
  5
E8
330
1F
100
AcDbEntity
  8
0
100
AcDbBlockReference
  2
BLOCK_26
 10
0.0
 20
0.0
 30
0.0
  0
INSERT
  5
ED
330
1F
100
AcDbEntity
  8
0
100
AcDbBlockReference
  2
BLOCK_27
 10
0.0
 20
0.0
 30
0.0
  0
INSERT
  5
F5
330
1F
100
AcDbEntity
  8
0
100
AcDbBlockReference
  2
BLOCK_28
 10
0.0
 20
0.0
 30
0.0
  0
INSERT
  5
FD
330
1F
100
AcDbEntity
  8
0
100
AcDbBlockReference
  2
BLOCK_29
 10
0.0
 20
0.0
 30
0.0
  0
INSERT
  5
105
330
1F
100
AcDbEntity
  8
0
100
AcDbBlockReference
  2
BLOCK_30
 10
0.0
 20
0.0
 30
0.0
  0
INSERT
  5
10D
330
1F
100
AcDbEntity
  8
0
100
AcDbBlockReference
  2
BLOCK_31
 10
0.0
 20
0.0
 30
0.0
  0
INSERT
  5
112
330
1F
100
AcDbEntity
  8
0
100
AcDbBlockReference
  2
BLOCK_32
 10
0.0
 20
0.0
 30
0.0
  0
INSERT
  5
11A
330
1F
100
AcDbEntity
  8
0
100
AcDbBlockReference
  2
BLOCK_33
 10
0.0
 20
0.0
 30
0.0
  0
INSERT
  5
11F
330
1F
100
AcDbEntity
  8
0
100
AcDbBlockReference
  2
BLOCK_34
 10
0.0
 20
0.0
 30
0.0
  0
INSERT
  5
127
330
1F
100
AcDbEntity
  8
0
100
AcDbBlockReference
  2
BLOCK_35
 10
0.0
 20
0.0
 30
0.0
  0
INSERT
  5
12F
330
1F
100
AcDbEntity
  8
0
100
AcDbBlockReference
  2
BLOCK_36
 10
0.0
 20
0.0
 30
0.0
  0
INSERT
  5
137
330
1F
100
AcDbEntity
  8
0
100
AcDbBlockReference
  2
BLOCK_37
 10
0.0
 20
0.0
 30
0.0
  0
INSERT
  5
13C
330
1F
100
AcDbEntity
  8
0
100
AcDbBlockReference
  2
BLOCK_38
 10
0.0
 20
0.0
 30
0.0
  0
INSERT
  5
144
330
1F
100
AcDbEntity
  8
0
100
AcDbBlockReference
  2
BLOCK_39
 10
0.0
 20
0.0
 30
0.0
  0
INSERT
  5
14C
330
1F
100
AcDbEntity
  8
0
100
AcDbBlockReference
  2
BLOCK_40
 10
0.0
 20
0.0
 30
0.0
  0
INSERT
  5
151
330
1F
100
AcDbEntity
  8
0
100
AcDbBlockReference
  2
BLOCK_41
 10
0.0
 20
0.0
 30
0.0
  0
INSERT
  5
159
330
1F
100
AcDbEntity
  8
0
100
AcDbBlockReference
  2
BLOCK_42
 10
0.0
 20
0.0
 30
0.0
  0
INSERT
  5
15E
330
1F
100
AcDbEntity
  8
0
100
AcDbBlockReference
  2
BLOCK_43
 10
0.0
 20
0.0
 30
0.0
  0
INSERT
  5
166
330
1F
100
AcDbEntity
  8
0
100
AcDbBlockReference
  2
BLOCK_44
 10
0.0
 20
0.0
 30
0.0
  0
INSERT
  5
16E
330
1F
100
AcDbEntity
  8
0
100
AcDbBlockReference
  2
BLOCK_45
 10
0.0
 20
0.0
 30
0.0
  0
INSERT
  5
173
330
1F
100
AcDbEntity
  8
0
100
AcDbBlockReference
  2
BLOCK_46
 10
0.0
 20
0.0
 30
0.0
  0
INSERT
  5
178
330
1F
100
AcDbEntity
  8
0
100
AcDbBlockReference
  2
BLOCK_47
 10
0.0
 20
0.0
 30
0.0
  0
INSERT
  5
180
330
1F
100
AcDbEntity
  8
0
100
AcDbBlockReference
  2
BLOCK_48
 10
0.0
 20
0.0
 30
0.0
  0
INSERT
  5
185
330
1F
100
AcDbEntity
  8
0
100
AcDbBlockReference
  2
BLOCK_49
 10
0.0
 20
0.0
 30
0.0
  0
INSERT
  5
18D
330
1F
100
AcDbEntity
  8
0
100
AcDbBlockReference
  2
BLOCK_50
 10
0.0
 20
0.0
 30
0.0
  0
INSERT
  5
195
330
1F
100
AcDbEntity
  8
0
100
AcDbBlockReference
  2
BLOCK_51
 10
0.0
 20
0.0
 30
0.0
  0
INSERT
  5
19D
330
1F
100
AcDbEntity
  8
0
100
AcDbBlockReference
  2
BLOCK_52
 10
0.0
 20
0.0
 30
0.0
  0
INSERT
  5
1A2
330
1F
100
AcDbEntity
  8
0
100
AcDbBlockReference
  2
BLOCK_53
 10
0.0
 20
0.0
 30
0.0
  0
INSERT
  5
1AA
330
1F
100
AcDbEntity
  8
0
100
AcDbBlockReference
  2
BLOCK_54
 10
0.0
 20
0.0
 30
0.0
  0
INSERT
  5
1AF
330
1F
100
AcDbEntity
  8
0
100
AcDbBlockReference
  2
BLOCK_55
 10
0.0
 20
0.0
 30
0.0
  0
INSERT
  5
1B7
330
1F
100
AcDbEntity
  8
0
100
AcDbBlockReference
  2
BLOCK_56
 10
0.0
 20
0.0
 30
0.0
  0
INSERT
  5
1BC
330
1F
100
AcDbEntity
  8
0
100
AcDbBlockReference
  2
BLOCK_57
 10
0.0
 20
0.0
 30
0.0
  0
INSERT
  5
1C4
330
1F
100
AcDbEntity
  8
0
100
AcDbBlockReference
  2
BLOCK_58
 10
0.0
 20
0.0
 30
0.0
  0
INSERT
  5
1C9
330
1F
100
AcDbEntity
  8
0
100
AcDbBlockReference
  2
BLOCK_59
 10
0.0
 20
0.0
 30
0.0
  0
INSERT
  5
1D1
330
1F
100
AcDbEntity
  8
0
100
AcDbBlockReference
  2
BLOCK_60
 10
0.0
 20
0.0
 30
0.0
  0
INSERT
  5
1D9
330
1F
100
AcDbEntity
  8
0
100
AcDbBlockReference
  2
BLOCK_61
 10
0.0
 20
0.0
 30
0.0
  0
INSERT
  5
1DE
330
1F
100
AcDbEntity
  8
0
100
AcDbBlockReference
  2
BLOCK_62
 10
0.0
 20
0.0
 30
0.0
  0
INSERT
  5
1E6
330
1F
100
AcDbEntity
  8
0
100
AcDbBlockReference
  2
BLOCK_63
 10
0.0
 20
0.0
 30
0.0
  0
INSERT
  5
1EE
330
1F
100
AcDbEntity
  8
0
100
AcDbBlockReference
  2
BLOCK_64
 10
0.0
 20
0.0
 30
0.0
  0
INSERT
  5
1F6
330
1F
100
AcDbEntity
  8
0
100
AcDbBlockReference
  2
BLOCK_65
 10
0.0
 20
0.0
 30
0.0
  0
INSERT
  5
1FB
330
1F
100
AcDbEntity
  8
0
100
AcDbBlockReference
  2
BLOCK_66
 10
0.0
 20
0.0
 30
0.0
  0
INSERT
  5
200
330
1F
100
AcDbEntity
  8
0
100
AcDbBlockReference
  2
BLOCK_67
 10
0.0
 20
0.0
 30
0.0
  0
INSERT
  5
20F
330
1F
100
AcDbEntity
  8
0
100
AcDbBlockReference
  2
BLOCK_68
 10
0.0
 20
0.0
 30
0.0
  0
INSERT
  5
214
330
1F
100
AcDbEntity
  8
0
100
AcDbBlockReference
  2
BLOCK_69
 10
0.0
 20
0.0
 30
0.0
  0
INSERT
  5
219
330
1F
100
AcDbEntity
  8
0
100
AcDbBlockReference
  2
BLOCK_70
 10
0.0
 20
0.0
 30
0.0
  0
INSERT
  5
221
330
1F
100
AcDbEntity
  8
0
100
AcDbBlockReference
  2
BLOCK_71
 10
0.0
 20
0.0
 30
0.0
  0
INSERT
  5
229
330
1F
100
AcDbEntity
  8
0
100
AcDbBlockReference
  2
BLOCK_72
 10
0.0
 20
0.0
 30
0.0
  0
INSERT
  5
231
330
1F
100
AcDbEntity
  8
0
100
AcDbBlockReference
  2
BLOCK_73
 10
0.0
 20
0.0
 30
0.0
  0
INSERT
  5
236
330
1F
100
AcDbEntity
  8
0
100
AcDbBlockReference
  2
BLOCK_74
 10
0.0
 20
0.0
 30
0.0
  0
INSERT
  5
23B
330
1F
100
AcDbEntity
  8
0
100
AcDbBlockReference
  2
BLOCK_75
 10
0.0
 20
0.0
 30
0.0
  0
INSERT
  5
243
330
1F
100
AcDbEntity
  8
0
100
AcDbBlockReference
  2
BLOCK_76
 10
0.0
 20
0.0
 30
0.0
  0
INSERT
  5
24B
330
1F
100
AcDbEntity
  8
0
100
AcDbBlockReference
  2
BLOCK_77
 10
0.0
 20
0.0
 30
0.0
  0
INSERT
  5
253
330
1F
100
AcDbEntity
  8
0
100
AcDbBlockReference
  2
BLOCK_78
 10
0.0
 20
0.0
 30
0.0
  0
INSERT
  5
25B
330
1F
100
AcDbEntity
  8
0
100
AcDbBlockReference
  2
BLOCK_79
 10
0.0
 20
0.0
 30
0.0
  0
INSERT
  5
260
330
1F
100
AcDbEntity
  8
0
100
AcDbBlockReference
  2
BLOCK_80
 10
0.0
 20
0.0
 30
0.0
  0
INSERT
  5
265
330
1F
100
AcDbEntity
  8
0
100
AcDbBlockReference
  2
BLOCK_81
 10
0.0
 20
0.0
 30
0.0
  0
INSERT
  5
26D
330
1F
100
AcDbEntity
  8
0
100
AcDbBlockReference
  2
BLOCK_82
 10
0.0
 20
0.0
 30
0.0
  0
INSERT
  5
275
330
1F
100
AcDbEntity
  8
0
100
AcDbBlockReference
  2
BLOCK_83
 10
0.0
 20
0.0
 30
0.0
  0
INSERT
  5
27D
330
1F
100
AcDbEntity
  8
0
100
AcDbBlockReference
  2
BLOCK_84
 10
0.0
 20
0.0
 30
0.0
  0
INSERT
  5
285
330
1F
100
AcDbEntity
  8
0
100
AcDbBlockReference
  2
BLOCK_85
 10
0.0
 20
0.0
 30
0.0
  0
INSERT
  5
28A
330
1F
100
AcDbEntity
  8
0
100
AcDbBlockReference
  2
BLOCK_86
 10
0.0
 20
0.0
 30
0.0
  0
INSERT
  5
28F
330
1F
100
AcDbEntity
  8
0
100
AcDbBlockReference
  2
BLOCK_87
 10
0.0
 20
0.0
 30
0.0
  0
INSERT
  5
297
330
1F
100
AcDbEntity
  8
0
100
AcDbBlockReference
  2
BLOCK_88
 10
0.0
 20
0.0
 30
0.0
  0
INSERT
  5
29F
330
1F
100
AcDbEntity
  8
0
100
AcDbBlockReference
  2
BLOCK_89
 10
0.0
 20
0.0
 30
0.0
  0
INSERT
  5
2A7
330
1F
100
AcDbEntity
  8
0
100
AcDbBlockReference
  2
BLOCK_90
 10
0.0
 20
0.0
 30
0.0
  0
INSERT
  5
2AF
330
1F
100
AcDbEntity
  8
0
100
AcDbBlockReference
  2
BLOCK_91
 10
0.0
 20
0.0
 30
0.0
  0
INSERT
  5
2B4
330
1F
100
AcDbEntity
  8
0
100
AcDbBlockReference
  2
BLOCK_92
 10
0.0
 20
0.0
 30
0.0
  0
INSERT
  5
2B9
330
1F
100
AcDbEntity
  8
0
100
AcDbBlockReference
  2
BLOCK_93
 10
0.0
 20
0.0
 30
0.0
  0
INSERT
  5
2C1
330
1F
100
AcDbEntity
  8
0
100
AcDbBlockReference
  2
BLOCK_94
 10
0.0
 20
0.0
 30
0.0
  0
INSERT
  5
2C9
330
1F
100
AcDbEntity
  8
0
100
AcDbBlockReference
  2
BLOCK_95
 10
0.0
 20
0.0
 30
0.0
  0
INSERT
  5
2D1
330
1F
100
AcDbEntity
  8
0
100
AcDbBlockReference
  2
BLOCK_96
 10
0.0
 20
0.0
 30
0.0
  0
INSERT
  5
2D9
330
1F
100
AcDbEntity
  8
0
100
AcDbBlockReference
  2
BLOCK_97
 10
0.0
 20
0.0
 30
0.0
  0
INSERT
  5
2E1
330
1F
100
AcDbEntity
  8
0
100
AcDbBlockReference
  2
BLOCK_98
 10
0.0
 20
0.0
 30
0.0
  0
INSERT
  5
2E6
330
1F
100
AcDbEntity
  8
0
100
AcDbBlockReference
  2
BLOCK_99
 10
0.0
 20
0.0
 30
0.0
  0
INSERT
  5
2EE
330
1F
100
AcDbEntity
  8
0
100
AcDbBlockReference
  2
BLOCK_100
 10
0.0
 20
0.0
 30
0.0
  0
INSERT
  5
2F6
330
1F
100
AcDbEntity
  8
0
100
AcDbBlockReference
  2
BLOCK_101
 10
0.0
 20
0.0
 30
0.0
  0
INSERT
  5
2FE
330
1F
100
AcDbEntity
  8
0
100
AcDbBlockReference
  2
BLOCK_102
 10
0.0
 20
0.0
 30
0.0
  0
INSERT
  5
306
330
1F
100
AcDbEntity
  8
0
100
AcDbBlockReference
  2
BLOCK_103
 10
0.0
 20
0.0
 30
0.0
  0
INSERT
  5
30E
330
1F
100
AcDbEntity
  8
0
100
AcDbBlockReference
  2
BLOCK_104
 10
0.0
 20
0.0
 30
0.0
  0
INSERT
  5
316
330
1F
100
AcDbEntity
  8
0
100
AcDbBlockReference
  2
BLOCK_105
 10
0.0
 20
0.0
 30
0.0
  0
INSERT
  5
31E
330
1F
100
AcDbEntity
  8
0
100
AcDbBlockReference
  2
BLOCK_106
 10
0.0
 20
0.0
 30
0.0
  0
INSERT
  5
326
330
1F
100
AcDbEntity
  8
0
100
AcDbBlockReference
  2
BLOCK_107
 10
0.0
 20
0.0
 30
0.0
  0
INSERT
  5
32E
330
1F
100
AcDbEntity
  8
0
100
AcDbBlockReference
  2
BLOCK_108
 10
0.0
 20
0.0
 30
0.0
  0
INSERT
  5
336
330
1F
100
AcDbEntity
  8
0
100
AcDbBlockReference
  2
BLOCK_109
 10
0.0
 20
0.0
 30
0.0
  0
INSERT
  5
33E
330
1F
100
AcDbEntity
  8
0
100
AcDbBlockReference
  2
BLOCK_110
 10
0.0
 20
0.0
 30
0.0
  0
INSERT
  5
346
330
1F
100
AcDbEntity
  8
0
100
AcDbBlockReference
  2
BLOCK_111
 10
0.0
 20
0.0
 30
0.0
  0
INSERT
  5
34E
330
1F
100
AcDbEntity
  8
0
100
AcDbBlockReference
  2
BLOCK_112
 10
0.0
 20
0.0
 30
0.0
  0
INSERT
  5
356
330
1F
100
AcDbEntity
  8
0
100
AcDbBlockReference
  2
BLOCK_113
 10
0.0
 20
0.0
 30
0.0
  0
INSERT
  5
35E
330
1F
100
AcDbEntity
  8
0
100
AcDbBlockReference
  2
BLOCK_114
 10
0.0
 20
0.0
 30
0.0
  0
INSERT
  5
366
330
1F
100
AcDbEntity
  8
0
100
AcDbBlockReference
  2
BLOCK_115
 10
0.0
 20
0.0
 30
0.0
  0
INSERT
  5
36E
330
1F
100
AcDbEntity
  8
0
100
AcDbBlockReference
  2
BLOCK_116
 10
0.0
 20
0.0
 30
0.0
  0
INSERT
  5
376
330
1F
100
AcDbEntity
  8
0
100
AcDbBlockReference
  2
BLOCK_117
 10
0.0
 20
0.0
 30
0.0
  0
INSERT
  5
37E
330
1F
100
AcDbEntity
  8
0
100
AcDbBlockReference
  2
BLOCK_118
 10
0.0
 20
0.0
 30
0.0
  0
INSERT
  5
386
330
1F
100
AcDbEntity
  8
0
100
AcDbBlockReference
  2
BLOCK_119
 10
0.0
 20
0.0
 30
0.0
  0
INSERT
  5
38E
330
1F
100
AcDbEntity
  8
0
100
AcDbBlockReference
  2
BLOCK_120
 10
0.0
 20
0.0
 30
0.0
  0
INSERT
  5
396
330
1F
100
AcDbEntity
  8
0
100
AcDbBlockReference
  2
BLOCK_121
 10
0.0
 20
0.0
 30
0.0
  0
INSERT
  5
39E
330
1F
100
AcDbEntity
  8
0
100
AcDbBlockReference
  2
BLOCK_122
 10
0.0
 20
0.0
 30
0.0
  0
INSERT
  5
3A6
330
1F
100
AcDbEntity
  8
0
100
AcDbBlockReference
  2
BLOCK_123
 10
0.0
 20
0.0
 30
0.0
  0
INSERT
  5
3AE
330
1F
100
AcDbEntity
  8
0
100
AcDbBlockReference
  2
BLOCK_124
 10
0.0
 20
0.0
 30
0.0
  0
INSERT
  5
3B6
330
1F
100
AcDbEntity
  8
0
100
AcDbBlockReference
  2
BLOCK_125
 10
0.0
 20
0.0
 30
0.0
  0
INSERT
  5
3BE
330
1F
100
AcDbEntity
  8
0
100
AcDbBlockReference
  2
BLOCK_126
 10
0.0
 20
0.0
 30
0.0
  0
INSERT
  5
3C6
330
1F
100
AcDbEntity
  8
0
100
AcDbBlockReference
  2
BLOCK_127
 10
0.0
 20
0.0
 30
0.0
  0
INSERT
  5
3CE
330
1F
100
AcDbEntity
  8
0
100
AcDbBlockReference
  2
BLOCK_128
 10
0.0
 20
0.0
 30
0.0
  0
INSERT
  5
3D6
330
1F
100
AcDbEntity
  8
0
100
AcDbBlockReference
  2
BLOCK_129
 10
0.0
 20
0.0
 30
0.0
  0
INSERT
  5
3DE
330
1F
100
AcDbEntity
  8
0
100
AcDbBlockReference
  2
BLOCK_130
 10
0.0
 20
0.0
 30
0.0
  0
INSERT
  5
3E6
330
1F
100
AcDbEntity
  8
0
100
AcDbBlockReference
  2
BLOCK_131
 10
0.0
 20
0.0
 30
0.0
  0
INSERT
  5
3EE
330
1F
100
AcDbEntity
  8
0
100
AcDbBlockReference
  2
BLOCK_132
 10
0.0
 20
0.0
 30
0.0
  0
INSERT
  5
3F6
330
1F
100
AcDbEntity
  8
0
100
AcDbBlockReference
  2
BLOCK_133
 10
0.0
 20
0.0
 30
0.0
  0
INSERT
  5
3FE
330
1F
100
AcDbEntity
  8
0
100
AcDbBlockReference
  2
BLOCK_134
 10
0.0
 20
0.0
 30
0.0
  0
INSERT
  5
406
330
1F
100
AcDbEntity
  8
0
100
AcDbBlockReference
  2
BLOCK_135
 10
0.0
 20
0.0
 30
0.0
  0
INSERT
  5
40E
330
1F
100
AcDbEntity
  8
0
100
AcDbBlockReference
  2
BLOCK_136
 10
0.0
 20
0.0
 30
0.0
  0
INSERT
  5
419
330
1F
100
AcDbEntity
  8
0
100
AcDbBlockReference
  2
BLOCK_137
 10
0.0
 20
0.0
 30
0.0
  0
INSERT
  5
424
330
1F
100
AcDbEntity
  8
0
100
AcDbBlockReference
  2
BLOCK_138
 10
0.0
 20
0.0
 30
0.0
  0
INSERT
  5
429
330
1F
100
AcDbEntity
  8
0
100
AcDbBlockReference
  2
BLOCK_139
 10
0.0
 20
0.0
 30
0.0
  0
INSERT
  5
431
330
1F
100
AcDbEntity
  8
0
100
AcDbBlockReference
  2
BLOCK_140
 10
0.0
 20
0.0
 30
0.0
  0
INSERT
  5
439
330
1F
100
AcDbEntity
  8
0
100
AcDbBlockReference
  2
BLOCK_141
 10
0.0
 20
0.0
 30
0.0
  0
INSERT
  5
441
330
1F
100
AcDbEntity
  8
0
100
AcDbBlockReference
  2
BLOCK_142
 10
0.0
 20
0.0
 30
0.0
  0
INSERT
  5
448
330
1F
100
AcDbEntity
  8
0
100
AcDbBlockReference
  2
BLOCK_143
 10
0.0
 20
0.0
 30
0.0
  0
INSERT
  5
450
330
1F
100
AcDbEntity
  8
0
100
AcDbBlockReference
  2
BLOCK_144
 10
0.0
 20
0.0
 30
0.0
  0
INSERT
  5
45B
330
1F
100
AcDbEntity
  8
0
100
AcDbBlockReference
  2
BLOCK_145
 10
0.0
 20
0.0
 30
0.0
  0
INSERT
  5
466
330
1F
100
AcDbEntity
  8
0
100
AcDbBlockReference
  2
BLOCK_146
 10
0.0
 20
0.0
 30
0.0
  0
INSERT
  5
46E
330
1F
100
AcDbEntity
  8
0
100
AcDbBlockReference
  2
BLOCK_147
 10
0.0
 20
0.0
 30
0.0
  0
INSERT
  5
476
330
1F
100
AcDbEntity
  8
0
100
AcDbBlockReference
  2
BLOCK_148
 10
0.0
 20
0.0
 30
0.0
  0
INSERT
  5
47B
330
1F
100
AcDbEntity
  8
0
100
AcDbBlockReference
  2
BLOCK_149
 10
0.0
 20
0.0
 30
0.0
  0
INSERT
  5
483
330
1F
100
AcDbEntity
  8
0
100
AcDbBlockReference
  2
BLOCK_150
 10
0.0
 20
0.0
 30
0.0
  0
INSERT
  5
48E
330
1F
100
AcDbEntity
  8
0
100
AcDbBlockReference
  2
BLOCK_151
 10
0.0
 20
0.0
 30
0.0
  0
INSERT
  5
493
330
1F
100
AcDbEntity
  8
0
100
AcDbBlockReference
  2
BLOCK_152
 10
0.0
 20
0.0
 30
0.0
  0
INSERT
  5
49B
330
1F
100
AcDbEntity
  8
0
100
AcDbBlockReference
  2
BLOCK_153
 10
0.0
 20
0.0
 30
0.0
  0
INSERT
  5
4A3
330
1F
100
AcDbEntity
  8
0
100
AcDbBlockReference
  2
BLOCK_154
 10
0.0
 20
0.0
 30
0.0
  0
INSERT
  5
4A8
330
1F
100
AcDbEntity
  8
0
100
AcDbBlockReference
  2
BLOCK_155
 10
0.0
 20
0.0
 30
0.0
  0
INSERT
  5
4B0
330
1F
100
AcDbEntity
  8
0
100
AcDbBlockReference
  2
BLOCK_156
 10
0.0
 20
0.0
 30
0.0
  0
INSERT
  5
4BB
330
1F
100
AcDbEntity
  8
0
100
AcDbBlockReference
  2
BLOCK_157
 10
0.0
 20
0.0
 30
0.0
  0
INSERT
  5
4C0
330
1F
100
AcDbEntity
  8
0
100
AcDbBlockReference
  2
BLOCK_158
 10
0.0
 20
0.0
 30
0.0
  0
INSERT
  5
4C8
330
1F
100
AcDbEntity
  8
0
100
AcDbBlockReference
  2
BLOCK_159
 10
0.0
 20
0.0
 30
0.0
  0
INSERT
  5
4D0
330
1F
100
AcDbEntity
  8
0
100
AcDbBlockReference
  2
BLOCK_160
 10
0.0
 20
0.0
 30
0.0
  0
INSERT
  5
4D8
330
1F
100
AcDbEntity
  8
0
100
AcDbBlockReference
  2
BLOCK_161
 10
0.0
 20
0.0
 30
0.0
  0
INSERT
  5
4E3
330
1F
100
AcDbEntity
  8
0
100
AcDbBlockReference
  2
BLOCK_162
 10
0.0
 20
0.0
 30
0.0
  0
INSERT
  5
4EE
330
1F
100
AcDbEntity
  8
0
100
AcDbBlockReference
  2
BLOCK_163
 10
0.0
 20
0.0
 30
0.0
  0
INSERT
  5
4F3
330
1F
100
AcDbEntity
  8
0
100
AcDbBlockReference
  2
BLOCK_164
 10
0.0
 20
0.0
 30
0.0
  0
INSERT
  5
4FB
330
1F
100
AcDbEntity
  8
0
100
AcDbBlockReference
  2
BLOCK_165
 10
0.0
 20
0.0
 30
0.0
  0
INSERT
  5
503
330
1F
100
AcDbEntity
  8
0
100
AcDbBlockReference
  2
BLOCK_166
 10
0.0
 20
0.0
 30
0.0
  0
INSERT
  5
50B
330
1F
100
AcDbEntity
  8
0
100
AcDbBlockReference
  2
BLOCK_167
 10
0.0
 20
0.0
 30
0.0
  0
INSERT
  5
516
330
1F
100
AcDbEntity
  8
0
100
AcDbBlockReference
  2
BLOCK_168
 10
0.0
 20
0.0
 30
0.0
  0
INSERT
  5
521
330
1F
100
AcDbEntity
  8
0
100
AcDbBlockReference
  2
BLOCK_169
 10
0.0
 20
0.0
 30
0.0
  0
INSERT
  5
526
330
1F
100
AcDbEntity
  8
0
100
AcDbBlockReference
  2
BLOCK_170
 10
0.0
 20
0.0
 30
0.0
  0
INSERT
  5
52E
330
1F
100
AcDbEntity
  8
0
100
AcDbBlockReference
  2
BLOCK_171
 10
0.0
 20
0.0
 30
0.0
  0
INSERT
  5
536
330
1F
100
AcDbEntity
  8
0
100
AcDbBlockReference
  2
BLOCK_172
 10
0.0
 20
0.0
 30
0.0
  0
INSERT
  5
53E
330
1F
100
AcDbEntity
  8
0
100
AcDbBlockReference
  2
BLOCK_173
 10
0.0
 20
0.0
 30
0.0
  0
INSERT
  5
549
330
1F
100
AcDbEntity
  8
0
100
AcDbBlockReference
  2
BLOCK_174
 10
0.0
 20
0.0
 30
0.0
  0
INSERT
  5
554
330
1F
100
AcDbEntity
  8
0
100
AcDbBlockReference
  2
BLOCK_175
 10
0.0
 20
0.0
 30
0.0
  0
INSERT
  5
559
330
1F
100
AcDbEntity
  8
0
100
AcDbBlockReference
  2
BLOCK_176
 10
0.0
 20
0.0
 30
0.0
  0
INSERT
  5
561
330
1F
100
AcDbEntity
  8
0
100
AcDbBlockReference
  2
BLOCK_177
 10
0.0
 20
0.0
 30
0.0
  0
INSERT
  5
569
330
1F
100
AcDbEntity
  8
0
100
AcDbBlockReference
  2
BLOCK_178
 10
0.0
 20
0.0
 30
0.0
  0
INSERT
  5
571
330
1F
100
AcDbEntity
  8
0
100
AcDbBlockReference
  2
BLOCK_179
 10
0.0
 20
0.0
 30
0.0
  0
INSERT
  5
57C
330
1F
100
AcDbEntity
  8
0
100
AcDbBlockReference
  2
BLOCK_180
 10
0.0
 20
0.0
 30
0.0
  0
INSERT
  5
587
330
1F
100
AcDbEntity
  8
0
100
AcDbBlockReference
  2
BLOCK_181
 10
0.0
 20
0.0
 30
0.0
  0
INSERT
  5
58C
330
1F
100
AcDbEntity
  8
0
100
AcDbBlockReference
  2
BLOCK_182
 10
0.0
 20
0.0
 30
0.0
  0
INSERT
  5
594
330
1F
100
AcDbEntity
  8
0
100
AcDbBlockReference
  2
BLOCK_183
 10
0.0
 20
0.0
 30
0.0
  0
INSERT
  5
59C
330
1F
100
AcDbEntity
  8
0
100
AcDbBlockReference
  2
BLOCK_184
 10
0.0
 20
0.0
 30
0.0
  0
INSERT
  5
5A4
330
1F
100
AcDbEntity
  8
0
100
AcDbBlockReference
  2
BLOCK_185
 10
0.0
 20
0.0
 30
0.0
  0
INSERT
  5
5AC
330
1F
100
AcDbEntity
  8
0
100
AcDbBlockReference
  2
BLOCK_186
 10
0.0
 20
0.0
 30
0.0
  0
INSERT
  5
5B7
330
1F
100
AcDbEntity
  8
0
100
AcDbBlockReference
  2
BLOCK_187
 10
0.0
 20
0.0
 30
0.0
  0
INSERT
  5
5C2
330
1F
100
AcDbEntity
  8
0
100
AcDbBlockReference
  2
BLOCK_188
 10
0.0
 20
0.0
 30
0.0
  0
INSERT
  5
5C9
330
1F
100
AcDbEntity
  8
0
100
AcDbBlockReference
  2
BLOCK_189
 10
0.0
 20
0.0
 30
0.0
  0
INSERT
  5
5D1
330
1F
100
AcDbEntity
  8
0
100
AcDbBlockReference
  2
BLOCK_190
 10
0.0
 20
0.0
 30
0.0
  0
INSERT
  5
5D9
330
1F
100
AcDbEntity
  8
0
100
AcDbBlockReference
  2
BLOCK_191
 10
0.0
 20
0.0
 30
0.0
  0
INSERT
  5
5E1
330
1F
100
AcDbEntity
  8
0
100
AcDbBlockReference
  2
BLOCK_192
 10
0.0
 20
0.0
 30
0.0
  0
INSERT
  5
5EC
330
1F
100
AcDbEntity
  8
0
100
AcDbBlockReference
  2
BLOCK_193
 10
0.0
 20
0.0
 30
0.0
  0
INSERT
  5
5F7
330
1F
100
AcDbEntity
  8
0
100
AcDbBlockReference
  2
BLOCK_194
 10
0.0
 20
0.0
 30
0.0
  0
INSERT
  5
5FC
330
1F
100
AcDbEntity
  8
0
100
AcDbBlockReference
  2
BLOCK_195
 10
0.0
 20
0.0
 30
0.0
  0
INSERT
  5
605
330
1F
100
AcDbEntity
  8
0
100
AcDbBlockReference
  2
BLOCK_196
 10
0.0
 20
0.0
 30
0.0
  0
INSERT
  5
60E
330
1F
100
AcDbEntity
  8
0
100
AcDbBlockReference
  2
BLOCK_197
 10
0.0
 20
0.0
 30
0.0
  0
INSERT
  5
617
330
1F
100
AcDbEntity
  8
0
100
AcDbBlockReference
  2
BLOCK_198
 10
0.0
 20
0.0
 30
0.0
  0
INSERT
  5
620
330
1F
100
AcDbEntity
  8
0
100
AcDbBlockReference
  2
BLOCK_199
 10
0.0
 20
0.0
 30
0.0
  0
INSERT
  5
628
330
1F
100
AcDbEntity
  8
0
100
AcDbBlockReference
  2
BLOCK_200
 10
0.0
 20
0.0
 30
0.0
  0
INSERT
  5
630
330
1F
100
AcDbEntity
  8
0
100
AcDbBlockReference
  2
BLOCK_201
 10
0.0
 20
0.0
 30
0.0
  0
INSERT
  5
638
330
1F
100
AcDbEntity
  8
0
100
AcDbBlockReference
  2
BLOCK_202
 10
0.0
 20
0.0
 30
0.0
  0
INSERT
  5
63D
330
1F
100
AcDbEntity
  8
0
100
AcDbBlockReference
  2
BLOCK_203
 10
0.0
 20
0.0
 30
0.0
  0
INSERT
  5
645
330
1F
100
AcDbEntity
  8
0
100
AcDbBlockReference
  2
BLOCK_204
 10
0.0
 20
0.0
 30
0.0
  0
INSERT
  5
650
330
1F
100
AcDbEntity
  8
0
100
AcDbBlockReference
  2
BLOCK_205
 10
0.0
 20
0.0
 30
0.0
  0
ENDSEC
  0
SECTION
  2
OBJECTS
  0
DICTIONARY
  5
C
330
0
100
AcDbDictionary
  3
ACAD_GROUP
350
D
  3
ACAD_LAYOUT
350
1A
  3
ACAD_MATERIAL
350
3B
  3
ACAD_MLEADERSTYLE
350
666
  3
ACAD_MLINESTYLE
350
17
  3
ACAD_PLOTSETTINGS
350
19
  3
ACAD_VISUALSTYLE
350
2A
  3
ACDBVARIABLEDICTIONARY
350
664
1001
ACAD
1000
TREAT_AS_HARD
1070
     0
  0
DICTIONARY
  5
D
102
{ACAD_REACTORS
330
C
102
}
330
C
100
AcDbDictionary
1001
ACAD
1000
TREAT_AS_HARD
1070
     0
  0
DICTIONARY
  5
1A
102
{ACAD_REACTORS
330
C
102
}
330
C
100
AcDbDictionary
1001
ACAD
1000
TREAT_AS_HARD
1070
     0
  0
DICTIONARY
  5
3B
102
{ACAD_REACTORS
330
C
102
}
330
C
100
AcDbDictionary
  3
BYBLOCK
350
3D
  3
BYLAYER
350
3C
  3
GLOBAL
350
3E
1001
ACAD
1000
TREAT_AS_HARD
1070
     0
  0
DICTIONARY
  5
666
102
{ACAD_REACTORS
330
C
102
}
330
C
100
AcDbDictionary
1001
ACAD
1000
TREAT_AS_HARD
1070
     0
  0
DICTIONARY
  5
17
102
{ACAD_REACTORS
330
C
102
}
330
C
100
AcDbDictionary
  3
STANDARD
350
18
1001
ACAD
1000
TREAT_AS_HARD
1070
     0
  0
DICTIONARY
  5
19
102
{ACAD_REACTORS
330
C
102
}
330
C
100
AcDbDictionary
1001
ACAD
1000
TREAT_AS_HARD
1070
     0
  0
DICTIONARY
  5
2A
102
{ACAD_REACTORS
330
C
102
}
330
C
100
AcDbDictionary
  3
2DWIREFRAME
350
2F
  3
3D_HIDDEN
350
31
  3
3DWIREFRAME
350
30
  3
BASIC
350
32
  3
BRIGHTEN
350
36
  3
COLORCHANGE
350
3A
  3
CONCEPTUAL
350
34
  3
DIM
350
35
  3
FACEPATTERN
350
39
  3
FLAT
350
2B
  3
FLATWITHEDGES
350
2C
  3
GOURAUD
350
2D
  3
GOURAUDWITHEDGES
350
2E
  3
LINEPATTERN
350
38
  3
REALISTIC
350
33
  3
THICKEN
350
37
1001
ACAD
1000
TREAT_AS_HARD
1070
     0
  0
DICTIONARY
  5
664
102
{ACAD_REACTORS
330
C
102
}
330
C
100
AcDbDictionary
  3
DIMASSOC
350
667
  3
HIDETEXT
350
668
1001
ACAD
1000
TREAT_AS_HARD
1070
     0
  0
MATERIAL
  5
3D
102
{ACAD_REACTORS
330
3B
102
}
102
{ACAD_XDICTIONARY
360
6C4
102
}
330
3B
100
AcDbMaterial
  1
ByBlock
  0
MATERIAL
  5
3C
102
{ACAD_REACTORS
330
3B
102
}
102
{ACAD_XDICTIONARY
360
6C2
102
}
330
3B
100
AcDbMaterial
  1
ByLayer
  0
MATERIAL
  5
3E
102
{ACAD_REACTORS
330
3B
102
}
102
{ACAD_XDICTIONARY
360
6C6
102
}
330
3B
100
AcDbMaterial
  1
Global
  0
MLINESTYLE
  5
18
102
{ACAD_REACTORS
330
17
102
}
330
17
100
AcDbMlineStyle
  2
Standard
 70
     0
  3

 62
   256
 51
90.0
 52
90.0
 71
     2
 49
0.5
 62
   256
  6
BYLAYER
 49
-0.5
 62
   256
  6
BYLAYER
  0
ACAD_PROXY_OBJECT
  5
2F
102
{ACAD_REACTORS
330
2A
102
}
330
2A
100
AcDbZombieObject
 90
      499
 91
      501
 93
      436
310
42CC9915DA5C99599C985B595049028333333333333E3BF0000000000000FB0107901411070040501600405405064090741402480A0340
1001
ACAD
1000
AcDbSavedByObjectVersion
1070
     0
  0
ACAD_PROXY_OBJECT
  5
31
102
{ACAD_REACTORS
330
2A
102
}
330
2A
100
AcDbZombieObject
 90
      499
 91
      501
 93
      500
310
424CD108121A5919195B90640502408333333333333E3BF0000000000000FB01079024090700405020000000000001110200405405064090740C02480A0340
1001
ACAD
1000
AcDbSavedByObjectVersion
1070
     0
  0
ACAD_PROXY_OBJECT
  5
30
102
{ACAD_REACTORS
330
2A
102
}
330
2A
100
AcDbZombieObject
 90
      499
 91
      501
 93
      436
310
42CCD915DA5C99599C985B595059028333333333333E3BF0000000000000FB0107901411070040501600405405064090741402480A0340
1001
ACAD
1000
AcDbSavedByObjectVersion
1070
     0
  0
ACAD_PROXY_OBJECT
  5
32
102
{ACAD_REACTORS
330
2A
102
}
330
2A
100
AcDbZombieObject
 90
      499
 91
      501
 93
      388
310
4150985CDA58D07406404333333333333E3BF0000000000000FB0107A41107004050150841D405064090741402480A0350
1001
ACAD
1000
AcDbSavedByObjectVersion
1070
     0
  0
ACAD_PROXY_OBJECT
  5
36
102
{ACAD_REACTORS
330
2A
102
}
330
2A
100
AcDbZombieObject
 90
      499
 91
      501
 93
      428
310
42109C9A59DA1D195B90C409028333333333333E3BF0000000000000FB010790141107004050150841D405064090741402480A029950
1001
ACAD
1000
AcDbSavedByObjectVersion
1070
     0
  0
ACAD_PROXY_OBJECT
  5
3A
102
{ACAD_REACTORS
330
2A
102
}
330
2A
100
AcDbZombieObject
 90
      499
 91
      501
 93
      452
310
42D0DBDB1BDC90DA185B99D95104090240C333333333333E3BF0000000000000FB0108901411070040501508421405064090741402480A0350
1001
ACAD
1000
AcDbSavedByObjectVersion
1070
     0
  0
ACAD_PROXY_OBJECT
  5
34
102
{ACAD_REACTORS
330
2A
102
}
330
2A
100
AcDbZombieObject
 90
      499
 91
      501
 93
      500
310
4290DBDB98D95C1D1D585B10940D028333333333333E3BF0000000000000FB0107902409070040501000000000000111010841D405064090740C02480A0340
1001
ACAD
1000
AcDbSavedByObjectVersion
1070
     0
  0
ACAD_PROXY_OBJECT
  5
35
102
{ACAD_REACTORS
330
2A
102
}
330
2A
100
AcDbZombieObject
 90
      499
 91
      501
 93
      412
310
40D11A5B50B409028333333333333E3BF0000000000000FB010790141107004050150841D405064090741402480A02677FFFFFD0
1001
ACAD
1000
AcDbSavedByObjectVersion
1070
     0
  0
ACAD_PROXY_OBJECT
  5
39
102
{ACAD_REACTORS
330
2A
102
}
330
2A
100
AcDbZombieObject
 90
      499
 91
      501
 93
      444
310
42D19858D95C185D1D195C9B90F409028333333333333E3BF0000000000000FB010790141107004050150841D405064090741402480A0350
1001
ACAD
1000
AcDbSavedByObjectVersion
1070
     0
  0
ACAD_PROXY_OBJECT
  5
2B
102
{ACAD_REACTORS
330
2A
102
}
330
2A
100
AcDbZombieObject
 90
      499
 91
      501
 93
      388
310
41119B185D240901404333333333333E3BF0000000000000F9010740A41107004050150841D405064090741402480A1B50
1001
ACAD
1000
AcDbSavedByObjectVersion
1070
     0
  0
ACAD_PROXY_OBJECT
  5
2C
102
{ACAD_REACTORS
330
2A
102
}
330
2A
100
AcDbZombieObject
 90
      499
 91
      501
 93
      476
310
43519B185D15DA5D1A115919D95CD0140901404333333333333E3BF0000000000000F9010740901411070040501600405405064090741402480A1B50
1001
ACAD
1000
AcDbSavedByObjectVersion
1070
     0
  0
ACAD_PROXY_OBJECT
  5
2D
102
{ACAD_REACTORS
330
2A
102
}
330
2A
100
AcDbZombieObject
 90
      499
 91
      501
 93
      412
310
41D1DBDD5C985D5910240902404333333333333E3BF0000000000000F9010740A411070040501641D405064090741402480A1B50
1001
ACAD
1000
AcDbSavedByObjectVersion
1070
     0
  0
ACAD_PROXY_OBJECT
  5
2E
102
{ACAD_REACTORS
330
2A
102
}
330
2A
100
AcDbZombieObject
 90
      499
 91
      501
 93
      500
310
4411DBDD5C985D5915DA5D1A115919D95CD0340902404333333333333E3BF0000000000000F9010740901411070040501600405405064090741402480A1B50
1001
ACAD
1000
AcDbSavedByObjectVersion
1070
     0
  0
ACAD_PROXY_OBJECT
  5
38
102
{ACAD_REACTORS
330
2A
102
}
330
2A
100
AcDbZombieObject
 90
      499
 91
      501
 93
      444
310
42D31A5B995C185D1D195C9B90E409028333333333333E3BF0000000000000FB010790141107004050750841D405064090741402483A0350
1001
ACAD
1000
AcDbSavedByObjectVersion
1070
     0
  0
ACAD_PROXY_OBJECT
  5
33
102
{ACAD_REACTORS
330
2A
102
}
330
2A
100
AcDbZombieObject
 90
      499
 91
      501
 93
      420
310
425499585B1A5CDD1A58D08409028333333333333E3BF0000000000000FB01079019070040501508421405064090741402480A1B40
1001
ACAD
1000
AcDbSavedByObjectVersion
1070
     0
  0
ACAD_PROXY_OBJECT
  5
37
102
{ACAD_REACTORS
330
2A
102
}
330
2A
100
AcDbZombieObject
 90
      499
 91
      501
 93
      412
310
41D51A1A58DAD95B90D409028333333333333E3BF0000000000000FB010790141107004050150C41D405064090741402480A0350
1001
ACAD
1000
AcDbSavedByObjectVersion
1070
     0
  0
DICTIONARYVAR
  5
667
102
{ACAD_REACTORS
330
664
102
}
330
664
100
DictionaryVariables
280
     0
  1
2
  0
DICTIONARYVAR
  5
668
102
{ACAD_REACTORS
330
664
102
}
330
664
100
DictionaryVariables
280
     0
  1
1
  0
DICTIONARY
  5
6C4
330
3D
100
AcDbDictionary
  3
ACAD_XREC_ROUNDTRIP
360
6C5
1001
ACAD
1000
TREAT_AS_HARD
1070
     1
  0
DICTIONARY
  5
6C2
330
3C
100
AcDbDictionary
  3
ACAD_XREC_ROUNDTRIP
360
6C3
1001
ACAD
1000
TREAT_AS_HARD
1070
     1
  0
DICTIONARY
  5
6C6
330
3E
100
AcDbDictionary
  3
ACAD_XREC_ROUNDTRIP
360
6C7
1001
ACAD
1000
TREAT_AS_HARD
1070
     1
  0
XRECORD
  5
6C5
102
{ACAD_REACTORS
330
6C4
102
}
330
6C4
100
AcDbXrecord
102
MATERIAL
148
0.0
149
0.0
149
0.0
 93
        0
 94
      127
282
     0
 72
     1
 77
     1
171
     1
175
     1
179
     1
273
     0
  0
XRECORD
  5
6C3
102
{ACAD_REACTORS
330
6C2
102
}
330
6C2
100
AcDbXrecord
102
MATERIAL
148
0.0
149
0.0
149
0.0
 93
        0
 94
      127
282
     0
 72
     1
 77
     1
171
     1
175
     1
179
     1
273
     0
  0
XRECORD
  5
6C7
102
{ACAD_REACTORS
330
6C6
102
}
330
6C6
100
AcDbXrecord
102
MATERIAL
148
0.0
149
0.0
149
0.0
 93
        0
 94
      127
282
     0
 72
     1
 77
     1
171
     1
175
     1
179
     1
273
     0
  0
ENDSEC
  0
EOF
