  0
SECTION
  2
HEADER
  9
$ACADVER
  1
AC1009
  0
ENDSEC
  0
SECTION
  2
ENTITIES
  0
POLYLINE
  5
90
  8
Layer_1
  62
0
  66
1
  10
0
  20
0
  30
0
  0
VERTEX
  5
90
  8
Layer_1
  10
-562.99762
  20
561.85907
  0
VERTEX
  5
91
  8
Layer_1
  10
-562.99762
  20
553.85907
  0
VERTEX
  5
92
  8
Layer_1
  10
-552.99762
  20
553.85907
  0
VERTEX
  5
93
  8
Layer_1
  10
-552.99768
  20
153.85909
  0
VERTEX
  5
94
  8
Layer_1
  10
-562.99768
  20
153.85909
  0
VERTEX
  5
95
  8
Layer_1
  10
-562.99768
  20
145.85909
  0
VERTEX
  5
96
  8
Layer_1
  10
-702.99768
  20
145.8591
  0
VERTEX
  5
97
  8
Layer_1
  10
-702.99768
  20
153.85909
  0
VERTEX
  5
98
  8
Layer_1
  10
-712.99768
  20
153.85909
  0
VERTEX
  5
99
  8
Layer_1
  10
-712.99762
  20
553.85907
  0
VERTEX
  5
9a
  8
Layer_1
  10
-702.99762
  20
553.85907
  0
VERTEX
  5
9b
  8
Layer_1
  10
-702.99762
  20
561.85907
  0
VERTEX
  5
9c
  8
Layer_1
  10
-562.99762
  20
561.85907
  0
SEQEND
  0
CIRCLE
  5
9e
  8
Layer_0
  62
5
  10
-284.89099
  20
714.92297
  30
0
  40
2.499999
  0
CIRCLE
  5
9e
  8
Layer_0
  62
5
  10
-334.89099
  20
714.92297
  30
0
  40
2.499999
  0
CIRCLE
  5
9e
  8
Layer_0
  62
5
  10
-384.89099
  20
714.92297
  30
0
  40
2.499999
  0
CIRCLE
  5
9e
  8
Layer_0
  62
5
  10
-434.89099
  20
714.92297
  30
0
  40
2.499999
  0
POLYLINE
  5
9e
  8
Layer_1
  62
0
  66
1
  10
0
  20
0
  30
0
  0
VERTEX
  5
9e
  8
Layer_1
  10
-302.99948
  20
183.90112
  42
-0.2679486
  0
VERTEX
  5
9f
  8
Layer_1
  10
-332.99948
  20
131.93964
  0
VERTEX
  5
a0
  8
Layer_1
  10
-477.99948
  20
48.223816
  42
-0.26794924
  0
VERTEX
  5
a1
  8
Layer_1
  10
-527.99951
  20
48.223816
  42
-0.2679492
  0
VERTEX
  5
a2
  8
Layer_1
  10
-552.99951
  20
91.525024
  0
VERTEX
  5
a3
  8
Layer_1
  10
-552.99963
  20
754.92224
  42
-0.41421343
  0
VERTEX
  5
a4
  8
Layer_1
  10
-492.9996
  20
814.92224
  0
VERTEX
  5
a5
  8
Layer_1
  10
-212.99966
  20
814.92236
  42
-0.41421349
  0
VERTEX
  5
a6
  8
Layer_1
  10
-152.99973
  20
754.92236
  0
VERTEX
  5
a7
  8
Layer_1
  10
-152.99973
  20
674.92236
  42
-0.41421349
  0
VERTEX
  5
a8
  8
Layer_1
  10
-212.99966
  20
614.92242
  0
VERTEX
  5
a9
  8
Layer_1
  10
-242.99966
  20
614.92236
  42
0.41421361
  0
VERTEX
  5
aa
  8
Layer_1
  10
-302.99966
  20
554.92236
  0
VERTEX
  5
ab
  8
Layer_1
  10
-302.99948
  20
183.90112
  0
SEQEND
  0
POLYLINE
  5
ad
  8
Layer_1
  62
0
  66
1
  10
0
  20
0
  30
0
  0
VERTEX
  5
ad
  8
Layer_1
  10
-384.09579
  20
241.00317
  0
VERTEX
  5
ae
  8
Layer_1
  10
-392.09579
  20
254.85956
  0
VERTEX
  5
af
  8
Layer_1
  10
-513.33923
  20
184.85956
  0
VERTEX
  5
b0
  8
Layer_1
  10
-505.33926
  20
171.00317
  0
VERTEX
  5
b1
  8
Layer_1
  10
-384.09579
  20
241.00317
  0
SEQEND
  0
POLYLINE
  5
b3
  8
Layer_1
  62
0
  66
1
  10
0
  20
0
  30
0
  0
VERTEX
  5
b3
  8
Layer_1
  10
-331.52213
  20
439.94287
  0
VERTEX
  5
b4
  8
Layer_1
  10
-339.52213
  20
453.79926
  0
VERTEX
  5
b5
  8
Layer_1
  10
-460.76559
  20
383.79926
  0
VERTEX
  5
b6
  8
Layer_1
  10
-452.76559
  20
369.94287
  0
VERTEX
  5
b7
  8
Layer_1
  10
-331.52213
  20
439.94287
  0
SEQEND
  0
POLYLINE
  5
b9
  8
Layer_1
  62
0
  66
1
  10
0
  20
0
  30
0
  0
VERTEX
  5
b9
  8
Layer_1
  10
-278.94846
  20
638.88251
  0
VERTEX
  5
ba
  8
Layer_1
  10
-286.94846
  20
652.73889
  0
VERTEX
  5
bb
  8
Layer_1
  10
-408.19199
  20
582.73889
  0
VERTEX
  5
bc
  8
Layer_1
  10
-400.19199
  20
568.88251
  0
VERTEX
  5
bd
  8
Layer_1
  10
-278.94846
  20
638.88251
  0
SEQEND
  0
CIRCLE
  5
bf
  8
Layer_0
  62
5
  10
-753.56897
  20
609.55499
  30
0
  40
2.499999
  0
CIRCLE
  5
bf
  8
Layer_0
  62
5
  10
-754.18103
  20
440.61499
  30
0
  40
2.499999
  0
CIRCLE
  5
bf
  8
Layer_0
  62
5
  10
-858.716
  20
211.675
  30
0
  40
2.499999
  0
CIRCLE
  5
bf
  8
Layer_0
  62
5
  10
-910.67798
  20
181.675
  30
0
  40
2.499999
  0
CIRCLE
  5
bf
  8
Layer_0
  62
5
  10
-806.75403
  20
241.675
  30
0
  40
2.499999
  0
CIRCLE
  5
bf
  8
Layer_0
  62
5
  10
-806.14203
  20
410.61499
  30
0
  40
2.499999
  0
CIRCLE
  5
bf
  8
Layer_0
  62
5
  10
-858.104
  20
380.61499
  30
0
  40
2.499999
  0
CIRCLE
  5
bf
  8
Layer_0
  62
5
  10
-701.60699
  20
639.55499
  30
0
  40
2.499999
  0
CIRCLE
  5
bf
  8
Layer_0
  62
5
  10
-805.53003
  20
579.55499
  30
0
  40
2.499999
  0
CIRCLE
  5
bf
  8
Layer_0
  62
5
  10
-694.89099
  20
713.66602
  30
0
  40
2.499999
  0
CIRCLE
  5
bf
  8
Layer_0
  62
5
  10
-744.89099
  20
713.66602
  30
0
  40
2.499999
  0
CIRCLE
  5
bf
  8
Layer_0
  62
5
  10
-794.89099
  20
713.66602
  30
0
  40
2.499999
  0
CIRCLE
  5
bf
  8
Layer_0
  62
5
  10
-844.89099
  20
713.66602
  30
0
  40
2.499999
  0
POLYLINE
  5
bf
  8
Layer_1
  62
0
  66
1
  10
0
  20
0
  30
0
  0
VERTEX
  5
bf
  8
Layer_1
  10
-562.99768
  20
673.66656
  42
-0.41421331
  0
VERTEX
  5
c0
  8
Layer_1
  10
-622.99762
  20
613.66656
  0
VERTEX
  5
c1
  8
Layer_1
  10
-652.99762
  20
613.66656
  42
0.41421326
  0
VERTEX
  5
c2
  8
Layer_1
  10
-712.99762
  20
553.66656
  0
VERTEX
  5
c3
  8
Layer_1
  10
-712.9975
  20
182.64529
  42
-0.2679486
  0
VERTEX
  5
c4
  8
Layer_1
  10
-742.9975
  20
130.68378
  0
VERTEX
  5
c5
  8
Layer_1
  10
-887.99738
  20
46.968018
  42
-0.26794924
  0
VERTEX
  5
c6
  8
Layer_1
  10
-937.99738
  20
46.967957
  42
-0.2679492
  0
VERTEX
  5
c7
  8
Layer_1
  10
-962.99738
  20
90.269226
  0
VERTEX
  5
c8
  8
Layer_1
  10
-962.9975
  20
753.66644
  42
-0.41421343
  0
VERTEX
  5
c9
  8
Layer_1
  10
-902.99756
  20
813.66644
  0
VERTEX
  5
ca
  8
Layer_1
  10
-622.99768
  20
813.6665
  42
-0.41421343
  0
VERTEX
  5
cb
  8
Layer_1
  10
-562.99768
  20
753.6665
  0
VERTEX
  5
cc
  8
Layer_1
  10
-562.99768
  20
673.66656
  0
SEQEND
  0
CIRCLE
  5
ce
  8
Layer_2
  62
3
  10
-1468.0002
  20
-635.56097
  30
0
  40
2.5
  0
CIRCLE
  5
ce
  8
Layer_2
  62
3
  10
-1468.0002
  20
-585.56097
  30
0
  40
2.5
  0
CIRCLE
  5
ce
  8
Layer_2
  62
3
  10
-1468.0002
  20
-535.56097
  30
0
  40
2.5
  0
CIRCLE
  5
ce
  8
Layer_2
  62
3
  10
-1468.0002
  20
-485.56097
  30
0
  40
2.5
  0
CIRCLE
  5
ce
  8
Layer_2
  62
3
  10
-1533.1831
  20
-907.06097
  30
0
  40
1.5
  0
CIRCLE
  5
ce
  8
Layer_2
  62
3
  10
-1533.1831
  20
-857.06097
  30
0
  40
1.5
  0
CIRCLE
  5
ce
  8
Layer_2
  62
3
  10
-1533.1831
  20
-807.06097
  30
0
  40
1.5
  0
POLYLINE
  5
ce
  8
Layer_3
  62
1
  66
1
  10
0
  20
0
  30
0
  0
VERTEX
  5
ce
  8
Layer_3
  10
-1567.998
  20
-939.06128
  0
VERTEX
  5
cf
  8
Layer_3
  10
-1567.998
  20
-465.56122
  42
-0.41421346
  0
VERTEX
  5
d0
  8
Layer_3
  10
-1487.998
  20
-385.56122
  0
VERTEX
  5
d1
  8
Layer_3
  10
-1447.998
  20
-385.56122
  42
-0.41421356
  0
VERTEX
  5
d2
  8
Layer_3
  10
-1367.998
  20
-465.56122
  0
VERTEX
  5
d3
  8
Layer_3
  10
-1367.998
  20
-939.06128
  0
VERTEX
  5
d4
  8
Layer_3
  10
-1567.998
  20
-939.06128
  0
SEQEND
  0
POLYLINE
  5
d6
  8
Layer_3
  62
1
  66
1
  10
0
  20
0
  30
0
  0
VERTEX
  5
d6
  8
Layer_3
  10
-1738.0031
  20
-520.61383
  0
VERTEX
  5
d7
  8
Layer_3
  10
-1738.0031
  20
-528.61383
  0
VERTEX
  5
d8
  8
Layer_3
  10
-1728.0031
  20
-528.61383
  0
VERTEX
  5
d9
  8
Layer_3
  10
-1728.0031
  20
-928.61383
  0
VERTEX
  5
da
  8
Layer_3
  10
-1738.0031
  20
-928.61383
  0
VERTEX
  5
db
  8
Layer_3
  10
-1738.0031
  20
-936.61383
  0
VERTEX
  5
dc
  8
Layer_3
  10
-1878.0031
  20
-936.61383
  0
VERTEX
  5
dd
  8
Layer_3
  10
-1878.0031
  20
-928.61383
  0
VERTEX
  5
de
  8
Layer_3
  10
-1888.0031
  20
-928.61383
  0
VERTEX
  5
df
  8
Layer_3
  10
-1888.0031
  20
-528.61383
  0
VERTEX
  5
e0
  8
Layer_3
  10
-1878.0031
  20
-528.61383
  0
VERTEX
  5
e1
  8
Layer_3
  10
-1878.0031
  20
-520.61383
  0
VERTEX
  5
e2
  8
Layer_3
  10
-1738.0031
  20
-520.61383
  0
SEQEND
  0
POLYLINE
  5
e4
  8
Layer_3
  62
1
  66
1
  10
0
  20
0
  30
0
  0
VERTEX
  5
e4
  8
Layer_3
  10
-1578.0031
  20
-520.8399
  0
VERTEX
  5
e5
  8
Layer_3
  10
-1578.0031
  20
-528.8399
  0
VERTEX
  5
e6
  8
Layer_3
  10
-1568.0031
  20
-528.8399
  0
VERTEX
  5
e7
  8
Layer_3
  10
-1568.0031
  20
-928.8399
  0
VERTEX
  5
e8
  8
Layer_3
  10
-1578.0031
  20
-928.8399
  0
VERTEX
  5
e9
  8
Layer_3
  10
-1578.0031
  20
-936.8399
  0
VERTEX
  5
ea
  8
Layer_3
  10
-1718.0031
  20
-936.8399
  0
VERTEX
  5
eb
  8
Layer_3
  10
-1718.0031
  20
-928.8399
  0
VERTEX
  5
ec
  8
Layer_3
  10
-1728.0031
  20
-928.8399
  0
VERTEX
  5
ed
  8
Layer_3
  10
-1728.0031
  20
-528.8399
  0
VERTEX
  5
ee
  8
Layer_3
  10
-1718.0031
  20
-528.8399
  0
VERTEX
  5
ef
  8
Layer_3
  10
-1718.0031
  20
-520.8399
  0
VERTEX
  5
f0
  8
Layer_3
  10
-1578.0031
  20
-520.8399
  0
SEQEND
  0
CIRCLE
  5
f2
  8
Layer_2
  62
3
  10
-1860.4182
  20
-420.61395
  30
0
  40
2.5
  0
CIRCLE
  5
f2
  8
Layer_2
  62
3
  10
-1810.4182
  20
-420.61395
  30
0
  40
2.5
  0
CIRCLE
  5
f2
  8
Layer_2
  62
3
  10
-1760.4182
  20
-420.61395
  30
0
  40
2.5
  0
CIRCLE
  5
f2
  8
Layer_2
  62
3
  10
-1710.4182
  20
-420.61395
  30
0
  40
2.5
  0
POLYLINE
  5
f2
  8
Layer_3
  62
1
  66
1
  10
0
  20
0
  30
0
  0
VERTEX
  5
f2
  8
Layer_3
  10
-1887.1655
  20
-520.61462
  0
VERTEX
  5
f3
  8
Layer_3
  10
-1690.4155
  20
-520.61462
  42
0.41421356
  0
VERTEX
  5
f4
  8
Layer_3
  10
-1610.4155
  20
-440.61459
  0
VERTEX
  5
f5
  8
Layer_3
  10
-1610.4155
  20
-400.61456
  42
0.41421356
  0
VERTEX
  5
f6
  8
Layer_3
  10
-1690.4155
  20
-320.61456
  0
VERTEX
  5
f7
  8
Layer_3
  10
-1887.1655
  20
-320.61456
  0
VERTEX
  5
f8
  8
Layer_3
  10
-1887.1655
  20
-520.61462
  0
SEQEND
  0
CIRCLE
  5
fa
  8
Layer_2
  62
3
  10
-1860.3832
  20
-220.61395
  30
0
  40
2.5
  0
CIRCLE
  5
fa
  8
Layer_2
  62
3
  10
-1810.3832
  20
-220.61395
  30
0
  40
2.5
  0
CIRCLE
  5
fa
  8
Layer_2
  62
3
  10
-1760.3832
  20
-220.61395
  30
0
  40
2.5
  0
CIRCLE
  5
fa
  8
Layer_2
  62
3
  10
-1710.3832
  20
-220.61395
  30
0
  40
2.5
  0
POLYLINE
  5
fa
  8
Layer_3
  62
1
  66
1
  10
0
  20
0
  30
0
  0
VERTEX
  5
fa
  8
Layer_3
  10
-1887.1355
  20
-320.61459
  0
VERTEX
  5
fb
  8
Layer_3
  10
-1690.3855
  20
-320.61459
  42
0.41421356
  0
VERTEX
  5
fc
  8
Layer_3
  10
-1610.3855
  20
-240.61459
  0
VERTEX
  5
fd
  8
Layer_3
  10
-1610.3855
  20
-200.61456
  42
0.41421356
  0
VERTEX
  5
fe
  8
Layer_3
  10
-1690.3855
  20
-120.61456
  0
VERTEX
  5
ff
  8
Layer_3
  10
-1887.1355
  20
-120.61456
  0
VERTEX
  5
100
  8
Layer_3
  10
-1887.1355
  20
-320.61459
  0
SEQEND
  0
CIRCLE
  5
102
  8
Layer_2
  62
3
  10
-1570.6282
  20
-325.26096
  30
0
  40
1.5
  0
CIRCLE
  5
102
  8
Layer_2
  62
3
  10
-1570.6282
  20
-265.26096
  30
0
  40
1.5
  0
CIRCLE
  5
102
  8
Layer_2
  62
3
  10
-1570.6282
  20
-205.26099
  30
0
  40
1.5
  0
CIRCLE
  5
102
  8
Layer_2
  62
3
  10
-1570.6282
  20
-375.26096
  30
0
  40
1.5
  0
POLYLINE
  5
102
  8
Layer_3
  62
1
  66
1
  10
0
  20
0
  30
0
  0
VERTEX
  5
102
  8
Layer_3
  10
-1405.4446
  20
-383.31787
  0
VERTEX
  5
103
  8
Layer_3
  10
-1405.4446
  20
-186.56784
  42
0.41421376
  0
VERTEX
  5
104
  8
Layer_3
  10
-1485.4446
  20
-106.56784
  0
VERTEX
  5
105
  8
Layer_3
  10
-1525.4446
  20
-106.56784
  42
0.41421356
  0
VERTEX
  5
106
  8
Layer_3
  10
-1605.4446
  20
-186.56784
  0
VERTEX
  5
107
  8
Layer_3
  10
-1605.4446
  20
-383.31781
  0
VERTEX
  5
108
  8
Layer_3
  10
-1405.4446
  20
-383.31787
  0
SEQEND
  0
CIRCLE
  5
10a
  8
Layer_2
  62
3
  10
-1370.6282
  20
-323.60095
  30
0
  40
1.5
  0
CIRCLE
  5
10a
  8
Layer_2
  62
3
  10
-1370.6282
  20
-263.60095
  30
0
  40
1.5
  0
CIRCLE
  5
10a
  8
Layer_2
  62
3
  10
-1370.6282
  20
-203.60095
  30
0
  40
1.5
  0
CIRCLE
  5
10a
  8
Layer_2
  62
3
  10
-1370.6282
  20
-373.60095
  30
0
  40
1.5
  0
POLYLINE
  5
10a
  8
Layer_3
  62
1
  66
1
  10
0
  20
0
  30
0
  0
VERTEX
  5
10a
  8
Layer_3
  10
-1205.4448
  20
-383.95386
  0
VERTEX
  5
10b
  8
Layer_3
  10
-1205.4448
  20
-187.20386
  42
0.41421376
  0
VERTEX
  5
10c
  8
Layer_3
  10
-1285.4448
  20
-107.20386
  0
VERTEX
  5
10d
  8
Layer_3
  10
-1325.4448
  20
-107.20386
  42
0.41421356
  0
VERTEX
  5
10e
  8
Layer_3
  10
-1405.4448
  20
-187.20386
  0
VERTEX
  5
10f
  8
Layer_3
  10
-1405.4448
  20
-383.95386
  0
VERTEX
  5
110
  8
Layer_3
  10
-1205.4448
  20
-383.95386
  0
SEQEND
  0
CIRCLE
  5
112
  8
Layer_2
  62
3
  10
-1268.0002
  20
-634.95294
  30
0
  40
2.5
  0
CIRCLE
  5
112
  8
Layer_2
  62
3
  10
-1268.0002
  20
-584.95294
  30
0
  40
2.5
  0
CIRCLE
  5
112
  8
Layer_2
  62
3
  10
-1268.0002
  20
-534.95294
  30
0
  40
2.5
  0
CIRCLE
  5
112
  8
Layer_2
  62
3
  10
-1268.0002
  20
-484.953
  30
0
  40
2.5
  0
CIRCLE
  5
112
  8
Layer_2
  62
3
  10
-1333.1832
  20
-906.45294
  30
0
  40
1.5
  0
CIRCLE
  5
112
  8
Layer_2
  62
3
  10
-1333.1832
  20
-856.45294
  30
0
  40
1.5
  0
CIRCLE
  5
112
  8
Layer_2
  62
3
  10
-1333.1832
  20
-806.45294
  30
0
  40
1.5
  0
POLYLINE
  5
112
  8
Layer_3
  62
1
  66
1
  10
0
  20
0
  30
0
  0
VERTEX
  5
112
  8
Layer_3
  10
-1368
  20
-938.45227
  0
VERTEX
  5
113
  8
Layer_3
  10
-1368
  20
-464.95221
  42
-0.41421346
  0
VERTEX
  5
114
  8
Layer_3
  10
-1288
  20
-384.95221
  0
VERTEX
  5
115
  8
Layer_3
  10
-1248
  20
-384.95221
  42
-0.41421356
  0
VERTEX
  5
116
  8
Layer_3
  10
-1168
  20
-464.95221
  0
VERTEX
  5
117
  8
Layer_3
  10
-1168
  20
-938.45227
  0
VERTEX
  5
118
  8
Layer_3
  10
-1368
  20
-938.45227
  0
SEQEND
  0
POLYLINE
  5
11a
  8
Layer_4
  62
52
  66
1
  10
0
  20
0
  30
0
  0
VERTEX
  5
11a
  8
Layer_4
  10
-1509.8911
  20
423.67035
  0
VERTEX
  5
11b
  8
Layer_4
  10
-1509.8911
  20
415.67035
  0
VERTEX
  5
11c
  8
Layer_4
  10
-1479.8911
  20
415.67035
  0
VERTEX
  5
11d
  8
Layer_4
  10
-1479.8911
  20
15.670319
  0
VERTEX
  5
11e
  8
Layer_4
  10
-1509.8911
  20
15.670319
  0
VERTEX
  5
11f
  8
Layer_4
  10
-1509.8911
  20
7.6703186
  0
VERTEX
  5
120
  8
Layer_4
  10
-1759.8911
  20
7.6703186
  0
VERTEX
  5
121
  8
Layer_4
  10
-1759.8911
  20
15.670319
  0
VERTEX
  5
122
  8
Layer_4
  10
-1891.8911
  20
15.670319
  0
VERTEX
  5
123
  8
Layer_4
  10
-1891.8911
  20
415.67035
  0
VERTEX
  5
124
  8
Layer_4
  10
-1759.8911
  20
415.67035
  0
VERTEX
  5
125
  8
Layer_4
  10
-1759.8911
  20
423.67035
  0
VERTEX
  5
126
  8
Layer_4
  10
-1509.8911
  20
423.67035
  0
SEQEND
  0
POLYLINE
  5
128
  8
Layer_4
  62
52
  66
1
  10
0
  20
0
  30
0
  0
VERTEX
  5
128
  8
Layer_4
  10
-1892.002
  20
423.67023
  0
VERTEX
  5
129
  8
Layer_4
  10
-1716.002
  20
423.67023
  0
VERTEX
  5
12a
  8
Layer_4
  10
-1716.002
  20
431.67023
  0
VERTEX
  5
12b
  8
Layer_4
  10
-1554.002
  20
431.67023
  0
VERTEX
  5
12c
  8
Layer_4
  10
-1554.002
  20
423.67023
  0
VERTEX
  5
12d
  8
Layer_4
  10
-1480.002
  20
423.67023
  0
VERTEX
  5
12e
  8
Layer_4
  10
-1480.002
  20
839.67023
  0
VERTEX
  5
12f
  8
Layer_4
  10
-1554.002
  20
839.67023
  0
VERTEX
  5
130
  8
Layer_4
  10
-1554.002
  20
831.67023
  0
VERTEX
  5
131
  8
Layer_4
  10
-1716.002
  20
831.67023
  0
VERTEX
  5
132
  8
Layer_4
  10
-1716.002
  20
839.67023
  0
VERTEX
  5
133
  8
Layer_4
  10
-1892.002
  20
839.67023
  0
VERTEX
  5
134
  8
Layer_4
  10
-1892.002
  20
423.67023
  0
SEQEND
  0
POLYLINE
  5
136
  8
Layer_4
  62
52
  66
1
  10
0
  20
0
  30
0
  0
VERTEX
  5
136
  8
Layer_4
  10
-1097.8911
  20
423.97736
  0
VERTEX
  5
137
  8
Layer_4
  10
-1097.8911
  20
415.97736
  0
VERTEX
  5
138
  8
Layer_4
  10
-1067.8911
  20
415.97736
  0
VERTEX
  5
139
  8
Layer_4
  10
-1067.8911
  20
15.977325
  0
VERTEX
  5
13a
  8
Layer_4
  10
-1097.8911
  20
15.977325
  0
VERTEX
  5
13b
  8
Layer_4
  10
-1097.8911
  20
7.9773254
  0
VERTEX
  5
13c
  8
Layer_4
  10
-1347.8911
  20
7.9773254
  0
VERTEX
  5
13d
  8
Layer_4
  10
-1347.8911
  20
15.977325
  0
VERTEX
  5
13e
  8
Layer_4
  10
-1479.8911
  20
15.977325
  0
VERTEX
  5
13f
  8
Layer_4
  10
-1479.8911
  20
415.97736
  0
VERTEX
  5
140
  8
Layer_4
  10
-1347.8911
  20
415.97736
  0
VERTEX
  5
141
  8
Layer_4
  10
-1347.8911
  20
423.97736
  0
VERTEX
  5
142
  8
Layer_4
  10
-1097.8911
  20
423.97736
  0
SEQEND
  0
POLYLINE
  5
144
  8
Layer_4
  62
52
  66
1
  10
0
  20
0
  30
0
  0
VERTEX
  5
144
  8
Layer_4
  10
-1348.0013
  20
841.47754
  0
VERTEX
  5
145
  8
Layer_4
  10
-1274.0013
  20
841.47754
  0
VERTEX
  5
146
  8
Layer_4
  10
-1274.0013
  20
425.47757
  0
VERTEX
  5
147
  8
Layer_4
  10
-1348.0013
  20
425.47757
  0
VERTEX
  5
148
  8
Layer_4
  10
-1348.0013
  20
433.47757
  0
VERTEX
  5
149
  8
Layer_4
  10
-1480.0013
  20
433.47757
  0
VERTEX
  5
14a
  8
Layer_4
  10
-1480.0013
  20
833.47754
  0
VERTEX
  5
14b
  8
Layer_4
  10
-1348.0013
  20
833.47754
  0
VERTEX
  5
14c
  8
Layer_4
  10
-1348.0013
  20
841.47754
  0
SEQEND
  0
POLYLINE
  5
14e
  8
Layer_4
  62
52
  66
1
  10
0
  20
0
  30
0
  0
VERTEX
  5
14e
  8
Layer_4
  10
-1274.0002
  20
425.99988
  0
VERTEX
  5
14f
  8
Layer_4
  10
-1098.0002
  20
425.99988
  0
VERTEX
  5
150
  8
Layer_4
  10
-1098.0002
  20
433.99988
  0
VERTEX
  5
151
  8
Layer_4
  10
-1068.0002
  20
433.99988
  0
VERTEX
  5
152
  8
Layer_4
  10
-1068.0002
  20
833.99988
  0
VERTEX
  5
153
  8
Layer_4
  10
-1098.0002
  20
833.99988
  0
VERTEX
  5
154
  8
Layer_4
  10
-1098.0002
  20
841.99988
  0
VERTEX
  5
155
  8
Layer_4
  10
-1274.0002
  20
841.99988
  0
VERTEX
  5
156
  8
Layer_4
  10
-1274.0002
  20
425.99988
  0
SEQEND
  0
POLYLINE
  5
158
  8
Layer_4
  62
52
  66
1
  10
0
  20
0
  30
0
  0
VERTEX
  5
158
  8
Layer_4
  10
-1095.7754
  20
901.99963
  0
VERTEX
  5
159
  8
Layer_4
  10
-1800.8838
  20
901.99963
  42
0.21342168
  0
VERTEX
  5
15a
  8
Layer_4
  10
-1860.5123
  20
875.33301
  42
0.29576295
  0
VERTEX
  5
15b
  8
Layer_4
  10
-1863.8625
  20
853.83472
  42
0.29576381
  0
VERTEX
  5
15c
  8
Layer_4
  10
-1845.6052
  20
841.99963
  0
VERTEX
  5
15d
  8
Layer_4
  10
-1155.7754
  20
841.99963
  42
-0.41421356
  0
VERTEX
  5
15e
  8
Layer_4
  10
-1095.7754
  20
901.99963
  0
SEQEND
  0
POLYLINE
  5
160
  8
Layer_4
  62
52
  66
1
  10
0
  20
0
  30
0
  0
VERTEX
  5
160
  8
Layer_4
  10
-1574.4868
  20
875.21155
  0
VERTEX
  5
161
  8
Layer_4
  10
-1574.4868
  20
859.21155
  0
VERTEX
  5
162
  8
Layer_4
  10
-1824.4868
  20
859.21155
  0
VERTEX
  5
163
  8
Layer_4
  10
-1824.4868
  20
875.21155
  0
VERTEX
  5
164
  8
Layer_4
  10
-1574.4868
  20
875.21155
  0
SEQEND
  0
POLYLINE
  5
166
  8
Layer_4
  62
52
  66
1
  10
0
  20
0
  30
0
  0
VERTEX
  5
166
  8
Layer_4
  10
-1162.4868
  20
875.21155
  0
VERTEX
  5
167
  8
Layer_4
  10
-1162.4868
  20
859.38086
  0
VERTEX
  5
168
  8
Layer_4
  10
-1412.4868
  20
859.38086
  0
VERTEX
  5
169
  8
Layer_4
  10
-1412.4868
  20
875.21155
  0
VERTEX
  5
16a
  8
Layer_4
  10
-1162.4868
  20
875.21155
  0
SEQEND
  0
CIRCLE
  5
16c
  8
Layer_5
  62
4
  10
-286.71667
  20
-358.70346
  30
0
  40
1.5
  0
CIRCLE
  5
16c
  8
Layer_5
  62
4
  10
-346.71667
  20
-358.70346
  30
0
  40
1.5
  0
CIRCLE
  5
16c
  8
Layer_5
  62
4
  10
-406.71667
  20
-358.70346
  30
0
  40
1.5
  0
CIRCLE
  5
16c
  8
Layer_5
  62
4
  10
-456.71667
  20
-358.70346
  30
0
  40
1.5
  0
CIRCLE
  5
16c
  8
Layer_5
  62
4
  10
-675.81964
  20
-358.70346
  30
0
  40
1.5
  0
CIRCLE
  5
16c
  8
Layer_5
  62
4
  10
-725.81964
  20
-358.70346
  30
0
  40
1.5
  0
CIRCLE
  5
16c
  8
Layer_5
  62
4
  10
-775.81964
  20
-358.70346
  30
0
  40
1.5
  0
CIRCLE
  5
16c
  8
Layer_5
  62
4
  10
-825.81964
  20
-358.70346
  30
0
  40
1.5
  0
CIRCLE
  5
16c
  8
Layer_5
  62
4
  10
-875.81964
  20
-358.70346
  30
0
  40
1.5
  0
POLYLINE
  5
16c
  8
Layer_6
  62
30
  66
1
  10
0
  20
0
  30
0
  0
VERTEX
  5
16c
  8
Layer_6
  10
-210.69092
  20
-350.55325
  42
-0.29576295
  0
VERTEX
  5
16d
  8
Layer_6
  10
-207.34064
  20
-372.05157
  42
-0.29576381
  0
VERTEX
  5
16e
  8
Layer_6
  10
-225.59805
  20
-383.8866
  0
VERTEX
  5
16f
  8
Layer_6
  10
-915.42786
  20
-383.8866
  42
0.41421356
  0
VERTEX
  5
170
  8
Layer_6
  10
-975.42786
  20
-323.8866
  0
VERTEX
  5
171
  8
Layer_6
  10
-270.31943
  20
-323.8866
  42
-0.21342142
  0
VERTEX
  5
172
  8
Layer_6
  10
-210.69092
  20
-350.55325
  0
SEQEND
  0
POLYLINE
  5
174
  8
Layer_6
  62
30
  66
1
  10
0
  20
0
  30
0
  0
VERTEX
  5
174
  8
Layer_6
  10
-221.34113
  20
-160.99283
  0
VERTEX
  5
175
  8
Layer_6
  10
-926.44952
  20
-160.99283
  42
0.21342168
  0
VERTEX
  5
176
  8
Layer_6
  10
-986.078
  20
-187.65948
  42
0.29576295
  0
VERTEX
  5
177
  8
Layer_6
  10
-989.42828
  20
-209.15781
  42
0.29576381
  0
VERTEX
  5
178
  8
Layer_6
  10
-971.1709
  20
-220.99283
  0
VERTEX
  5
179
  8
Layer_6
  10
-281.34113
  20
-220.99283
  42
-0.41421356
  0
VERTEX
  5
17a
  8
Layer_6
  10
-221.34113
  20
-160.99283
  0
SEQEND
  0
POLYLINE
  5
17c
  8
Layer_6
  62
30
  66
1
  10
0
  20
0
  30
0
  0
VERTEX
  5
17c
  8
Layer_6
  10
-700.05255
  20
-187.78094
  0
VERTEX
  5
17d
  8
Layer_6
  10
-700.05255
  20
-203.78094
  0
VERTEX
  5
17e
  8
Layer_6
  10
-950.05255
  20
-203.78094
  0
VERTEX
  5
17f
  8
Layer_6
  10
-950.05255
  20
-187.78094
  0
VERTEX
  5
180
  8
Layer_6
  10
-700.05255
  20
-187.78094
  0
SEQEND
  0
POLYLINE
  5
182
  8
Layer_6
  62
30
  66
1
  10
0
  20
0
  30
0
  0
VERTEX
  5
182
  8
Layer_6
  10
-288.05255
  20
-187.78094
  0
VERTEX
  5
183
  8
Layer_6
  10
-288.05255
  20
-203.61163
  0
VERTEX
  5
184
  8
Layer_6
  10
-538.05255
  20
-203.61163
  0
VERTEX
  5
185
  8
Layer_6
  10
-538.05255
  20
-187.78094
  0
VERTEX
  5
186
  8
Layer_6
  10
-288.05255
  20
-187.78094
  0
SEQEND
  0
CIRCLE
  5
188
  8
Layer_5
  62
4
  10
-441.81689
  20
-618.13623
  30
0
  40
1.5
  0
CIRCLE
  5
188
  8
Layer_5
  62
4
  10
-441.81689
  20
-668.13623
  30
0
  40
1.5
  0
CIRCLE
  5
188
  8
Layer_5
  62
4
  10
-441.81689
  20
-718.13623
  30
0
  40
1.5
  0
CIRCLE
  5
188
  8
Layer_5
  62
4
  10
-441.81689
  20
-768.13623
  30
0
  40
1.5
  0
CIRCLE
  5
188
  8
Layer_5
  62
4
  10
-441.81689
  20
-818.13623
  30
0
  40
1.5
  0
POLYLINE
  5
188
  8
Layer_6
  62
30
  66
1
  10
0
  20
0
  30
0
  0
VERTEX
  5
188
  8
Layer_6
  10
-606.99988
  20
-962.88635
  0
VERTEX
  5
189
  8
Layer_6
  10
-606.99988
  20
-409.38629
  0
VERTEX
  5
18a
  8
Layer_6
  10
-406.99988
  20
-409.38632
  0
VERTEX
  5
18b
  8
Layer_6
  10
-406.99988
  20
-962.88635
  0
VERTEX
  5
18c
  8
Layer_6
  10
-606.99988
  20
-962.88635
  0
SEQEND
  0
CIRCLE
  5
18e
  8
Layer_5
  62
4
  10
-241.81702
  20
-617.70923
  30
0
  40
1.5
  0
CIRCLE
  5
18e
  8
Layer_5
  62
4
  10
-241.81702
  20
-667.70923
  30
0
  40
1.5
  0
CIRCLE
  5
18e
  8
Layer_5
  62
4
  10
-241.81702
  20
-717.70923
  30
0
  40
1.5
  0
CIRCLE
  5
18e
  8
Layer_5
  62
4
  10
-241.81702
  20
-767.70923
  30
0
  40
1.5
  0
CIRCLE
  5
18e
  8
Layer_5
  62
4
  10
-241.81702
  20
-817.70923
  30
0
  40
1.5
  0
POLYLINE
  5
18e
  8
Layer_6
  62
30
  66
1
  10
0
  20
0
  30
0
  0
VERTEX
  5
18e
  8
Layer_6
  10
-407.00003
  20
-962.45935
  0
VERTEX
  5
18f
  8
Layer_6
  10
-407
  20
-408.95929
  0
VERTEX
  5
190
  8
Layer_6
  10
-207
  20
-408.95932
  0
VERTEX
  5
191
  8
Layer_6
  10
-207
  20
-962.45935
  0
VERTEX
  5
192
  8
Layer_6
  10
-407.00003
  20
-962.45935
  0
SEQEND
  0
CIRCLE
  5
194
  8
Layer_5
  62
4
  10
-302.4696
  20
-298.70309
  30
0
  40
1.5
  0
CIRCLE
  5
194
  8
Layer_5
  62
4
  10
-362.4696
  20
-298.70309
  30
0
  40
1.5
  0
CIRCLE
  5
194
  8
Layer_5
  62
4
  10
-422.4696
  20
-298.70309
  30
0
  40
1.5
  0
CIRCLE
  5
194
  8
Layer_5
  62
4
  10
-472.4696
  20
-298.70309
  30
0
  40
1.5
  0
CIRCLE
  5
194
  8
Layer_5
  62
4
  10
-691.57257
  20
-298.70309
  30
0
  40
1.5
  0
CIRCLE
  5
194
  8
Layer_5
  62
4
  10
-741.57257
  20
-298.70309
  30
0
  40
1.5
  0
CIRCLE
  5
194
  8
Layer_5
  62
4
  10
-791.57257
  20
-298.70309
  30
0
  40
1.5
  0
CIRCLE
  5
194
  8
Layer_5
  62
4
  10
-841.57257
  20
-298.70309
  30
0
  40
1.5
  0
CIRCLE
  5
194
  8
Layer_5
  62
4
  10
-891.57257
  20
-298.70309
  30
0
  40
1.5
  0
POLYLINE
  5
194
  8
Layer_6
  62
30
  66
1
  10
0
  20
0
  30
0
  0
VERTEX
  5
194
  8
Layer_6
  10
-226.44385
  20
-290.55289
  42
-0.29576295
  0
VERTEX
  5
195
  8
Layer_6
  10
-223.09357
  20
-312.05121
  42
-0.29576381
  0
VERTEX
  5
196
  8
Layer_6
  10
-241.35098
  20
-323.88623
  0
VERTEX
  5
197
  8
Layer_6
  10
-931.18079
  20
-323.88623
  42
0.41421356
  0
VERTEX
  5
198
  8
Layer_6
  10
-991.18079
  20
-263.88623
  0
VERTEX
  5
199
  8
Layer_6
  10
-286.07236
  20
-263.88623
  42
-0.21342142
  0
VERTEX
  5
19a
  8
Layer_6
  10
-226.44385
  20
-290.55289
  0
SEQEND
  0
CIRCLE
  5
19c
  8
Layer_5
  62
4
  10
-972.18298
  20
-504.89926
  30
0
  40
1.5
  0
CIRCLE
  5
19c
  8
Layer_5
  62
4
  10
-972.18298
  20
-564.89929
  30
0
  40
1.5
  0
CIRCLE
  5
19c
  8
Layer_5
  62
4
  10
-972.18298
  20
-624.89923
  30
0
  40
1.5
  0
CIRCLE
  5
19c
  8
Layer_5
  62
4
  10
-972.18298
  20
-674.89923
  30
0
  40
1.5
  0
CIRCLE
  5
19c
  8
Layer_5
  62
4
  10
-972.18298
  20
-894.00226
  30
0
  40
1.5
  0
CIRCLE
  5
19c
  8
Layer_5
  62
4
  10
-972.18298
  20
-944.00226
  30
0
  40
1.5
  0
POLYLINE
  5
19c
  8
Layer_6
  62
30
  66
1
  10
0
  20
0
  30
0
  0
VERTEX
  5
19c
  8
Layer_6
  10
-1006.9998
  20
-488.50235
  42
-0.41421356
  0
VERTEX
  5
19d
  8
Layer_6
  10
-926.99982
  20
-408.50235
  0
VERTEX
  5
19e
  8
Layer_6
  10
-886.99982
  20
-408.50235
  42
-0.41421356
  0
VERTEX
  5
19f
  8
Layer_6
  10
-806.99982
  20
-488.50235
  0
VERTEX
  5
1a0
  8
Layer_6
  10
-806.99982
  20
-962.00232
  0
VERTEX
  5
1a1
  8
Layer_6
  10
-1006.9999
  20
-962.00232
  0
VERTEX
  5
1a2
  8
Layer_6
  10
-1006.9998
  20
-488.50235
  0
SEQEND
  0
CIRCLE
  5
1a4
  8
Layer_5
  62
4
  10
-772.18292
  20
-505.35825
  30
0
  40
1.5
  0
CIRCLE
  5
1a4
  8
Layer_5
  62
4
  10
-772.18292
  20
-565.35425
  30
0
  40
1.5
  0
CIRCLE
  5
1a4
  8
Layer_5
  62
4
  10
-772.18292
  20
-625.35425
  30
0
  40
1.5
  0
CIRCLE
  5
1a4
  8
Layer_5
  62
4
  10
-772.18292
  20
-675.35425
  30
0
  40
1.5
  0
CIRCLE
  5
1a4
  8
Layer_5
  62
4
  10
-772.18292
  20
-894.46405
  30
0
  40
1.5
  0
CIRCLE
  5
1a4
  8
Layer_5
  62
4
  10
-772.18292
  20
-944.46405
  30
0
  40
1.5
  0
POLYLINE
  5
1a4
  8
Layer_6
  62
30
  66
1
  10
0
  20
0
  30
0
  0
VERTEX
  5
1a4
  8
Layer_6
  10
-806.99957
  20
-488.96365
  42
-0.41421356
  0
VERTEX
  5
1a5
  8
Layer_6
  10
-726.99957
  20
-408.96365
  0
VERTEX
  5
1a6
  8
Layer_6
  10
-686.99957
  20
-408.96365
  42
-0.41421356
  0
VERTEX
  5
1a7
  8
Layer_6
  10
-606.99957
  20
-488.96365
  0
VERTEX
  5
1a8
  8
Layer_6
  10
-606.99957
  20
-962.46362
  0
VERTEX
  5
1a9
  8
Layer_6
  10
-806.99963
  20
-962.46362
  0
VERTEX
  5
1aa
  8
Layer_6
  10
-806.99957
  20
-488.96365
  0
SEQEND
  0
ENDSEC
  0
EOF
