  0
SECTION
  2
HEADER
  9
$ACADVER
  1
AC1027
  9
$ACADMAINTVER
 70
     8
  9
$DWGCODEPAGE
  3
ANSI_1252
  9
$LASTSAVEDBY
  1
imac
  9
$REQUIREDVERSIONS
160
                 0
  9
$INSBASE
 10
0.0
 20
0.0
 30
0.0
  9
$EXTMIN
 10
187.2814758911136
 20
279.9622116088867
 30
0.0
  9
$EXTMAX
 10
394.1995315551758
 20
487.1112821277566
 30
0.0
  9
$LIMMIN
 10
0.0
 20
0.0
  9
$LIMMAX
 10
12.0
 20
9.0
  9
$ORTHOMODE
 70
     0
  9
$REGENMODE
 70
     1
  9
$FILLMODE
 70
     1
  9
$QTEXTMODE
 70
     0
  9
$MIRRTEXT
 70
     1
  9
$LTSCALE
 40
1.0
  9
$ATTMODE
 70
     1
  9
$TEXTSIZE
 40
0.2
  9
$TRACEWID
 40
0.05
  9
$TEXTSTYLE
  7
Standard
  9
$CLAYER
  8
0
  9
$CELTYPE
  6
ByLayer
  9
$CECOLOR
 62
   256
  9
$CELTSCALE
 40
1.0
  9
$DISPSILH
 70
     0
  9
$DIMSCALE
 40
1.0
  9
$DIMASZ
 40
0.18
  9
$DIMEXO
 40
0.0625
  9
$DIMDLI
 40
0.38
  9
$DIMRND
 40
0.0
  9
$DIMDLE
 40
0.0
  9
$DIMEXE
 40
0.18
  9
$DIMTP
 40
0.0
  9
$DIMTM
 40
0.0
  9
$DIMTXT
 40
0.18
  9
$DIMCEN
 40
0.09
  9
$DIMTSZ
 40
0.0
  9
$DIMTOL
 70
     0
  9
$DIMLIM
 70
     0
  9
$DIMTIH
 70
     1
  9
$DIMTOH
 70
     1
  9
$DIMSE1
 70
     0
  9
$DIMSE2
 70
     0
  9
$DIMTAD
 70
     0
  9
$DIMZIN
 70
     0
  9
$DIMBLK
  1

  9
$DIMASO
 70
     1
  9
$DIMSHO
 70
     1
  9
$DIMPOST
  1

  9
$DIMAPOST
  1

  9
$DIMALT
 70
     0
  9
$DIMALTD
 70
     2
  9
$DIMALTF
 40
25.4
  9
$DIMLFAC
 40
1.0
  9
$DIMTOFL
 70
     0
  9
$DIMTVP
 40
0.0
  9
$DIMTIX
 70
     0
  9
$DIMSOXD
 70
     0
  9
$DIMSAH
 70
     0
  9
$DIMBLK1
  1

  9
$DIMBLK2
  1

  9
$DIMSTYLE
  2
Standard
  9
$DIMCLRD
 70
     0
  9
$DIMCLRE
 70
     0
  9
$DIMCLRT
 70
     0
  9
$DIMTFAC
 40
1.0
  9
$DIMGAP
 40
0.09
  9
$DIMJUST
 70
     0
  9
$DIMSD1
 70
     0
  9
$DIMSD2
 70
     0
  9
$DIMTOLJ
 70
     1
  9
$DIMTZIN
 70
     0
  9
$DIMALTZ
 70
     0
  9
$DIMALTTZ
 70
     0
  9
$DIMUPT
 70
     0
  9
$DIMDEC
 70
     4
  9
$DIMTDEC
 70
     4
  9
$DIMALTU
 70
     2
  9
$DIMALTTD
 70
     2
  9
$DIMTXSTY
  7
Standard
  9
$DIMAUNIT
 70
     0
  9
$DIMADEC
 70
     0
  9
$DIMALTRND
 40
0.0
  9
$DIMAZIN
 70
     0
  9
$DIMDSEP
 70
    46
  9
$DIMATFIT
 70
     3
  9
$DIMFRAC
 70
     0
  9
$DIMLDRBLK
  1

  9
$DIMLUNIT
 70
     2
  9
$DIMLWD
 70
    -2
  9
$DIMLWE
 70
    -2
  9
$DIMTMOVE
 70
     0
  9
$DIMFXL
 40
1.0
  9
$DIMFXLON
 70
     0
  9
$DIMJOGANG
 40
0.7853981633974483
  9
$DIMTFILL
 70
     0
  9
$DIMTFILLCLR
 70
     0
  9
$DIMARCSYM
 70
     0
  9
$DIMLTYPE
  6

  9
$DIMLTEX1
  6

  9
$DIMLTEX2
  6

  9
$DIMTXTDIRECTION
 70
     0
  9
$LUNITS
 70
     2
  9
$LUPREC
 70
     4
  9
$SKETCHINC
 40
0.1
  9
$FILLETRAD
 40
0.5
  9
$AUNITS
 70
     0
  9
$AUPREC
 70
     0
  9
$MENU
  1
.
  9
$ELEVATION
 40
0.0
  9
$PELEVATION
 40
0.0
  9
$THICKNESS
 40
0.0
  9
$LIMCHECK
 70
     0
  9
$CHAMFERA
 40
0.5
  9
$CHAMFERB
 40
0.5
  9
$CHAMFERC
 40
1.0
  9
$CHAMFERD
 40
0.0
  9
$SKPOLY
 70
     0
  9
$TDCREATE
 40
2456968.668912037
  9
$TDUCREATE
 40
2456968.627245371
  9
$TDUPDATE
 40
2457434.703446238
  9
$TDUUPDATE
 40
2457434.661779572
  9
$TDINDWG
 40
0.0002321065
  9
$TDUSRTIMER
 40
0.0002321065
  9
$USRTIMER
 70
     1
  9
$ANGBASE
 50
0.0
  9
$ANGDIR
 70
     0
  9
$PDMODE
 70
     0
  9
$PDSIZE
 40
0.0
  9
$PLINEWID
 40
0.0
  9
$SPLFRAME
 70
     0
  9
$SPLINETYPE
 70
     6
  9
$SPLINESEGS
 70
     8
  9
$HANDSEED
  5
210
  9
$SURFTAB1
 70
     6
  9
$SURFTAB2
 70
     6
  9
$SURFTYPE
 70
     6
  9
$SURFU
 70
     6
  9
$SURFV
 70
     6
  9
$UCSBASE
  2

  9
$UCSNAME
  2

  9
$UCSORG
 10
0.0
 20
0.0
 30
0.0
  9
$UCSXDIR
 10
1.0
 20
0.0
 30
0.0
  9
$UCSYDIR
 10
0.0
 20
1.0
 30
0.0
  9
$UCSORTHOREF
  2

  9
$UCSORTHOVIEW
 70
     0
  9
$UCSORGTOP
 10
0.0
 20
0.0
 30
0.0
  9
$UCSORGBOTTOM
 10
0.0
 20
0.0
 30
0.0
  9
$UCSORGLEFT
 10
0.0
 20
0.0
 30
0.0
  9
$UCSORGRIGHT
 10
0.0
 20
0.0
 30
0.0
  9
$UCSORGFRONT
 10
0.0
 20
0.0
 30
0.0
  9
$UCSORGBACK
 10
0.0
 20
0.0
 30
0.0
  9
$PUCSBASE
  2

  9
$PUCSNAME
  2

  9
$PUCSORG
 10
0.0
 20
0.0
 30
0.0
  9
$PUCSXDIR
 10
1.0
 20
0.0
 30
0.0
  9
$PUCSYDIR
 10
0.0
 20
1.0
 30
0.0
  9
$PUCSORTHOREF
  2

  9
$PUCSORTHOVIEW
 70
     0
  9
$PUCSORGTOP
 10
0.0
 20
0.0
 30
0.0
  9
$PUCSORGBOTTOM
 10
0.0
 20
0.0
 30
0.0
  9
$PUCSORGLEFT
 10
0.0
 20
0.0
 30
0.0
  9
$PUCSORGRIGHT
 10
0.0
 20
0.0
 30
0.0
  9
$PUCSORGFRONT
 10
0.0
 20
0.0
 30
0.0
  9
$PUCSORGBACK
 10
0.0
 20
0.0
 30
0.0
  9
$USERI1
 70
     0
  9
$USERI2
 70
     0
  9
$USERI3
 70
     0
  9
$USERI4
 70
     0
  9
$USERI5
 70
     0
  9
$USERR1
 40
0.0
  9
$USERR2
 40
0.0
  9
$USERR3
 40
0.0
  9
$USERR4
 40
0.0
  9
$USERR5
 40
0.0
  9
$WORLDVIEW
 70
     1
  9
$SHADEDGE
 70
     3
  9
$SHADEDIF
 70
    70
  9
$TILEMODE
 70
     1
  9
$MAXACTVP
 70
    64
  9
$PINSBASE
 10
0.0
 20
0.0
 30
0.0
  9
$PLIMCHECK
 70
     0
  9
$PEXTMIN
 10
1.000000000000000E+20
 20
1.000000000000000E+20
 30
1.000000000000000E+20
  9
$PEXTMAX
 10
-1.000000000000000E+20
 20
-1.000000000000000E+20
 30
-1.000000000000000E+20
  9
$PLIMMIN
 10
0.0
 20
0.0
  9
$PLIMMAX
 10
12.0
 20
9.0
  9
$UNITMODE
 70
     0
  9
$VISRETAIN
 70
     1
  9
$PLINEGEN
 70
     0
  9
$PSLTSCALE
 70
     1
  9
$TREEDEPTH
 70
  3020
  9
$CMLSTYLE
  2
Standard
  9
$CMLJUST
 70
     0
  9
$CMLSCALE
 40
1.0
  9
$PROXYGRAPHICS
 70
     1
  9
$MEASUREMENT
 70
     0
  9
$CELWEIGHT
370
    -1
  9
$ENDCAPS
280
     0
  9
$JOINSTYLE
280
     0
  9
$LWDISPLAY
290
     1
  9
$INSUNITS
 70
     1
  9
$HYPERLINKBASE
  1

  9
$STYLESHEET
  1

  9
$XEDIT
290
     1
  9
$CEPSNTYPE
380
     0
  9
$PSTYLEMODE
290
     1
  9
$FINGERPRINTGUID
  2
{B9D69D10-AA77-4A66-37C8-2B3A690D78E2}
  9
$VERSIONGUID
  2
{F374C633-49F6-274C-A1E1-34B90AF03561}
  9
$EXTNAMES
290
     1
  9
$PSVPSCALE
 40
0.0
  9
$OLESTARTUP
290
     0
  9
$SORTENTS
280
   127
  9
$INDEXCTL
280
     0
  9
$HIDETEXT
280
     1
  9
$XCLIPFRAME
280
     2
  9
$HALOGAP
280
     0
  9
$OBSCOLOR
 70
   257
  9
$OBSLTYPE
280
     0
  9
$INTERSECTIONDISPLAY
280
     0
  9
$INTERSECTIONCOLOR
 70
   257
  9
$DIMASSOC
280
     2
  9
$PROJECTNAME
  1

  9
$CAMERADISPLAY
290
     0
  9
$LENSLENGTH
 40
50.0
  9
$CAMERAHEIGHT
 40
0.0
  9
$STEPSPERSEC
 40
2.0
  9
$STEPSIZE
 40
6.0
  9
$3DDWFPREC
 40
2.0
  9
$PSOLWIDTH
 40
0.25
  9
$PSOLHEIGHT
 40
4.0
  9
$LOFTANG1
 40
1.570796326794896
  9
$LOFTANG2
 40
1.570796326794896
  9
$LOFTMAG1
 40
0.0
  9
$LOFTMAG2
 40
0.0
  9
$LOFTPARAM
 70
     7
  9
$LOFTNORMALS
280
     1
  9
$LATITUDE
 40
37.795
  9
$LONGITUDE
 40
-122.394
  9
$NORTHDIRECTION
 40
0.0
  9
$TIMEZONE
 70
 -8000
  9
$LIGHTGLYPHDISPLAY
280
     1
  9
$TILEMODELIGHTSYNCH
280
     1
  9
$CMATERIAL
347
3C
  9
$SOLIDHIST
280
     1
  9
$SHOWHIST
280
     1
  9
$DWFFRAME
280
     2
  9
$DGNFRAME
280
     2
  9
$REALWORLDSCALE
290
     1
  9
$INTERFERECOLOR
 62
   256
  9
$INTERFEREOBJVS
345
33
  9
$INTERFEREVPVS
346
1D5
  9
$CSHADOW
280
     0
  9
$SHADOWPLANELOCATION
 40
0.0
  0
ENDSEC
  0
SECTION
  2
CLASSES
  0
CLASS
  1
ACDBDICTIONARYWDFLT
  2
AcDbDictionaryWithDefault
  3
ObjectDBX Classes
 90
        0
 91
        1
280
     0
281
     0
  0
CLASS
  1
VISUALSTYLE
  2
AcDbVisualStyle
  3
ObjectDBX Classes
 90
     4095
 91
       26
280
     0
281
     0
  0
CLASS
  1
MATERIAL
  2
AcDbMaterial
  3
ObjectDBX Classes
 90
     1153
 91
        3
280
     0
281
     0
  0
CLASS
  1
SUN
  2
AcDbSun
  3
SCENEOE
 90
     1153
 91
        1
280
     0
281
     0
  0
CLASS
  1
TABLESTYLE
  2
AcDbTableStyle
  3
ObjectDBX Classes
 90
     4095
 91
        1
280
     0
281
     0
  0
CLASS
  1
SCALE
  2
AcDbScale
  3
ObjectDBX Classes
 90
     1153
 91
       17
280
     0
281
     0
  0
CLASS
  1
MLEADERSTYLE
  2
AcDbMLeaderStyle
  3
ACDB_MLEADERSTYLE_CLASS
 90
     4095
 91
        1
280
     0
281
     0
  0
CLASS
  1
ACDBSECTIONVIEWSTYLE
  2
AcDbSectionViewStyle
  3
ObjectDBX Classes
 90
     1025
 91
        1
280
     0
281
     0
  0
CLASS
  1
ACDBDETAILVIEWSTYLE
  2
AcDbDetailViewStyle
  3
ObjectDBX Classes
 90
     1025
 91
        1
280
     0
281
     0
  0
CLASS
  1
DICTIONARYVAR
  2
AcDbDictionaryVar
  3
ObjectDBX Classes
 90
        0
 91
        5
280
     0
281
     0
  0
CLASS
  1
CELLSTYLEMAP
  2
AcDbCellStyleMap
  3
ObjectDBX Classes
 90
     1152
 91
        1
280
     0
281
     0
  0
ENDSEC
  0
SECTION
  2
TABLES
  0
TABLE
  2
VPORT
  5
8
330
0
100
AcDbSymbolTable
 70
     1
  0
VPORT
  5
29
330
8
100
AcDbSymbolTableRecord
100
AcDbViewportTableRecord
  2
*Active
 70
     0
 10
0.0
 20
0.0
 11
1.0
 21
1.0
 12
1.855558744747895
 22
-28.49215973959523
 13
0.0
 23
0.0
 14
0.5
 24
0.5
 15
0.5
 25
0.5
 16
0.0
 26
0.0
 36
1.0
 17
288.0
 27
384.0
 37
0.0
 40
121.7961866984111
 41
1.655310621242485
 42
50.0
 43
0.0
 44
0.0
 50
0.0
 51
0.0
 71
     0
 72
   100
 73
     1
 74
     3
 75
     0
 76
     0
 77
     0
 78
     0
281
     0
 65
     1
110
0.0
120
0.0
130
0.0
111
1.0
121
0.0
131
0.0
112
0.0
122
1.0
132
0.0
 79
     0
146
0.0
348
2F
 60
     3
 61
     5
292
     1
282
     1
141
0.0
142
0.0
 63
   250
361
3F
1001
ACAD_NAV_VCDISPLAY
1070
     3
  0
ENDTAB
  0
TABLE
  2
LTYPE
  5
5
330
0
100
AcDbSymbolTable
 70
     2
  0
LTYPE
  5
14
330
5
100
AcDbSymbolTableRecord
100
AcDbLinetypeTableRecord
  2
ByBlock
 70
     0
  3

 72
    65
 73
     0
 40
0.0
  0
LTYPE
  5
15
330
5
100
AcDbSymbolTableRecord
100
AcDbLinetypeTableRecord
  2
ByLayer
 70
     0
  3

 72
    65
 73
     0
 40
0.0
  0
LTYPE
  5
16
330
5
100
AcDbSymbolTableRecord
100
AcDbLinetypeTableRecord
  2
Continuous
 70
     0
  3
Solid line
 72
    65
 73
     0
 40
0.0
  0
LTYPE
  5
1F5
330
5
100
AcDbSymbolTableRecord
100
AcDbLinetypeTableRecord
  2
PHANTOM2
 70
     0
  3
Phantom (.5x) ___ _ _ ___ _ _ ___ _ _ ___ _ _
 72
    65
 73
     6
 40
1.25
 49
0.625
 74
     0
 49
-0.125
 74
     0
 49
0.125
 74
     0
 49
-0.125
 74
     0
 49
0.125
 74
     0
 49
-0.125
 74
     0
  0
ENDTAB
  0
TABLE
  2
LAYER
  5
2
102
{ACAD_XDICTIONARY
360
200
102
}
330
0
100
AcDbSymbolTable
 70
     2
  0
LAYER
  5
10
330
2
100
AcDbSymbolTableRecord
100
AcDbLayerTableRecord
  2
0
 70
     0
 62
     7
  6
Continuous
370
    -3
390
F
347
3E
348
0
  0
LAYER
  5
40
330
2
100
AcDbSymbolTableRecord
100
AcDbLayerTableRecord
  2
Linee visibili 2D
 70
     0
 62
     7
  6
Continuous
370
    -3
390
F
347
3E
348
0
  0
ENDTAB
  0
TABLE
  2
STYLE
  5
3
330
0
100
AcDbSymbolTable
 70
     1
  0
STYLE
  5
11
330
3
100
AcDbSymbolTableRecord
100
AcDbTextStyleTableRecord
  2
Standard
 70
     0
 40
0.0
 41
1.0
 50
0.0
 71
     0
 42
0.2
  3
txt
  4

  0
ENDTAB
  0
TABLE
  2
VIEW
  5
6
330
0
100
AcDbSymbolTable
 70
     1
  0
ENDTAB
  0
TABLE
  2
UCS
  5
7
330
0
100
AcDbSymbolTable
 70
     0
  0
ENDTAB
  0
TABLE
  2
APPID
  5
9
330
0
100
AcDbSymbolTable
 70
     2
  0
APPID
  5
12
330
9
100
AcDbSymbolTableRecord
100
AcDbRegAppTableRecord
  2
ACAD
 70
     0
  0
APPID
  5
20C
330
9
100
AcDbSymbolTableRecord
100
AcDbRegAppTableRecord
  2
ACAD_NAV_VCDISPLAY
 70
     0
  0
ENDTAB
  0
TABLE
  2
DIMSTYLE
  5
A
330
0
100
AcDbSymbolTable
 70
     1
100
AcDbDimStyleTable
 71
     0
  0
DIMSTYLE
105
27
330
A
100
AcDbSymbolTableRecord
100
AcDbDimStyleTableRecord
  2
Standard
 70
     0
340
11
  0
ENDTAB
  0
TABLE
  2
BLOCK_RECORD
  5
1
330
0
100
AcDbSymbolTable
 70
     1
  0
BLOCK_RECORD
  5
1F
330
1
100
AcDbSymbolTableRecord
100
AcDbBlockTableRecord
  2
*Model_Space
340
22
 70
     0
280
     1
281
     0
  0
BLOCK_RECORD
  5
1B
330
1
100
AcDbSymbolTableRecord
100
AcDbBlockTableRecord
  2
*Paper_Space
340
1E
 70
     0
280
     1
281
     0
  0
BLOCK_RECORD
  5
23
330
1
100
AcDbSymbolTableRecord
100
AcDbBlockTableRecord
  2
*Paper_Space0
340
26
 70
     0
280
     1
281
     0
  0
ENDTAB
  0
ENDSEC
  0
SECTION
  2
BLOCKS
  0
BLOCK
  5
20
330
1F
100
AcDbEntity
  8
0
100
AcDbBlockBegin
  2
*Model_Space
 70
     0
 10
0.0
 20
0.0
 30
0.0
  3
*Model_Space
  1

  0
ENDBLK
  5
21
330
1F
100
AcDbEntity
  8
0
100
AcDbBlockEnd
  0
BLOCK
  5
1C
330
1B
100
AcDbEntity
 67
     1
  8
0
100
AcDbBlockBegin
  2
*Paper_Space
 70
     0
 10
0.0
 20
0.0
 30
0.0
  3
*Paper_Space
  1

  0
ENDBLK
  5
1D
330
1B
100
AcDbEntity
 67
     1
  8
0
100
AcDbBlockEnd
  0
BLOCK
  5
24
330
23
100
AcDbEntity
 67
     1
  8
0
100
AcDbBlockBegin
  2
*Paper_Space0
 70
     0
 10
0.0
 20
0.0
 30
0.0
  3
*Paper_Space0
  1

  0
ENDBLK
  5
25
330
23
100
AcDbEntity
 67
     1
  8
0
100
AcDbBlockEnd
  0
ENDSEC
  0
SECTION
  2
ENTITIES
  0
SPLINE
  5
41
330
1F
100
AcDbEntity
  8
Linee visibili 2D
 62
     7
420
 16777215
370
     9
100
AcDbSpline
210
0.0
220
0.0
230
1.0
 70
     8
 71
     3
 72
     8
 73
     4
 74
     0
 42
0.0000000001
 43
0.0000000001
 40
0.0
 40
0.0
 40
0.0
 40
0.0
 40
1.0
 40
1.0
 40
1.0
 40
1.0
 10
301.7921603031209
 20
464.2621958618165
 30
0.0
 10
301.7394603044522
 20
464.186982706873
 30
0.0
 10
301.7843603033179
 20
464.076582709662
 30
0.0
 10
301.8819603008524
 20
464.076582709662
 30
0.0
  0
SPLINE
  5
42
330
1F
100
AcDbEntity
  8
Linee visibili 2D
 62
     7
420
 16777215
370
     9
100
AcDbSpline
210
0.0
220
0.0
230
1.0
 70
     8
 71
     3
 72
     8
 73
     4
 74
     0
 42
0.0000000001
 43
0.0000000001
 40
0.0
 40
0.0
 40
0.0
 40
0.0
 40
1.0
 40
1.0
 40
1.0
 40
1.0
 10
301.8819603008524
 20
470.3124825521299
 30
0.0
 10
301.7853603032927
 20
470.3124825521299
 30
0.0
 10
301.7394603044522
 20
470.2015825549315
 30
0.0
 10
301.7921603031209
 20
470.1268825568186
 30
0.0
  0
POLYLINE
  5
43
330
1F
100
AcDbEntity
  8
Linee visibili 2D
 62
     7
420
 16777215
370
     9
100
AcDb2dPolyline
 66
     1
 10
0.0
 20
0.0
 30
0.0
  0
VERTEX
  5
44
330
43
100
AcDbEntity
  8
Linee visibili 2D
 62
     7
420
 16777215
370
     9
100
AcDbVertex
100
AcDb2dVertex
 10
301.8819603008524
 20
464.076582709662
 30
0.0
  0
VERTEX
  5
45
330
43
100
AcDbEntity
  8
Linee visibili 2D
 62
     7
420
 16777215
370
     9
100
AcDbVertex
100
AcDb2dVertex
 10
307.7774601519195
 20
464.076582709662
 30
0.0
  0
SEQEND
  5
46
330
43
100
AcDbEntity
  8
Linee visibili 2D
 62
     7
420
 16777215
370
     9
  0
POLYLINE
  5
47
330
1F
100
AcDbEntity
  8
Linee visibili 2D
 62
     7
420
 16777215
370
     9
100
AcDb2dPolyline
 66
     1
 10
0.0
 20
0.0
 30
0.0
  0
VERTEX
  5
48
330
47
100
AcDbEntity
  8
Linee visibili 2D
 62
     7
420
 16777215
370
     9
100
AcDbVertex
100
AcDb2dVertex
 10
307.8858601491811
 20
470.3124825521299
 30
0.0
  0
VERTEX
  5
49
330
47
100
AcDbEntity
  8
Linee visibili 2D
 62
     7
420
 16777215
370
     9
100
AcDbVertex
100
AcDb2dVertex
 10
301.8819603008524
 20
470.3124825521299
 30
0.0
  0
SEQEND
  5
4A
330
47
100
AcDbEntity
  8
Linee visibili 2D
 62
     7
420
 16777215
370
     9
  0
POLYLINE
  5
4B
330
1F
100
AcDbEntity
  8
Linee visibili 2D
 62
     7
420
 16777215
370
     9
100
AcDb2dPolyline
 66
     1
 10
0.0
 20
0.0
 30
0.0
  0
VERTEX
  5
4C
330
4B
100
AcDbEntity
  8
Linee visibili 2D
 62
     7
420
 16777215
370
     9
100
AcDbVertex
100
AcDb2dVertex
 10
307.7618601523136
 20
463.9345827132492
 30
0.0
  0
VERTEX
  5
4D
330
4B
100
AcDbEntity
  8
Linee visibili 2D
 62
     7
420
 16777215
370
     9
100
AcDbVertex
100
AcDb2dVertex
 10
307.7442694091806
 20
462.8856827397466
 30
0.0
  0
SEQEND
  5
4E
330
4B
100
AcDbEntity
  8
Linee visibili 2D
 62
     7
420
 16777215
370
     9
  0
POLYLINE
  5
4F
330
1F
100
AcDbEntity
  8
Linee visibili 2D
 62
     7
420
 16777215
370
     9
100
AcDb2dPolyline
 66
     1
 10
0.0
 20
0.0
 30
0.0
  0
VERTEX
  5
50
330
4F
100
AcDbEntity
  8
Linee visibili 2D
 62
     7
420
 16777215
370
     9
100
AcDbVertex
100
AcDb2dVertex
 10
307.8927601490068
 20
471.3895825249201
 30
0.0
  0
VERTEX
  5
51
330
4F
100
AcDbEntity
  8
Linee visibili 2D
 62
     7
420
 16777215
370
     9
100
AcDbVertex
100
AcDb2dVertex
 10
307.8761601494262
 20
470.4428825488357
 30
0.0
  0
SEQEND
  5
52
330
4F
100
AcDbEntity
  8
Linee visibili 2D
 62
     7
420
 16777215
370
     9
  0
POLYLINE
  5
53
330
1F
100
AcDbEntity
  8
Linee visibili 2D
 62
     7
420
 16777215
370
     9
100
AcDb2dPolyline
 66
     1
 10
0.0
 20
0.0
 30
0.0
  0
VERTEX
  5
54
330
53
100
AcDbEntity
  8
Linee visibili 2D
 62
     7
420
 16777215
370
     9
100
AcDbVertex
100
AcDb2dVertex
 10
381.4444582909345
 20
462.8856827397466
 30
0.0
  0
VERTEX
  5
55
330
53
100
AcDbEntity
  8
Linee visibili 2D
 62
     7
420
 16777215
370
     9
100
AcDbVertex
100
AcDb2dVertex
 10
381.2960582946835
 20
471.3895825249201
 30
0.0
  0
SEQEND
  5
56
330
53
100
AcDbEntity
  8
Linee visibili 2D
 62
     7
420
 16777215
370
     9
  0
POLYLINE
  5
57
330
1F
100
AcDbEntity
  8
Linee visibili 2D
 62
     7
420
 16777215
370
     9
100
AcDb2dPolyline
 66
     1
 10
0.0
 20
0.0
 30
0.0
  0
VERTEX
  5
58
330
57
100
AcDbEntity
  8
Linee visibili 2D
 62
     7
420
 16777215
370
     9
100
AcDbVertex
100
AcDb2dVertex
 10
282.3800607935118
 20
478.4716823460112
 30
0.0
  0
VERTEX
  5
59
330
57
100
AcDbEntity
  8
Linee visibili 2D
 62
     7
420
 16777215
370
     9
100
AcDbVertex
100
AcDb2dVertex
 10
276.143760951054
 20
478.416982347393
 30
0.0
  0
SEQEND
  5
5A
330
57
100
AcDbEntity
  8
Linee visibili 2D
 62
     7
420
 16777215
370
     9
  0
POLYLINE
  5
5B
330
1F
100
AcDbEntity
  8
Linee visibili 2D
 62
     7
420
 16777215
370
     9
100
AcDb2dPolyline
 66
     1
 10
0.0
 20
0.0
 30
0.0
  0
VERTEX
  5
5C
330
5B
100
AcDbEntity
  8
Linee visibili 2D
 62
     7
420
 16777215
370
     9
100
AcDbVertex
100
AcDb2dVertex
 10
276.143760951054
 20
421.9564837737052
 30
0.0
  0
VERTEX
  5
5D
330
5B
100
AcDbEntity
  8
Linee visibili 2D
 62
     7
420
 16777215
370
     9
100
AcDbVertex
100
AcDb2dVertex
 10
282.2081607978544
 20
421.9408837740993
 30
0.0
  0
SEQEND
  5
5E
330
5B
100
AcDbEntity
  8
Linee visibili 2D
 62
     7
420
 16777215
370
     9
  0
SPLINE
  5
5F
330
1F
100
AcDbEntity
  8
Linee visibili 2D
 62
     7
420
 16777215
370
     9
100
AcDbSpline
210
0.0
220
0.0
230
1.0
 70
     8
 71
     3
 72
     8
 73
     4
 74
     0
 42
0.0000000001
 43
0.0000000001
 40
0.0
 40
0.0
 40
0.0
 40
0.0
 40
1.0
 40
1.0
 40
1.0
 40
1.0
 10
290.7706605815474
 20
413.3353839914925
 30
0.0
 10
290.8507605795239
 20
413.3358839914799
 30
0.0
 10
290.8839605786852
 20
413.3690839906412
 30
0.0
 10
290.8839605786852
 20
413.4486839886303
 30
0.0
  0
SPLINE
  5
60
330
1F
100
AcDbEntity
  8
Linee visibili 2D
 62
     7
420
 16777215
370
     9
100
AcDbSpline
210
0.0
220
0.0
230
1.0
 70
     8
 71
     3
 72
     8
 73
     4
 74
     0
 42
0.0000000001
 43
0.0000000001
 40
0.0
 40
0.0
 40
0.0
 40
0.0
 40
1.0
 40
1.0
 40
1.0
 40
1.0
 10
290.8839605786852
 20
486.9247821324679
 30
0.0
 10
290.8839605786852
 20
487.004382130457
 30
0.0
 10
290.8507605795239
 20
487.037082129631
 30
0.0
 10
290.7706605815474
 20
487.0380821296057
 30
0.0
  0
POLYLINE
  5
61
330
1F
100
AcDbEntity
  8
Linee visibili 2D
 62
     7
420
 16777215
370
     9
100
AcDb2dPolyline
 66
     1
 10
0.0
 20
0.0
 30
0.0
  0
VERTEX
  5
62
330
61
100
AcDbEntity
  8
Linee visibili 2D
 62
     7
420
 16777215
370
     9
100
AcDbVertex
100
AcDb2dVertex
 10
290.7706605815474
 20
487.0380821296057
 30
0.0
  0
VERTEX
  5
63
330
61
100
AcDbEntity
  8
Linee visibili 2D
 62
     7
420
 16777215
370
     9
100
AcDbVertex
100
AcDb2dVertex
 10
282.3800607935118
 20
487.1112821277566
 30
0.0
  0
SEQEND
  5
64
330
61
100
AcDbEntity
  8
Linee visibili 2D
 62
     7
420
 16777215
370
     9
  0
POLYLINE
  5
65
330
1F
100
AcDbEntity
  8
Linee visibili 2D
 62
     7
420
 16777215
370
     9
100
AcDb2dPolyline
 66
     1
 10
0.0
 20
0.0
 30
0.0
  0
VERTEX
  5
66
330
65
100
AcDbEntity
  8
Linee visibili 2D
 62
     7
420
 16777215
370
     9
100
AcDbVertex
100
AcDb2dVertex
 10
282.3800607935118
 20
413.2621958618164
 30
0.0
  0
VERTEX
  5
67
330
65
100
AcDbEntity
  8
Linee visibili 2D
 62
     7
420
 16777215
370
     9
100
AcDbVertex
100
AcDb2dVertex
 10
290.7706605815474
 20
413.3353839914925
 30
0.0
  0
SEQEND
  5
68
330
65
100
AcDbEntity
  8
Linee visibili 2D
 62
     7
420
 16777215
370
     9
  0
SPLINE
  5
69
330
1F
100
AcDbEntity
  8
Linee visibili 2D
 62
     7
420
 16777215
370
     9
100
AcDbSpline
210
0.0
220
0.0
230
1.0
 70
     8
 71
     3
 72
     8
 73
     4
 74
     0
 42
0.0000000001
 43
0.0000000001
 40
0.0
 40
0.0
 40
0.0
 40
0.0
 40
1.0
 40
1.0
 40
1.0
 40
1.0
 10
339.1241593600353
 20
471.6732825177532
 30
0.0
 10
339.0440593620588
 20
471.6732825177532
 30
0.0
 10
339.0108593628974
 20
471.6400825185919
 30
0.0
 10
339.0108593628974
 20
471.5599825206154
 30
0.0
  0
SPLINE
  5
6A
330
1F
100
AcDbEntity
  8
Linee visibili 2D
 62
     7
420
 16777215
370
     9
100
AcDbSpline
210
0.0
220
0.0
230
1.0
 70
     8
 71
     3
 72
     8
 73
     4
 74
     0
 42
0.0000000001
 43
0.0000000001
 40
0.0
 40
0.0
 40
0.0
 40
0.0
 40
1.0
 40
1.0
 40
1.0
 40
1.0
 10
350.176959080818
 20
471.5599825206154
 30
0.0
 10
350.176959080818
 20
471.6400825185919
 30
0.0
 10
350.1437590816568
 20
471.6732825177532
 30
0.0
 10
350.064659083655
 20
471.6732825177532
 30
0.0
  0
POLYLINE
  5
6B
330
1F
100
AcDbEntity
  8
Linee visibili 2D
 62
     7
420
 16777215
370
     9
100
AcDb2dPolyline
 66
     1
 10
0.0
 20
0.0
 30
0.0
  0
VERTEX
  5
6C
330
6B
100
AcDbEntity
  8
Linee visibili 2D
 62
     7
420
 16777215
370
     9
100
AcDbVertex
100
AcDb2dVertex
 10
350.1778590807953
 20
471.3895825249201
 30
0.0
  0
VERTEX
  5
6D
330
6B
100
AcDbEntity
  8
Linee visibili 2D
 62
     7
420
 16777215
370
     9
100
AcDbVertex
100
AcDb2dVertex
 10
350.176959080818
 20
471.5599825206154
 30
0.0
  0
SEQEND
  5
6E
330
6B
100
AcDbEntity
  8
Linee visibili 2D
 62
     7
420
 16777215
370
     9
  0
POLYLINE
  5
6F
330
1F
100
AcDbEntity
  8
Linee visibili 2D
 62
     7
420
 16777215
370
     9
100
AcDb2dPolyline
 66
     1
 10
0.0
 20
0.0
 30
0.0
  0
VERTEX
  5
70
330
6F
100
AcDbEntity
  8
Linee visibili 2D
 62
     7
420
 16777215
370
     9
100
AcDbVertex
100
AcDb2dVertex
 10
339.0108593628974
 20
471.5599825206154
 30
0.0
  0
VERTEX
  5
71
330
6F
100
AcDbEntity
  8
Linee visibili 2D
 62
     7
420
 16777215
370
     9
100
AcDbVertex
100
AcDb2dVertex
 10
339.0108593628974
 20
471.3895825249201
 30
0.0
  0
SEQEND
  5
72
330
6F
100
AcDbEntity
  8
Linee visibili 2D
 62
     7
420
 16777215
370
     9
  0
POLYLINE
  5
73
330
1F
100
AcDbEntity
  8
Linee visibili 2D
 62
     7
420
 16777215
370
     9
100
AcDb2dPolyline
 66
     1
 10
0.0
 20
0.0
 30
0.0
  0
VERTEX
  5
74
330
73
100
AcDbEntity
  8
Linee visibili 2D
 62
     7
420
 16777215
370
     9
100
AcDbVertex
100
AcDb2dVertex
 10
291.167160571531
 20
471.4462825234877
 30
0.0
  0
VERTEX
  5
75
330
73
100
AcDbEntity
  8
Linee visibili 2D
 62
     7
420
 16777215
370
     9
100
AcDbVertex
100
AcDb2dVertex
 10
298.3321603905279
 20
471.4462825234877
 30
0.0
  0
SEQEND
  5
76
330
73
100
AcDbEntity
  8
Linee visibili 2D
 62
     7
420
 16777215
370
     9
  0
SPLINE
  5
77
330
1F
100
AcDbEntity
  8
Linee visibili 2D
 62
     7
420
 16777215
370
     9
100
AcDbSpline
210
0.0
220
0.0
230
1.0
 70
     8
 71
     3
 72
     8
 73
     4
 74
     0
 42
0.0000000001
 43
0.0000000001
 40
0.0
 40
0.0
 40
0.0
 40
0.0
 40
1.0
 40
1.0
 40
1.0
 40
1.0
 10
291.167160571531
 20
463.2831958618162
 30
0.0
 10
291.167160571531
 20
463.0946827344669
 30
0.0
 10
291.3185605677063
 20
462.9423827383143
 30
0.0
 10
291.5069605629469
 20
462.9423827383143
 30
0.0
  0
POLYLINE
  5
78
330
1F
100
AcDbEntity
  8
Linee visibili 2D
 62
     7
420
 16777215
370
     9
100
AcDb2dPolyline
 66
     1
 10
0.0
 20
0.0
 30
0.0
  0
VERTEX
  5
79
330
78
100
AcDbEntity
  8
Linee visibili 2D
 62
     7
420
 16777215
370
     9
100
AcDbVertex
100
AcDb2dVertex
 10
291.5069605629469
 20
462.9423827383143
 30
0.0
  0
VERTEX
  5
7A
330
78
100
AcDbEntity
  8
Linee visibili 2D
 62
     7
420
 16777215
370
     9
100
AcDbVertex
100
AcDb2dVertex
 10
298.3321603905279
 20
462.9423827383143
 30
0.0
  0
SEQEND
  5
7B
330
78
100
AcDbEntity
  8
Linee visibili 2D
 62
     7
420
 16777215
370
     9
  0
SPLINE
  5
7C
330
1F
100
AcDbEntity
  8
Linee visibili 2D
 62
     7
420
 16777215
370
     9
100
AcDbSpline
210
0.0
220
0.0
230
1.0
 70
     8
 71
     3
 72
    11
 73
     7
 74
     0
 42
0.0000000001
 43
0.0000000001
 40
0.0
 40
0.0
 40
0.0
 40
0.0
 40
1.0
 40
1.0
 40
1.0
 40
2.0
 40
2.0
 40
2.0
 40
2.0
 10
298.3321603905279
 20
462.9423827383143
 30
0.0
 10
300.6495603319854
 20
462.9423827383143
 30
0.0
 10
302.5851602830881
 20
464.8773826894321
 30
0.0
 10
302.5851602830881
 20
467.1942826309023
 30
0.0
 10
302.5851602830881
 20
469.5116825723598
 30
0.0
 10
300.6495603319854
 20
471.4462825234877
 30
0.0
 10
298.3321603905279
 20
471.4462825234877
 30
0.0
  0
POLYLINE
  5
7D
330
1F
100
AcDbEntity
  8
Linee visibili 2D
 62
     7
420
 16777215
370
     9
100
AcDb2dPolyline
 66
     1
 10
0.0
 20
0.0
 30
0.0
  0
VERTEX
  5
7E
330
7D
100
AcDbEntity
  8
Linee visibili 2D
 62
     7
420
 16777215
370
     9
100
AcDbVertex
100
AcDb2dVertex
 10
290.8839605786852
 20
463.5096827239831
 30
0.0
  0
VERTEX
  5
7F
330
7D
100
AcDbEntity
  8
Linee visibili 2D
 62
     7
420
 16777215
370
     9
100
AcDbVertex
100
AcDb2dVertex
 10
291.167160571531
 20
463.5096827239831
 30
0.0
  0
SEQEND
  5
80
330
7D
100
AcDbEntity
  8
Linee visibili 2D
 62
     7
420
 16777215
370
     9
  0
POLYLINE
  5
81
330
1F
100
AcDbEntity
  8
Linee visibili 2D
 62
     7
420
 16777215
370
     9
100
AcDb2dPolyline
 66
     1
 10
0.0
 20
0.0
 30
0.0
  0
VERTEX
  5
82
330
81
100
AcDbEntity
  8
Linee visibili 2D
 62
     7
420
 16777215
370
     9
100
AcDbVertex
100
AcDb2dVertex
 10
291.167160571531
 20
470.8798825377962
 30
0.0
  0
VERTEX
  5
83
330
81
100
AcDbEntity
  8
Linee visibili 2D
 62
     7
420
 16777215
370
     9
100
AcDbVertex
100
AcDb2dVertex
 10
290.8839605786852
 20
470.8798825377962
 30
0.0
  0
SEQEND
  5
84
330
81
100
AcDbEntity
  8
Linee visibili 2D
 62
     7
420
 16777215
370
     9
  0
POLYLINE
  5
85
330
1F
100
AcDbEntity
  8
Linee visibili 2D
 62
     7
420
 16777215
370
     9
100
AcDb2dPolyline
 66
     1
 10
0.0
 20
0.0
 30
0.0
  0
VERTEX
  5
86
330
85
100
AcDbEntity
  8
Linee visibili 2D
 62
     7
420
 16777215
370
     9
100
AcDbVertex
100
AcDb2dVertex
 10
291.167160571531
 20
471.4462825234877
 30
0.0
  0
VERTEX
  5
87
330
85
100
AcDbEntity
  8
Linee visibili 2D
 62
     7
420
 16777215
370
     9
100
AcDbVertex
100
AcDb2dVertex
 10
291.167160571531
 20
463.2831958618162
 30
0.0
  0
SEQEND
  5
88
330
85
100
AcDbEntity
  8
Linee visibili 2D
 62
     7
420
 16777215
370
     9
  0
SPLINE
  5
89
330
1F
100
AcDbEntity
  8
Linee visibili 2D
 62
     7
420
 16777215
370
     9
100
AcDbSpline
210
0.0
220
0.0
230
1.0
 70
     8
 71
     3
 72
     8
 73
     4
 74
     0
 42
0.0000000001
 43
0.0000000001
 40
0.0
 40
0.0
 40
0.0
 40
0.0
 40
1.0
 40
1.0
 40
1.0
 40
1.0
 10
301.7989603029491
 20
464.2714827047384
 30
0.0
 10
301.7960603030224
 20
464.2684827048142
 30
0.0
 10
301.7940603030729
 20
464.2655827048875
 30
0.0
 10
301.7921603031209
 20
464.2621958618165
 30
0.0
  0
SPLINE
  5
8A
330
1F
100
AcDbEntity
  8
Linee visibili 2D
 62
     7
420
 16777215
370
     9
100
AcDbSpline
210
0.0
220
0.0
230
1.0
 70
     8
 71
     3
 72
     8
 73
     4
 74
     0
 42
0.0000000001
 43
0.0000000001
 40
0.0
 40
0.0
 40
0.0
 40
0.0
 40
1.0
 40
1.0
 40
1.0
 40
1.0
 10
301.7921603031209
 20
470.1268825568186
 30
0.0
 10
301.7940603030729
 20
470.1239825568918
 30
0.0
 10
301.7960603030224
 20
470.1210825569651
 30
0.0
 10
301.7989603029491
 20
470.1176825570509
 30
0.0
  0
POLYLINE
  5
8B
330
1F
100
AcDbEntity
  8
Linee visibili 2D
 62
     7
420
 16777215
370
     9
100
AcDb2dPolyline
 66
     1
 10
0.0
 20
0.0
 30
0.0
  0
VERTEX
  5
8C
330
8B
100
AcDbEntity
  8
Linee visibili 2D
 62
     7
420
 16777215
370
     9
100
AcDbVertex
100
AcDb2dVertex
 10
301.8399603019134
 20
470.3046825523269
 30
0.0
  0
VERTEX
  5
8D
330
8B
100
AcDbEntity
  8
Linee visibili 2D
 62
     7
420
 16777215
370
     9
100
AcDbVertex
100
AcDb2dVertex
 10
301.2325603172576
 20
470.3046825523269
 30
0.0
  0
SEQEND
  5
8E
330
8B
100
AcDbEntity
  8
Linee visibili 2D
 62
     7
420
 16777215
370
     9
  0
POLYLINE
  5
8F
330
1F
100
AcDbEntity
  8
Linee visibili 2D
 62
     7
420
 16777215
370
     9
100
AcDb2dPolyline
 66
     1
 10
0.0
 20
0.0
 30
0.0
  0
VERTEX
  5
90
330
8F
100
AcDbEntity
  8
Linee visibili 2D
 62
     7
420
 16777215
370
     9
100
AcDbVertex
100
AcDb2dVertex
 10
301.2325603172576
 20
464.0848827094523
 30
0.0
  0
VERTEX
  5
91
330
8F
100
AcDbEntity
  8
Linee visibili 2D
 62
     7
420
 16777215
370
     9
100
AcDbVertex
100
AcDb2dVertex
 10
301.8399603019134
 20
464.0848827094523
 30
0.0
  0
SEQEND
  5
92
330
8F
100
AcDbEntity
  8
Linee visibili 2D
 62
     7
420
 16777215
370
     9
  0
SPLINE
  5
93
330
1F
100
AcDbEntity
  8
Linee visibili 2D
 62
     7
420
 16777215
370
     9
100
AcDbSpline
210
0.0
220
0.0
230
1.0
 70
     8
 71
     3
 72
     8
 73
     4
 74
     0
 42
0.0000000001
 43
0.0000000001
 40
0.0
 40
0.0
 40
0.0
 40
0.0
 40
1.0
 40
1.0
 40
1.0
 40
1.0
 10
307.7774601519195
 20
464.076582709662
 30
0.0
 10
307.8810601493024
 20
465.1141958618163
 30
0.0
 10
307.9435601477235
 20
466.1517826572381
 30
0.0
 10
307.9620601472561
 20
467.1942826309023
 30
0.0
  0
SPLINE
  5
94
330
1F
100
AcDbEntity
  8
Linee visibili 2D
 62
     7
420
 16777215
370
     9
100
AcDbSpline
210
0.0
220
0.0
230
1.0
 70
     8
 71
     3
 72
     8
 73
     4
 74
     0
 42
0.0000000001
 43
0.0000000001
 40
0.0
 40
0.0
 40
0.0
 40
0.0
 40
1.0
 40
1.0
 40
1.0
 40
1.0
 10
307.9620601472561
 20
467.1942826309023
 30
0.0
 10
307.9640601472056
 20
467.5634826215754
 30
0.0
 10
307.9649601471829
 20
467.9320826122639
 30
0.0
 10
307.9659601471576
 20
468.3007826029498
 30
0.0
  0
SPLINE
  5
95
330
1F
100
AcDbEntity
  8
Linee visibili 2D
 62
     7
420
 16777215
370
     9
100
AcDbSpline
210
0.0
220
0.0
230
1.0
 70
     8
 71
     3
 72
     8
 73
     4
 74
     0
 42
0.0000000001
 43
0.0000000001
 40
0.0
 40
0.0
 40
0.0
 40
0.0
 40
1.0
 40
1.0
 40
1.0
 40
1.0
 10
307.9659601471576
 20
468.3007826029498
 30
0.0
 10
307.9552694091799
 20
469.0155825848924
 30
0.0
 10
307.9317601480216
 20
469.7313825668097
 30
0.0
 10
307.8761601494262
 20
470.4442825488004
 30
0.0
  0
POLYLINE
  5
96
330
1F
100
AcDbEntity
  8
Linee visibili 2D
 62
     7
420
 16777215
370
     9
100
AcDb2dPolyline
 66
     1
 10
0.0
 20
0.0
 30
0.0
  0
VERTEX
  5
97
330
96
100
AcDbEntity
  8
Linee visibili 2D
 62
     7
420
 16777215
370
     9
100
AcDbVertex
100
AcDb2dVertex
 10
344.593859221859
 20
462.8856827397466
 30
0.0
  0
VERTEX
  5
98
330
96
100
AcDbEntity
  8
Linee visibili 2D
 62
     7
420
 16777215
370
     9
100
AcDbVertex
100
AcDb2dVertex
 10
307.7442694091806
 20
462.8856827397466
 30
0.0
  0
SEQEND
  5
99
330
96
100
AcDbEntity
  8
Linee visibili 2D
 62
     7
420
 16777215
370
     9
  0
POLYLINE
  5
9A
330
1F
100
AcDbEntity
  8
Linee visibili 2D
 62
     7
420
 16777215
370
     9
100
AcDb2dPolyline
 66
     1
 10
0.0
 20
0.0
 30
0.0
  0
VERTEX
  5
9B
330
9A
100
AcDbEntity
  8
Linee visibili 2D
 62
     7
420
 16777215
370
     9
100
AcDbVertex
100
AcDb2dVertex
 10
381.4444582909345
 20
462.8856827397466
 30
0.0
  0
VERTEX
  5
9C
330
9A
100
AcDbEntity
  8
Linee visibili 2D
 62
     7
420
 16777215
370
     9
100
AcDbVertex
100
AcDb2dVertex
 10
344.593859221859
 20
462.8856827397466
 30
0.0
  0
SEQEND
  5
9D
330
9A
100
AcDbEntity
  8
Linee visibili 2D
 62
     7
420
 16777215
370
     9
  0
POLYLINE
  5
9E
330
1F
100
AcDbEntity
  8
Linee visibili 2D
 62
     7
420
 16777215
370
     9
100
AcDb2dPolyline
 66
     1
 10
0.0
 20
0.0
 30
0.0
  0
VERTEX
  5
9F
330
9E
100
AcDbEntity
  8
Linee visibili 2D
 62
     7
420
 16777215
370
     9
100
AcDbVertex
100
AcDb2dVertex
 10
344.593859221859
 20
471.3895825249201
 30
0.0
  0
VERTEX
  5
A0
330
9E
100
AcDbEntity
  8
Linee visibili 2D
 62
     7
420
 16777215
370
     9
100
AcDbVertex
100
AcDb2dVertex
 10
381.2960582946835
 20
471.3895825249201
 30
0.0
  0
SEQEND
  5
A1
330
9E
100
AcDbEntity
  8
Linee visibili 2D
 62
     7
420
 16777215
370
     9
  0
POLYLINE
  5
A2
330
1F
100
AcDbEntity
  8
Linee visibili 2D
 62
     7
420
 16777215
370
     9
100
AcDb2dPolyline
 66
     1
 10
0.0
 20
0.0
 30
0.0
  0
VERTEX
  5
A3
330
A2
100
AcDbEntity
  8
Linee visibili 2D
 62
     7
420
 16777215
370
     9
100
AcDbVertex
100
AcDb2dVertex
 10
307.8927601490068
 20
471.3895825249201
 30
0.0
  0
VERTEX
  5
A4
330
A2
100
AcDbEntity
  8
Linee visibili 2D
 62
     7
420
 16777215
370
     9
100
AcDbVertex
100
AcDb2dVertex
 10
344.593859221859
 20
471.3895825249201
 30
0.0
  0
SEQEND
  5
A5
330
A2
100
AcDbEntity
  8
Linee visibili 2D
 62
     7
420
 16777215
370
     9
  0
POLYLINE
  5
A6
330
1F
100
AcDbEntity
  8
Linee visibili 2D
 62
     7
420
 16777215
370
     9
100
AcDb2dPolyline
 66
     1
 10
0.0
 20
0.0
 30
0.0
  0
VERTEX
  5
A7
330
A6
100
AcDbEntity
  8
Linee visibili 2D
 62
     7
420
 16777215
370
     9
100
AcDbVertex
100
AcDb2dVertex
 10
297.6241604084135
 20
466.7855826412269
 30
0.0
  0
VERTEX
  5
A8
330
A6
100
AcDbEntity
  8
Linee visibili 2D
 62
     7
420
 16777215
370
     9
100
AcDbVertex
100
AcDb2dVertex
 10
298.3321603905279
 20
466.3759826515742
 30
0.0
  0
SEQEND
  5
A9
330
A6
100
AcDbEntity
  8
Linee visibili 2D
 62
     7
420
 16777215
370
     9
  0
POLYLINE
  5
AA
330
1F
100
AcDbEntity
  8
Linee visibili 2D
 62
     7
420
 16777215
370
     9
100
AcDb2dPolyline
 66
     1
 10
0.0
 20
0.0
 30
0.0
  0
VERTEX
  5
AB
330
AA
100
AcDbEntity
  8
Linee visibili 2D
 62
     7
420
 16777215
370
     9
100
AcDbVertex
100
AcDb2dVertex
 10
297.6241604084135
 20
467.603482620565
 30
0.0
  0
VERTEX
  5
AC
330
AA
100
AcDbEntity
  8
Linee visibili 2D
 62
     7
420
 16777215
370
     9
100
AcDbVertex
100
AcDb2dVertex
 10
297.6241604084135
 20
466.7855826412269
 30
0.0
  0
SEQEND
  5
AD
330
AA
100
AcDbEntity
  8
Linee visibili 2D
 62
     7
420
 16777215
370
     9
  0
POLYLINE
  5
AE
330
1F
100
AcDbEntity
  8
Linee visibili 2D
 62
     7
420
 16777215
370
     9
100
AcDb2dPolyline
 66
     1
 10
0.0
 20
0.0
 30
0.0
  0
VERTEX
  5
AF
330
AE
100
AcDbEntity
  8
Linee visibili 2D
 62
     7
420
 16777215
370
     9
100
AcDbVertex
100
AcDb2dVertex
 10
298.3321603905279
 20
468.0126826102277
 30
0.0
  0
VERTEX
  5
B0
330
AE
100
AcDbEntity
  8
Linee visibili 2D
 62
     7
420
 16777215
370
     9
100
AcDbVertex
100
AcDb2dVertex
 10
297.6241604084135
 20
467.603482620565
 30
0.0
  0
SEQEND
  5
B1
330
AE
100
AcDbEntity
  8
Linee visibili 2D
 62
     7
420
 16777215
370
     9
  0
POLYLINE
  5
B2
330
1F
100
AcDbEntity
  8
Linee visibili 2D
 62
     7
420
 16777215
370
     9
100
AcDb2dPolyline
 66
     1
 10
0.0
 20
0.0
 30
0.0
  0
VERTEX
  5
B3
330
B2
100
AcDbEntity
  8
Linee visibili 2D
 62
     7
420
 16777215
370
     9
100
AcDbVertex
100
AcDb2dVertex
 10
299.041160372617
 20
467.603482620565
 30
0.0
  0
VERTEX
  5
B4
330
B2
100
AcDbEntity
  8
Linee visibili 2D
 62
     7
420
 16777215
370
     9
100
AcDbVertex
100
AcDb2dVertex
 10
298.3321603905279
 20
468.0126826102277
 30
0.0
  0
SEQEND
  5
B5
330
B2
100
AcDbEntity
  8
Linee visibili 2D
 62
     7
420
 16777215
370
     9
  0
POLYLINE
  5
B6
330
1F
100
AcDbEntity
  8
Linee visibili 2D
 62
     7
420
 16777215
370
     9
100
AcDb2dPolyline
 66
     1
 10
0.0
 20
0.0
 30
0.0
  0
VERTEX
  5
B7
330
B6
100
AcDbEntity
  8
Linee visibili 2D
 62
     7
420
 16777215
370
     9
100
AcDbVertex
100
AcDb2dVertex
 10
299.041160372617
 20
466.7855826412269
 30
0.0
  0
VERTEX
  5
B8
330
B6
100
AcDbEntity
  8
Linee visibili 2D
 62
     7
420
 16777215
370
     9
100
AcDbVertex
100
AcDb2dVertex
 10
299.041160372617
 20
467.603482620565
 30
0.0
  0
SEQEND
  5
B9
330
B6
100
AcDbEntity
  8
Linee visibili 2D
 62
     7
420
 16777215
370
     9
  0
POLYLINE
  5
BA
330
1F
100
AcDbEntity
  8
Linee visibili 2D
 62
     7
420
 16777215
370
     9
100
AcDb2dPolyline
 66
     1
 10
0.0
 20
0.0
 30
0.0
  0
VERTEX
  5
BB
330
BA
100
AcDbEntity
  8
Linee visibili 2D
 62
     7
420
 16777215
370
     9
100
AcDbVertex
100
AcDb2dVertex
 10
298.3321603905279
 20
466.3759826515742
 30
0.0
  0
VERTEX
  5
BC
330
BA
100
AcDbEntity
  8
Linee visibili 2D
 62
     7
420
 16777215
370
     9
100
AcDbVertex
100
AcDb2dVertex
 10
299.041160372617
 20
466.7855826412269
 30
0.0
  0
SEQEND
  5
BD
330
BA
100
AcDbEntity
  8
Linee visibili 2D
 62
     7
420
 16777215
370
     9
  0
SPLINE
  5
BE
330
1F
100
AcDbEntity
  8
Linee visibili 2D
 62
     7
420
 16777215
370
     9
100
AcDbSpline
210
0.0
220
0.0
230
1.0
 70
     8
 71
     3
 72
    11
 73
     7
 74
     0
 42
0.0000000001
 43
0.0000000001
 40
0.0
 40
0.0
 40
0.0
 40
0.0
 40
1.0
 40
1.0
 40
1.0
 40
2.0
 40
2.0
 40
2.0
 40
2.0
 10
298.3321603905279
 20
471.163082530642
 30
0.0
 10
296.1690604451724
 20
471.163082530642
 30
0.0
 10
294.3644604907604
 20
469.3573825762578
 30
0.0
 10
294.3644604907604
 20
467.1942826309023
 30
0.0
 10
294.3644604907604
 20
465.0316826855341
 30
0.0
 10
296.1700604451471
 20
463.2260827311474
 30
0.0
 10
298.3321603905279
 20
463.2260827311474
 30
0.0
  0
POLYLINE
  5
BF
330
1F
100
AcDbEntity
  8
Linee visibili 2D
 62
     7
420
 16777215
370
     9
100
AcDb2dPolyline
 66
     1
 10
0.0
 20
0.0
 30
0.0
  0
VERTEX
  5
C0
330
BF
100
AcDbEntity
  8
Linee visibili 2D
 62
     7
420
 16777215
370
     9
100
AcDbVertex
100
AcDb2dVertex
 10
276.143760951054
 20
421.9564837737052
 30
0.0
  0
VERTEX
  5
C1
330
BF
100
AcDbEntity
  8
Linee visibili 2D
 62
     7
420
 16777215
370
     9
100
AcDbVertex
100
AcDb2dVertex
 10
276.143760951054
 20
450.1864830605554
 30
0.0
  0
SEQEND
  5
C2
330
BF
100
AcDbEntity
  8
Linee visibili 2D
 62
     7
420
 16777215
370
     9
  0
POLYLINE
  5
C3
330
1F
100
AcDbEntity
  8
Linee visibili 2D
 62
     7
420
 16777215
370
     9
100
AcDb2dPolyline
 66
     1
 10
0.0
 20
0.0
 30
0.0
  0
VERTEX
  5
C4
330
C3
100
AcDbEntity
  8
Linee visibili 2D
 62
     7
420
 16777215
370
     9
100
AcDbVertex
100
AcDb2dVertex
 10
276.143760951054
 20
450.1864830605554
 30
0.0
  0
VERTEX
  5
C5
330
C3
100
AcDbEntity
  8
Linee visibili 2D
 62
     7
420
 16777215
370
     9
100
AcDbVertex
100
AcDb2dVertex
 10
276.143760951054
 20
478.416982347393
 30
0.0
  0
SEQEND
  5
C6
330
C3
100
AcDbEntity
  8
Linee visibili 2D
 62
     7
420
 16777215
370
     9
  0
POLYLINE
  5
C7
330
1F
100
AcDbEntity
  8
Linee visibili 2D
 62
     7
420
 16777215
370
     9
100
AcDb2dPolyline
 66
     1
 10
0.0
 20
0.0
 30
0.0
  0
VERTEX
  5
C8
330
C7
100
AcDbEntity
  8
Linee visibili 2D
 62
     7
420
 16777215
370
     9
100
AcDbVertex
100
AcDb2dVertex
 10
282.3800607935118
 20
450.1864830605554
 30
0.0
  0
VERTEX
  5
C9
330
C7
100
AcDbEntity
  8
Linee visibili 2D
 62
     7
420
 16777215
370
     9
100
AcDbVertex
100
AcDb2dVertex
 10
282.3800607935118
 20
487.1112821277566
 30
0.0
  0
SEQEND
  5
CA
330
C7
100
AcDbEntity
  8
Linee visibili 2D
 62
     7
420
 16777215
370
     9
  0
POLYLINE
  5
CB
330
1F
100
AcDbEntity
  8
Linee visibili 2D
 62
     7
420
 16777215
370
     9
100
AcDb2dPolyline
 66
     1
 10
0.0
 20
0.0
 30
0.0
  0
VERTEX
  5
CC
330
CB
100
AcDbEntity
  8
Linee visibili 2D
 62
     7
420
 16777215
370
     9
100
AcDbVertex
100
AcDb2dVertex
 10
282.3800607935118
 20
413.2621958618164
 30
0.0
  0
VERTEX
  5
CD
330
CB
100
AcDbEntity
  8
Linee visibili 2D
 62
     7
420
 16777215
370
     9
100
AcDbVertex
100
AcDb2dVertex
 10
282.3800607935118
 20
450.1864830605554
 30
0.0
  0
SEQEND
  5
CE
330
CB
100
AcDbEntity
  8
Linee visibili 2D
 62
     7
420
 16777215
370
     9
  0
POLYLINE
  5
CF
330
1F
100
AcDbEntity
  8
Linee visibili 2D
 62
     7
420
 16777215
370
     9
100
AcDb2dPolyline
 66
     1
 10
0.0
 20
0.0
 30
0.0
  0
VERTEX
  5
D0
330
CF
100
AcDbEntity
  8
Linee visibili 2D
 62
     7
420
 16777215
370
     9
100
AcDbVertex
100
AcDb2dVertex
 10
290.8839605786852
 20
450.1864830605554
 30
0.0
  0
VERTEX
  5
D1
330
CF
100
AcDbEntity
  8
Linee visibili 2D
 62
     7
420
 16777215
370
     9
100
AcDbVertex
100
AcDb2dVertex
 10
290.8839605786852
 20
413.4486839886303
 30
0.0
  0
SEQEND
  5
D2
330
CF
100
AcDbEntity
  8
Linee visibili 2D
 62
     7
420
 16777215
370
     9
  0
POLYLINE
  5
D3
330
1F
100
AcDbEntity
  8
Linee visibili 2D
 62
     7
420
 16777215
370
     9
100
AcDb2dPolyline
 66
     1
 10
0.0
 20
0.0
 30
0.0
  0
VERTEX
  5
D4
330
D3
100
AcDbEntity
  8
Linee visibili 2D
 62
     7
420
 16777215
370
     9
100
AcDbVertex
100
AcDb2dVertex
 10
290.8839605786852
 20
486.9247821324679
 30
0.0
  0
VERTEX
  5
D5
330
D3
100
AcDbEntity
  8
Linee visibili 2D
 62
     7
420
 16777215
370
     9
100
AcDbVertex
100
AcDb2dVertex
 10
290.8839605786852
 20
450.1864830605554
 30
0.0
  0
SEQEND
  5
D6
330
D3
100
AcDbEntity
  8
Linee visibili 2D
 62
     7
420
 16777215
370
     9
  0
POLYLINE
  5
D7
330
1F
100
AcDbEntity
  8
Linee visibili 2D
 62
     7
420
 16777215
370
     9
100
AcDb2dPolyline
 66
     1
 10
0.0
 20
0.0
 30
0.0
  0
VERTEX
  5
D8
330
D7
100
AcDbEntity
  8
Linee visibili 2D
 62
     7
420
 16777215
370
     9
100
AcDbVertex
100
AcDb2dVertex
 10
350.064659083655
 20
471.6732825177532
 30
0.0
  0
VERTEX
  5
D9
330
D7
100
AcDbEntity
  8
Linee visibili 2D
 62
     7
420
 16777215
370
     9
100
AcDbVertex
100
AcDb2dVertex
 10
344.593859221859
 20
471.6732825177532
 30
0.0
  0
SEQEND
  5
DA
330
D7
100
AcDbEntity
  8
Linee visibili 2D
 62
     7
420
 16777215
370
     9
  0
POLYLINE
  5
DB
330
1F
100
AcDbEntity
  8
Linee visibili 2D
 62
     7
420
 16777215
370
     9
100
AcDb2dPolyline
 66
     1
 10
0.0
 20
0.0
 30
0.0
  0
VERTEX
  5
DC
330
DB
100
AcDbEntity
  8
Linee visibili 2D
 62
     7
420
 16777215
370
     9
100
AcDbVertex
100
AcDb2dVertex
 10
344.593859221859
 20
471.6732825177532
 30
0.0
  0
VERTEX
  5
DD
330
DB
100
AcDbEntity
  8
Linee visibili 2D
 62
     7
420
 16777215
370
     9
100
AcDbVertex
100
AcDb2dVertex
 10
339.1241593600353
 20
471.6732825177532
 30
0.0
  0
SEQEND
  5
DE
330
DB
100
AcDbEntity
  8
Linee visibili 2D
 62
     7
420
 16777215
370
     9
  0
POLYLINE
  5
DF
330
1F
100
AcDbEntity
  8
Linee visibili 2D
 62
     7
420
 16777215
370
     9
100
AcDb2dPolyline
 66
     1
 10
0.0
 20
0.0
 30
0.0
  0
VERTEX
  5
E0
330
DF
100
AcDbEntity
  8
Linee visibili 2D
 62
     7
420
 16777215
370
     9
100
AcDbVertex
100
AcDb2dVertex
 10
260.9786690826877
 20
471.3895825249201
 30
0.0
  0
VERTEX
  5
E1
330
DF
100
AcDbEntity
  8
Linee visibili 2D
 62
     7
420
 16777215
370
     9
100
AcDbVertex
100
AcDb2dVertex
 10
261.1271690789363
 20
462.8856827397466
 30
0.0
  0
SEQEND
  5
E2
330
DF
100
AcDbEntity
  8
Linee visibili 2D
 62
     7
420
 16777215
370
     9
  0
SPLINE
  5
E3
330
1F
100
AcDbEntity
  8
Linee visibili 2D
 62
     7
420
 16777215
370
     9
100
AcDbSpline
210
0.0
220
0.0
230
1.0
 70
     8
 71
     3
 72
     8
 73
     4
 74
     0
 42
0.0000000001
 43
0.0000000001
 40
0.0
 40
0.0
 40
0.0
 40
0.0
 40
1.0
 40
1.0
 40
1.0
 40
1.0
 10
218.6935701508992
 20
471.5599825206154
 30
0.0
 10
218.6935701508992
 20
471.6400825185919
 30
0.0
 10
218.7267701500605
 20
471.6732825177532
 30
0.0
 10
218.806870148037
 20
471.6732825177532
 30
0.0
  0
POLYLINE
  5
E4
330
1F
100
AcDbEntity
  8
Linee visibili 2D
 62
     7
420
 16777215
370
     9
100
AcDb2dPolyline
 66
     1
 10
0.0
 20
0.0
 30
0.0
  0
VERTEX
  5
E5
330
E4
100
AcDbEntity
  8
Linee visibili 2D
 62
     7
420
 16777215
370
     9
100
AcDbVertex
100
AcDb2dVertex
 10
218.6935701508992
 20
471.3895825249201
 30
0.0
  0
VERTEX
  5
E6
330
E4
100
AcDbEntity
  8
Linee visibili 2D
 62
     7
420
 16777215
370
     9
100
AcDbVertex
100
AcDb2dVertex
 10
218.6935701508992
 20
471.5599825206154
 30
0.0
  0
SEQEND
  5
E7
330
E4
100
AcDbEntity
  8
Linee visibili 2D
 62
     7
420
 16777215
370
     9
  0
POLYLINE
  5
E8
330
1F
100
AcDbEntity
  8
Linee visibili 2D
 62
     7
420
 16777215
370
     9
100
AcDb2dPolyline
 66
     1
 10
0.0
 20
0.0
 30
0.0
  0
VERTEX
  5
E9
330
E8
100
AcDbEntity
  8
Linee visibili 2D
 62
     7
420
 16777215
370
     9
100
AcDbVertex
100
AcDb2dVertex
 10
187.4264758911131
 20
462.8856827397466
 30
0.0
  0
VERTEX
  5
EA
330
E8
100
AcDbEntity
  8
Linee visibili 2D
 62
     7
420
 16777215
370
     9
100
AcDbVertex
100
AcDb2dVertex
 10
261.1271690789363
 20
462.8856827397466
 30
0.0
  0
SEQEND
  5
EB
330
E8
100
AcDbEntity
  8
Linee visibili 2D
 62
     7
420
 16777215
370
     9
  0
POLYLINE
  5
EC
330
1F
100
AcDbEntity
  8
Linee visibili 2D
 62
     7
420
 16777215
370
     9
100
AcDb2dPolyline
 66
     1
 10
0.0
 20
0.0
 30
0.0
  0
VERTEX
  5
ED
330
EC
100
AcDbEntity
  8
Linee visibili 2D
 62
     7
420
 16777215
370
     9
100
AcDbVertex
100
AcDb2dVertex
 10
187.5748709370236
 20
471.3895825249201
 30
0.0
  0
VERTEX
  5
EE
330
EC
100
AcDbEntity
  8
Linee visibili 2D
 62
     7
420
 16777215
370
     9
100
AcDbVertex
100
AcDb2dVertex
 10
187.4264758911131
 20
462.8856827397466
 30
0.0
  0
SEQEND
  5
EF
330
EC
100
AcDbEntity
  8
Linee visibili 2D
 62
     7
420
 16777215
370
     9
  0
POLYLINE
  5
F0
330
1F
100
AcDbEntity
  8
Linee visibili 2D
 62
     7
420
 16777215
370
     9
100
AcDb2dPolyline
 66
     1
 10
0.0
 20
0.0
 30
0.0
  0
VERTEX
  5
F1
330
F0
100
AcDbEntity
  8
Linee visibili 2D
 62
     7
420
 16777215
370
     9
100
AcDbVertex
100
AcDb2dVertex
 10
260.9786690826877
 20
471.3895825249201
 30
0.0
  0
VERTEX
  5
F2
330
F0
100
AcDbEntity
  8
Linee visibili 2D
 62
     7
420
 16777215
370
     9
100
AcDbVertex
100
AcDb2dVertex
 10
187.5748709370236
 20
471.3895825249201
 30
0.0
  0
SEQEND
  5
F3
330
F0
100
AcDbEntity
  8
Linee visibili 2D
 62
     7
420
 16777215
370
     9
  0
SPLINE
  5
F4
330
1F
100
AcDbEntity
  8
Linee visibili 2D
 62
     7
420
 16777215
370
     9
100
AcDbSpline
210
0.0
220
0.0
230
1.0
 70
     8
 71
     3
 72
     8
 73
     4
 74
     0
 42
0.0000000001
 43
0.0000000001
 40
0.0
 40
0.0
 40
0.0
 40
0.0
 40
1.0
 40
1.0
 40
1.0
 40
1.0
 10
189.6046708857466
 20
462.8856827397466
 30
0.0
 10
188.0812709242309
 20
458.726082844827
 30
0.0
 10
187.352270942647
 20
454.6171958618161
 30
0.0
 10
187.352270942647
 20
450.1864830605554
 30
0.0
  0
SPLINE
  5
F5
330
1F
100
AcDbEntity
  8
Linee visibili 2D
 62
     7
420
 16777215
370
     9
100
AcDbSpline
210
0.0
220
0.0
230
1.0
 70
     8
 71
     3
 72
    14
 73
    10
 74
     0
 42
0.0000000001
 43
0.0000000001
 40
0.0
 40
0.0
 40
0.0
 40
0.0
 40
1.0
 40
1.0
 40
1.0
 40
2.0
 40
2.0
 40
2.0
 40
3.0
 40
3.0
 40
3.0
 40
3.0
 10
254.5070692461741
 20
471.3895825249201
 30
0.0
 10
248.6852693932451
 20
479.6893823152495
 30
0.0
 10
239.5026696252171
 20
485.3217821729631
 30
0.0
 10
229.4650698787882
 20
486.7455821369949
 30
0.0
 10
219.4049701329277
 20
488.1722821009534
 30
0.0
 10
208.9987703958104
 20
485.3036821734203
 30
0.0
 10
201.0909705955783
 20
478.9242823345776
 30
0.0
 10
198.4054758911134
 20
476.7582823892953
 30
0.0
 10
196.0279707234804
 20
474.2142824535622
 30
0.0
 10
194.0470707735221
 20
471.3895825249201
 30
0.0
  0
SPLINE
  5
F6
330
1F
100
AcDbEntity
  8
Linee visibili 2D
 62
     7
420
 16777215
370
     9
100
AcDbSpline
210
0.0
220
0.0
230
1.0
 70
     8
 71
     3
 72
     8
 73
     4
 74
     0
 42
0.0000000001
 43
0.0000000001
 40
0.0
 40
0.0
 40
0.0
 40
0.0
 40
1.0
 40
1.0
 40
1.0
 40
1.0
 10
261.2013690770618
 20
450.1864830605554
 30
0.0
 10
261.2013690770618
 20
454.6171958618161
 30
0.0
 10
260.4728690954653
 20
458.726082844827
 30
0.0
 10
258.9488691339647
 20
462.8856827397466
 30
0.0
  0
SPLINE
  5
F7
330
1F
100
AcDbEntity
  8
Linee visibili 2D
 62
     7
420
 16777215
370
     9
100
AcDbSpline
210
0.0
220
0.0
230
1.0
 70
     8
 71
     3
 72
    20
 73
    16
 74
     0
 42
0.0000000001
 43
0.0000000001
 40
0.0
 40
0.0
 40
0.0
 40
0.0
 40
1.0
 40
1.0
 40
1.0
 40
2.0
 40
2.0
 40
2.0
 40
3.0
 40
3.0
 40
3.0
 40
4.0
 40
4.0
 40
4.0
 40
5.0
 40
5.0
 40
5.0
 40
5.0
 10
187.352270942647
 20
450.1864830605554
 30
0.0
 10
187.352270942647
 20
441.2050832874447
 30
0.0
 10
190.6837708584862
 20
432.4130835095493
 30
0.0
 10
196.6446707079012
 20
425.6937836792931
 30
0.0
 10
202.5333705591402
 20
419.0551958618161
 30
0.0
 10
210.7550703514426
 20
414.6830839574468
 30
0.0
 10
219.5612701289793
 20
413.560483985806
 30
0.0
 10
228.5592699016707
 20
412.4135840147792
 30
0.0
 10
237.8131696678975
 20
414.6429839584597
 30
0.0
 10
245.273169479442
 20
419.8085838279657
 30
0.0
 10
252.5143692965139
 20
424.8231958618162
 30
0.0
 10
257.8307691622104
 20
432.4017835098348
 30
0.0
 10
260.0323691065932
 20
440.9340832942907
 30
0.0
 10
260.8116690869065
 20
443.9530832180244
 30
0.0
 10
261.2013690770618
 20
447.0692831393026
 30
0.0
 10
261.2013690770618
 20
450.1864830605554
 30
0.0
  0
POLYLINE
  5
F8
330
1F
100
AcDbEntity
  8
Linee visibili 2D
 62
     7
420
 16777215
370
     9
100
AcDb2dPolyline
 66
     1
 10
0.0
 20
0.0
 30
0.0
  0
VERTEX
  5
F9
330
F8
100
AcDbEntity
  8
Linee visibili 2D
 62
     7
420
 16777215
370
     9
100
AcDbVertex
100
AcDb2dVertex
 10
187.4254758911129
 20
450.1864830605554
 30
0.0
  0
VERTEX
  5
FA
330
F8
100
AcDbEntity
  8
Linee visibili 2D
 62
     7
420
 16777215
370
     9
100
AcDbVertex
100
AcDb2dVertex
 10
187.352270942647
 20
450.1864830605554
 30
0.0
  0
SEQEND
  5
FB
330
F8
100
AcDbEntity
  8
Linee visibili 2D
 62
     7
420
 16777215
370
     9
  0
SPLINE
  5
FC
330
1F
100
AcDbEntity
  8
Linee visibili 2D
 62
     7
420
 16777215
370
     9
100
AcDbSpline
210
0.0
220
0.0
230
1.0
 70
     8
 71
     3
 72
    20
 73
    16
 74
     0
 42
0.0000000001
 43
0.0000000001
 40
0.0
 40
0.0
 40
0.0
 40
0.0
 40
1.0
 40
1.0
 40
1.0
 40
2.0
 40
2.0
 40
2.0
 40
3.0
 40
3.0
 40
3.0
 40
4.0
 40
4.0
 40
4.0
 40
5.0
 40
5.0
 40
5.0
 40
5.0
 10
261.1280690789135
 20
450.1864830605554
 30
0.0
 10
261.1280690789135
 20
441.1815832880384
 30
0.0
 10
257.7721691636907
 20
432.3695835106482
 30
0.0
 10
251.7740693152155
 20
425.6517836803541
 30
0.0
 10
245.8448694649996
 20
419.0116838480971
 30
0.0
 10
237.5729696739654
 20
414.6669839578534
 30
0.0
 10
228.7311698973281
 20
413.6019839847576
 30
0.0
 10
219.7052701253415
 20
412.5145840122277
 30
0.0
 10
210.4498703591525
 20
414.8265839538217
 30
0.0
 10
203.0245705467314
 20
420.0770838211829
 30
0.0
 10
195.8092707290052
 20
425.1791958618159
 30
0.0
 10
190.5626708615455
 20
432.8456834986209
 30
0.0
 10
188.4708709143888
 20
441.4359832816116
 30
0.0
 10
187.7736709320015
 20
444.2972832093292
 30
0.0
 10
187.4254758911129
 20
447.2416831349473
 30
0.0
 10
187.4254758911129
 20
450.1864830605554
 30
0.0
  0
SPLINE
  5
FD
330
1F
100
AcDbEntity
  8
Linee visibili 2D
 62
     7
420
 16777215
370
     9
100
AcDbSpline
210
0.0
220
0.0
230
1.0
 70
     8
 71
     3
 72
     8
 73
     4
 74
     0
 42
0.0000000001
 43
0.0000000001
 40
0.0
 40
0.0
 40
0.0
 40
0.0
 40
1.0
 40
1.0
 40
1.0
 40
1.0
 10
258.8707691359378
 20
462.8856827397466
 30
0.0
 10
260.3981690973524
 20
458.7264828448168
 30
0.0
 10
261.1280690789135
 20
454.6180829486038
 30
0.0
 10
261.1280690789135
 20
450.1864830605554
 30
0.0
  0
SPLINE
  5
FE
330
1F
100
AcDbEntity
  8
Linee visibili 2D
 62
     7
420
 16777215
370
     9
100
AcDbSpline
210
0.0
220
0.0
230
1.0
 70
     8
 71
     3
 72
    14
 73
    10
 74
     0
 42
0.0000000001
 43
0.0000000001
 40
0.0
 40
0.0
 40
0.0
 40
0.0
 40
1.0
 40
1.0
 40
1.0
 40
2.0
 40
2.0
 40
2.0
 40
3.0
 40
3.0
 40
3.0
 40
3.0
 10
194.1363707712662
 20
471.3895825249201
 30
0.0
 10
199.9493706244175
 20
479.6527823161741
 30
0.0
 10
209.1036703931604
 20
485.2572821745925
 30
0.0
 10
219.1070701404533
 20
486.6737821388087
 30
0.0
 10
229.1320698872005
 20
488.093682102939
 30
0.0
 10
239.5021696252297
 20
485.2396821750371
 30
0.0
 10
247.3883694260075
 20
478.8900823354415
 30
0.0
 10
250.0665693583505
 20
476.7338823899117
 30
0.0
 10
252.4391692984136
 20
474.201582453883
 30
0.0
 10
254.4171692484451
 20
471.3895825249201
 30
0.0
  0
SPLINE
  5
FF
330
1F
100
AcDbEntity
  8
Linee visibili 2D
 62
     7
420
 16777215
370
     9
100
AcDbSpline
210
0.0
220
0.0
230
1.0
 70
     8
 71
     3
 72
     8
 73
     4
 74
     0
 42
0.0000000001
 43
0.0000000001
 40
0.0
 40
0.0
 40
0.0
 40
0.0
 40
1.0
 40
1.0
 40
1.0
 40
1.0
 10
187.4254758911129
 20
450.1864830605554
 30
0.0
 10
187.4254758911129
 20
454.6180829486038
 30
0.0
 10
188.1559709223438
 20
458.7264828448168
 30
0.0
 10
189.6827708837736
 20
462.8856827397466
 30
0.0
  0
SPLINE
  5
100
330
1F
100
AcDbEntity
  8
Linee visibili 2D
 62
     7
420
 16777215
370
     9
100
AcDbSpline
210
0.0
220
0.0
230
1.0
 70
     8
 71
     3
 72
     8
 73
     4
 74
     0
 42
0.0000000001
 43
0.0000000001
 40
0.0
 40
0.0
 40
0.0
 40
0.0
 40
1.0
 40
1.0
 40
1.0
 40
1.0
 10
229.8600698688097
 20
471.5599825206154
 30
0.0
 10
229.8600698688097
 20
471.6400825185919
 30
0.0
 10
229.8268698696483
 20
471.6732825177532
 30
0.0
 10
229.7467698716719
 20
471.6732825177532
 30
0.0
  0
POLYLINE
  5
101
330
1F
100
AcDbEntity
  8
Linee visibili 2D
 62
     7
420
 16777215
370
     9
100
AcDb2dPolyline
 66
     1
 10
0.0
 20
0.0
 30
0.0
  0
VERTEX
  5
102
330
101
100
AcDbEntity
  8
Linee visibili 2D
 62
     7
420
 16777215
370
     9
100
AcDbVertex
100
AcDb2dVertex
 10
218.806870148037
 20
471.6732825177532
 30
0.0
  0
VERTEX
  5
103
330
101
100
AcDbEntity
  8
Linee visibili 2D
 62
     7
420
 16777215
370
     9
100
AcDbVertex
100
AcDb2dVertex
 10
229.7467698716719
 20
471.6732825177532
 30
0.0
  0
SEQEND
  5
104
330
101
100
AcDbEntity
  8
Linee visibili 2D
 62
     7
420
 16777215
370
     9
  0
POLYLINE
  5
105
330
1F
100
AcDbEntity
  8
Linee visibili 2D
 62
     7
420
 16777215
370
     9
100
AcDb2dPolyline
 66
     1
 10
0.0
 20
0.0
 30
0.0
  0
VERTEX
  5
106
330
105
100
AcDbEntity
  8
Linee visibili 2D
 62
     7
420
 16777215
370
     9
100
AcDbVertex
100
AcDb2dVertex
 10
229.8600698688097
 20
471.5599825206154
 30
0.0
  0
VERTEX
  5
107
330
105
100
AcDbEntity
  8
Linee visibili 2D
 62
     7
420
 16777215
370
     9
100
AcDbVertex
100
AcDb2dVertex
 10
229.860569868797
 20
471.3895825249201
 30
0.0
  0
SEQEND
  5
108
330
105
100
AcDbEntity
  8
Linee visibili 2D
 62
     7
420
 16777215
370
     9
  0
POLYLINE
  5
109
330
1F
100
AcDbEntity
  8
Linee visibili 2D
 62
     7
420
 16777215
370
     9
100
AcDb2dPolyline
 66
     1
 10
0.0
 20
0.0
 30
0.0
  0
VERTEX
  5
10A
330
109
100
AcDbEntity
  8
Linee visibili 2D
 62
     7
420
 16777215
370
     9
100
AcDbVertex
100
AcDb2dVertex
 10
227.3419699324222
 20
371.5019300636705
 30
0.0
  0
VERTEX
  5
10B
330
109
100
AcDbEntity
  8
Linee visibili 2D
 62
     7
420
 16777215
370
     9
100
AcDbVertex
100
AcDb2dVertex
 10
227.3409699324475
 20
371.5029300636452
 30
0.0
  0
SEQEND
  5
10C
330
109
100
AcDbEntity
  8
Linee visibili 2D
 62
     7
420
 16777215
370
     9
  0
POLYLINE
  5
10D
330
1F
100
AcDbEntity
  8
Linee visibili 2D
 62
     7
420
 16777215
370
     9
100
AcDb2dPolyline
 66
     1
 10
0.0
 20
0.0
 30
0.0
  0
VERTEX
  5
10E
330
10D
100
AcDbEntity
  8
Linee visibili 2D
 62
     7
420
 16777215
370
     9
100
AcDbVertex
100
AcDb2dVertex
 10
227.3951699310783
 20
371.406230066088
 30
0.0
  0
VERTEX
  5
10F
330
10D
100
AcDbEntity
  8
Linee visibili 2D
 62
     7
420
 16777215
370
     9
100
AcDbVertex
100
AcDb2dVertex
 10
227.3951699310783
 20
366.4492301913124
 30
0.0
  0
SEQEND
  5
110
330
10D
100
AcDbEntity
  8
Linee visibili 2D
 62
     7
420
 16777215
370
     9
  0
POLYLINE
  5
111
330
1F
100
AcDbEntity
  8
Linee visibili 2D
 62
     7
420
 16777215
370
     9
100
AcDb2dPolyline
 66
     1
 10
0.0
 20
0.0
 30
0.0
  0
VERTEX
  5
112
330
111
100
AcDbEntity
  8
Linee visibili 2D
 62
     7
420
 16777215
370
     9
100
AcDbVertex
100
AcDb2dVertex
 10
227.1114758911135
 20
378.8461298781403
 30
0.0
  0
VERTEX
  5
113
330
111
100
AcDbEntity
  8
Linee visibili 2D
 62
     7
420
 16777215
370
     9
100
AcDbVertex
100
AcDb2dVertex
 10
227.1398699375277
 20
378.8178298788553
 30
0.0
  0
SEQEND
  5
114
330
111
100
AcDbEntity
  8
Linee visibili 2D
 62
     7
420
 16777215
370
     9
  0
POLYLINE
  5
115
330
1F
100
AcDbEntity
  8
Linee visibili 2D
 62
     7
420
 16777215
370
     9
100
AcDb2dPolyline
 66
     1
 10
0.0
 20
0.0
 30
0.0
  0
VERTEX
  5
116
330
115
100
AcDbEntity
  8
Linee visibili 2D
 62
     7
420
 16777215
370
     9
100
AcDbVertex
100
AcDb2dVertex
 10
227.1398699375277
 20
373.3476300170441
 30
0.0
  0
VERTEX
  5
117
330
115
100
AcDbEntity
  8
Linee visibili 2D
 62
     7
420
 16777215
370
     9
100
AcDbVertex
100
AcDb2dVertex
 10
227.1114758911135
 20
373.3183300177843
 30
0.0
  0
SEQEND
  5
118
330
115
100
AcDbEntity
  8
Linee visibili 2D
 62
     7
420
 16777215
370
     9
  0
POLYLINE
  5
119
330
1F
100
AcDbEntity
  8
Linee visibili 2D
 62
     7
420
 16777215
370
     9
100
AcDb2dPolyline
 66
     1
 10
0.0
 20
0.0
 30
0.0
  0
VERTEX
  5
11A
330
119
100
AcDbEntity
  8
Linee visibili 2D
 62
     7
420
 16777215
370
     9
100
AcDbVertex
100
AcDb2dVertex
 10
221.4420700814662
 20
373.3183300177843
 30
0.0
  0
VERTEX
  5
11B
330
119
100
AcDbEntity
  8
Linee visibili 2D
 62
     7
420
 16777215
370
     9
100
AcDbVertex
100
AcDb2dVertex
 10
221.4137700821812
 20
373.3476300170441
 30
0.0
  0
SEQEND
  5
11C
330
119
100
AcDbEntity
  8
Linee visibili 2D
 62
     7
420
 16777215
370
     9
  0
POLYLINE
  5
11D
330
1F
100
AcDbEntity
  8
Linee visibili 2D
 62
     7
420
 16777215
370
     9
100
AcDb2dPolyline
 66
     1
 10
0.0
 20
0.0
 30
0.0
  0
VERTEX
  5
11E
330
11D
100
AcDbEntity
  8
Linee visibili 2D
 62
     7
420
 16777215
370
     9
100
AcDbVertex
100
AcDb2dVertex
 10
221.4137700821812
 20
378.8178298788553
 30
0.0
  0
VERTEX
  5
11F
330
11D
100
AcDbEntity
  8
Linee visibili 2D
 62
     7
420
 16777215
370
     9
100
AcDbVertex
100
AcDb2dVertex
 10
221.4420700814662
 20
378.8461298781403
 30
0.0
  0
SEQEND
  5
120
330
11D
100
AcDbEntity
  8
Linee visibili 2D
 62
     7
420
 16777215
370
     9
  0
SPLINE
  5
121
330
1F
100
AcDbEntity
  8
Linee visibili 2D
 62
     7
420
 16777215
370
     9
100
AcDbSpline
210
0.0
220
0.0
230
1.0
 70
     8
 71
     3
 72
     8
 73
     4
 74
     0
 42
0.0000000001
 43
0.0000000001
 40
0.0
 40
0.0
 40
0.0
 40
0.0
 40
1.0
 40
1.0
 40
1.0
 40
1.0
 10
219.9967701179776
 20
379.9374298505718
 30
0.0
 10
219.9967701179776
 20
380.0180396118158
 30
0.0
 10
220.0299701171389
 20
380.051229847697
 30
0.0
 10
220.1100701151154
 20
380.051229847697
 30
0.0
  0
SPLINE
  5
122
330
1F
100
AcDbEntity
  8
Linee visibili 2D
 62
     7
420
 16777215
370
     9
100
AcDbSpline
210
0.0
220
0.0
230
1.0
 70
     8
 71
     3
 72
     8
 73
     4
 74
     0
 42
0.0000000001
 43
0.0000000001
 40
0.0
 40
0.0
 40
0.0
 40
0.0
 40
1.0
 40
1.0
 40
1.0
 40
1.0
 10
220.1100701151154
 20
372.1132300482277
 30
0.0
 10
220.0299701171389
 20
372.1132300482277
 30
0.0
 10
219.9967701179776
 20
372.146430047389
 30
0.0
 10
219.9967701179776
 20
372.2275300453402
 30
0.0
  0
SPLINE
  5
123
330
1F
100
AcDbEntity
  8
Linee visibili 2D
 62
     7
420
 16777215
370
     9
100
AcDbSpline
210
0.0
220
0.0
230
1.0
 70
     8
 71
     3
 72
     8
 73
     4
 74
     0
 42
0.0000000001
 43
0.0000000001
 40
0.0
 40
0.0
 40
0.0
 40
0.0
 40
1.0
 40
1.0
 40
1.0
 40
1.0
 10
221.3004758911129
 20
380.051229847697
 30
0.0
 10
221.3805700830199
 20
380.051229847697
 30
0.0
 10
221.4137700821812
 20
380.0180396118158
 30
0.0
 10
221.4137700821812
 20
379.9374298505718
 30
0.0
  0
SPLINE
  5
124
330
1F
100
AcDbEntity
  8
Linee visibili 2D
 62
     7
420
 16777215
370
     9
100
AcDbSpline
210
0.0
220
0.0
230
1.0
 70
     8
 71
     3
 72
     8
 73
     4
 74
     0
 42
0.0000000001
 43
0.0000000001
 40
0.0
 40
0.0
 40
0.0
 40
0.0
 40
1.0
 40
1.0
 40
1.0
 40
1.0
 10
221.4137700821812
 20
372.2275300453402
 30
0.0
 10
221.4137700821812
 20
372.146430047389
 30
0.0
 10
221.3805700830199
 20
372.1132300482277
 30
0.0
 10
221.3004758911129
 20
372.1132300482277
 30
0.0
  0
POLYLINE
  5
125
330
1F
100
AcDbEntity
  8
Linee visibili 2D
 62
     7
420
 16777215
370
     9
100
AcDb2dPolyline
 66
     1
 10
0.0
 20
0.0
 30
0.0
  0
VERTEX
  5
126
330
125
100
AcDbEntity
  8
Linee visibili 2D
 62
     7
420
 16777215
370
     9
100
AcDbVertex
100
AcDb2dVertex
 10
220.1100701151154
 20
380.051229847697
 30
0.0
  0
VERTEX
  5
127
330
125
100
AcDbEntity
  8
Linee visibili 2D
 62
     7
420
 16777215
370
     9
100
AcDbVertex
100
AcDb2dVertex
 10
221.3004758911129
 20
380.051229847697
 30
0.0
  0
SEQEND
  5
128
330
125
100
AcDbEntity
  8
Linee visibili 2D
 62
     7
420
 16777215
370
     9
  0
POLYLINE
  5
129
330
1F
100
AcDbEntity
  8
Linee visibili 2D
 62
     7
420
 16777215
370
     9
100
AcDb2dPolyline
 66
     1
 10
0.0
 20
0.0
 30
0.0
  0
VERTEX
  5
12A
330
129
100
AcDbEntity
  8
Linee visibili 2D
 62
     7
420
 16777215
370
     9
100
AcDbVertex
100
AcDb2dVertex
 10
221.3004758911129
 20
372.1132300482277
 30
0.0
  0
VERTEX
  5
12B
330
129
100
AcDbEntity
  8
Linee visibili 2D
 62
     7
420
 16777215
370
     9
100
AcDbVertex
100
AcDb2dVertex
 10
220.1100701151154
 20
372.1132300482277
 30
0.0
  0
SEQEND
  5
12C
330
129
100
AcDbEntity
  8
Linee visibili 2D
 62
     7
420
 16777215
370
     9
  0
POLYLINE
  5
12D
330
1F
100
AcDbEntity
  8
Linee visibili 2D
 62
     7
420
 16777215
370
     9
100
AcDb2dPolyline
 66
     1
 10
0.0
 20
0.0
 30
0.0
  0
VERTEX
  5
12E
330
12D
100
AcDbEntity
  8
Linee visibili 2D
 62
     7
420
 16777215
370
     9
100
AcDbVertex
100
AcDb2dVertex
 10
221.0167700922102
 20
366.4472301913629
 30
0.0
  0
VERTEX
  5
12F
330
12D
100
AcDbEntity
  8
Linee visibili 2D
 62
     7
420
 16777215
370
     9
100
AcDbVertex
100
AcDb2dVertex
 10
221.0167700922102
 20
366.4521301912391
 30
0.0
  0
SEQEND
  5
130
330
12D
100
AcDbEntity
  8
Linee visibili 2D
 62
     7
420
 16777215
370
     9
  0
SPLINE
  5
131
330
1F
100
AcDbEntity
  8
Linee visibili 2D
 62
     7
420
 16777215
370
     9
100
AcDbSpline
210
0.0
220
0.0
230
1.0
 70
     8
 71
     3
 72
     8
 73
     4
 74
     0
 42
0.0000000001
 43
0.0000000001
 40
0.0
 40
0.0
 40
0.0
 40
0.0
 40
1.0
 40
1.0
 40
1.0
 40
1.0
 10
228.4440699045808
 20
380.051229847697
 30
0.0
 10
228.5240699025599
 20
380.051229847697
 30
0.0
 10
228.5572699017212
 20
380.0180396118158
 30
0.0
 10
228.5572699017212
 20
379.9374298505718
 30
0.0
  0
SPLINE
  5
132
330
1F
100
AcDbEntity
  8
Linee visibili 2D
 62
     7
420
 16777215
370
     9
100
AcDbSpline
210
0.0
220
0.0
230
1.0
 70
     8
 71
     3
 72
     8
 73
     4
 74
     0
 42
0.0000000001
 43
0.0000000001
 40
0.0
 40
0.0
 40
0.0
 40
0.0
 40
1.0
 40
1.0
 40
1.0
 40
1.0
 10
228.5572699017212
 20
372.2275300453402
 30
0.0
 10
228.5572699017212
 20
372.146430047389
 30
0.0
 10
228.5240699025599
 20
372.1132300482277
 30
0.0
 10
228.4440699045808
 20
372.1132300482277
 30
0.0
  0
SPLINE
  5
133
330
1F
100
AcDbEntity
  8
Linee visibili 2D
 62
     7
420
 16777215
370
     9
100
AcDbSpline
210
0.0
220
0.0
230
1.0
 70
     8
 71
     3
 72
     8
 73
     4
 74
     0
 42
0.0000000001
 43
0.0000000001
 40
0.0
 40
0.0
 40
0.0
 40
0.0
 40
1.0
 40
1.0
 40
1.0
 40
1.0
 10
227.1398699375277
 20
379.9374298505718
 30
0.0
 10
227.1398699375277
 20
380.0180396118158
 30
0.0
 10
227.173069936689
 20
380.051229847697
 30
0.0
 10
227.253069934668
 20
380.051229847697
 30
0.0
  0
SPLINE
  5
134
330
1F
100
AcDbEntity
  8
Linee visibili 2D
 62
     7
420
 16777215
370
     9
100
AcDbSpline
210
0.0
220
0.0
230
1.0
 70
     8
 71
     3
 72
     8
 73
     4
 74
     0
 42
0.0000000001
 43
0.0000000001
 40
0.0
 40
0.0
 40
0.0
 40
0.0
 40
1.0
 40
1.0
 40
1.0
 40
1.0
 10
227.253069934668
 20
372.1132300482277
 30
0.0
 10
227.173069936689
 20
372.1132300482277
 30
0.0
 10
227.1398699375277
 20
372.146430047389
 30
0.0
 10
227.1398699375277
 20
372.2275300453402
 30
0.0
  0
POLYLINE
  5
135
330
1F
100
AcDbEntity
  8
Linee visibili 2D
 62
     7
420
 16777215
370
     9
100
AcDb2dPolyline
 66
     1
 10
0.0
 20
0.0
 30
0.0
  0
VERTEX
  5
136
330
135
100
AcDbEntity
  8
Linee visibili 2D
 62
     7
420
 16777215
370
     9
100
AcDbVertex
100
AcDb2dVertex
 10
227.253069934668
 20
380.051229847697
 30
0.0
  0
VERTEX
  5
137
330
135
100
AcDbEntity
  8
Linee visibili 2D
 62
     7
420
 16777215
370
     9
100
AcDbVertex
100
AcDb2dVertex
 10
228.4440699045808
 20
380.051229847697
 30
0.0
  0
SEQEND
  5
138
330
135
100
AcDbEntity
  8
Linee visibili 2D
 62
     7
420
 16777215
370
     9
  0
POLYLINE
  5
139
330
1F
100
AcDbEntity
  8
Linee visibili 2D
 62
     7
420
 16777215
370
     9
100
AcDb2dPolyline
 66
     1
 10
0.0
 20
0.0
 30
0.0
  0
VERTEX
  5
13A
330
139
100
AcDbEntity
  8
Linee visibili 2D
 62
     7
420
 16777215
370
     9
100
AcDbVertex
100
AcDb2dVertex
 10
228.4440699045808
 20
372.1132300482277
 30
0.0
  0
VERTEX
  5
13B
330
139
100
AcDbEntity
  8
Linee visibili 2D
 62
     7
420
 16777215
370
     9
100
AcDbVertex
100
AcDb2dVertex
 10
227.253069934668
 20
372.1132300482277
 30
0.0
  0
SEQEND
  5
13C
330
139
100
AcDbEntity
  8
Linee visibili 2D
 62
     7
420
 16777215
370
     9
  0
POLYLINE
  5
13D
330
1F
100
AcDbEntity
  8
Linee visibili 2D
 62
     7
420
 16777215
370
     9
100
AcDb2dPolyline
 66
     1
 10
0.0
 20
0.0
 30
0.0
  0
VERTEX
  5
13E
330
13D
100
AcDbEntity
  8
Linee visibili 2D
 62
     7
420
 16777215
370
     9
100
AcDbVertex
100
AcDb2dVertex
 10
195.9923707243797
 20
392.0361295449329
 30
0.0
  0
VERTEX
  5
13F
330
13D
100
AcDbEntity
  8
Linee visibili 2D
 62
     7
420
 16777215
370
     9
100
AcDbVertex
100
AcDb2dVertex
 10
196.0465707230105
 20
398.2719293874034
 30
0.0
  0
SEQEND
  5
140
330
13D
100
AcDbEntity
  8
Linee visibili 2D
 62
     7
420
 16777215
370
     9
  0
SPLINE
  5
141
330
1F
100
AcDbEntity
  8
Linee visibili 2D
 62
     7
420
 16777215
370
     9
100
AcDbSpline
210
0.0
220
0.0
230
1.0
 70
     8
 71
     3
 72
     8
 73
     4
 74
     0
 42
0.0000000001
 43
0.0000000001
 40
0.0
 40
0.0
 40
0.0
 40
0.0
 40
1.0
 40
1.0
 40
1.0
 40
1.0
 10
187.5387709379356
 20
383.5317297597721
 30
0.0
 10
187.4591709399465
 20
383.5317297597721
 30
0.0
 10
187.4259709407852
 20
383.5649297589334
 30
0.0
 10
187.4254758911129
 20
383.6445297569225
 30
0.0
  0
POLYLINE
  5
142
330
1F
100
AcDbEntity
  8
Linee visibili 2D
 62
     7
420
 16777215
370
     9
100
AcDb2dPolyline
 66
     1
 10
0.0
 20
0.0
 30
0.0
  0
VERTEX
  5
143
330
142
100
AcDbEntity
  8
Linee visibili 2D
 62
     7
420
 16777215
370
     9
100
AcDbVertex
100
AcDb2dVertex
 10
261.2013690770618
 20
392.0361295449329
 30
0.0
  0
VERTEX
  5
144
330
142
100
AcDbEntity
  8
Linee visibili 2D
 62
     7
420
 16777215
370
     9
100
AcDbVertex
100
AcDb2dVertex
 10
261.1280690789135
 20
383.6450396118162
 30
0.0
  0
SEQEND
  5
145
330
142
100
AcDbEntity
  8
Linee visibili 2D
 62
     7
420
 16777215
370
     9
  0
POLYLINE
  5
146
330
1F
100
AcDbEntity
  8
Linee visibili 2D
 62
     7
420
 16777215
370
     9
100
AcDb2dPolyline
 66
     1
 10
0.0
 20
0.0
 30
0.0
  0
VERTEX
  5
147
330
146
100
AcDbEntity
  8
Linee visibili 2D
 62
     7
420
 16777215
370
     9
100
AcDbVertex
100
AcDb2dVertex
 10
227.1114758911135
 20
383.2485297669263
 30
0.0
  0
VERTEX
  5
148
330
146
100
AcDbEntity
  8
Linee visibili 2D
 62
     7
420
 16777215
370
     9
100
AcDbVertex
100
AcDb2dVertex
 10
227.1114758911135
 20
376.0829299479447
 30
0.0
  0
SEQEND
  5
149
330
146
100
AcDbEntity
  8
Linee visibili 2D
 62
     7
420
 16777215
370
     9
  0
POLYLINE
  5
14A
330
1F
100
AcDbEntity
  8
Linee visibili 2D
 62
     7
420
 16777215
370
     9
100
AcDb2dPolyline
 66
     1
 10
0.0
 20
0.0
 30
0.0
  0
VERTEX
  5
14B
330
14A
100
AcDbEntity
  8
Linee visibili 2D
 62
     7
420
 16777215
370
     9
100
AcDbVertex
100
AcDb2dVertex
 10
221.4420700814662
 20
383.2485297669263
 30
0.0
  0
VERTEX
  5
14C
330
14A
100
AcDbEntity
  8
Linee visibili 2D
 62
     7
420
 16777215
370
     9
100
AcDbVertex
100
AcDb2dVertex
 10
221.4420700814662
 20
378.6274298836652
 30
0.0
  0
SEQEND
  5
14D
330
14A
100
AcDbEntity
  8
Linee visibili 2D
 62
     7
420
 16777215
370
     9
  0
POLYLINE
  5
14E
330
1F
100
AcDbEntity
  8
Linee visibili 2D
 62
     7
420
 16777215
370
     9
100
AcDb2dPolyline
 66
     1
 10
0.0
 20
0.0
 30
0.0
  0
VERTEX
  5
14F
330
14E
100
AcDbEntity
  8
Linee visibili 2D
 62
     7
420
 16777215
370
     9
100
AcDbVertex
100
AcDb2dVertex
 10
227.1114758911135
 20
371.8300396118157
 30
0.0
  0
VERTEX
  5
150
330
14E
100
AcDbEntity
  8
Linee visibili 2D
 62
     7
420
 16777215
370
     9
100
AcDbVertex
100
AcDb2dVertex
 10
227.1114758911135
 20
376.0829299479447
 30
0.0
  0
SEQEND
  5
151
330
14E
100
AcDbEntity
  8
Linee visibili 2D
 62
     7
420
 16777215
370
     9
  0
POLYLINE
  5
152
330
1F
100
AcDbEntity
  8
Linee visibili 2D
 62
     7
420
 16777215
370
     9
100
AcDb2dPolyline
 66
     1
 10
0.0
 20
0.0
 30
0.0
  0
VERTEX
  5
153
330
152
100
AcDbEntity
  8
Linee visibili 2D
 62
     7
420
 16777215
370
     9
100
AcDbVertex
100
AcDb2dVertex
 10
221.4420700814662
 20
378.6274298836652
 30
0.0
  0
VERTEX
  5
154
330
152
100
AcDbEntity
  8
Linee visibili 2D
 62
     7
420
 16777215
370
     9
100
AcDbVertex
100
AcDb2dVertex
 10
221.4420700814662
 20
378.4003298894022
 30
0.0
  0
SEQEND
  5
155
330
152
100
AcDbEntity
  8
Linee visibili 2D
 62
     7
420
 16777215
370
     9
  0
POLYLINE
  5
156
330
1F
100
AcDbEntity
  8
Linee visibili 2D
 62
     7
420
 16777215
370
     9
100
AcDb2dPolyline
 66
     1
 10
0.0
 20
0.0
 30
0.0
  0
VERTEX
  5
157
330
156
100
AcDbEntity
  8
Linee visibili 2D
 62
     7
420
 16777215
370
     9
100
AcDbVertex
100
AcDb2dVertex
 10
222.0089700671451
 20
383.2485297669263
 30
0.0
  0
VERTEX
  5
158
330
156
100
AcDbEntity
  8
Linee visibili 2D
 62
     7
420
 16777215
370
     9
100
AcDbVertex
100
AcDb2dVertex
 10
222.0089700671451
 20
383.5317297597721
 30
0.0
  0
SEQEND
  5
159
330
156
100
AcDbEntity
  8
Linee visibili 2D
 62
     7
420
 16777215
370
     9
  0
POLYLINE
  5
15A
330
1F
100
AcDbEntity
  8
Linee visibili 2D
 62
     7
420
 16777215
370
     9
100
AcDb2dPolyline
 66
     1
 10
0.0
 20
0.0
 30
0.0
  0
VERTEX
  5
15B
330
15A
100
AcDbEntity
  8
Linee visibili 2D
 62
     7
420
 16777215
370
     9
100
AcDbVertex
100
AcDb2dVertex
 10
226.5445699525662
 20
383.5317297597721
 30
0.0
  0
VERTEX
  5
15C
330
15A
100
AcDbEntity
  8
Linee visibili 2D
 62
     7
420
 16777215
370
     9
100
AcDbVertex
100
AcDb2dVertex
 10
226.5445699525662
 20
383.2485297669263
 30
0.0
  0
SEQEND
  5
15D
330
15A
100
AcDbEntity
  8
Linee visibili 2D
 62
     7
420
 16777215
370
     9
  0
POLYLINE
  5
15E
330
1F
100
AcDbEntity
  8
Linee visibili 2D
 62
     7
420
 16777215
370
     9
100
AcDb2dPolyline
 66
     1
 10
0.0
 20
0.0
 30
0.0
  0
VERTEX
  5
15F
330
15E
100
AcDbEntity
  8
Linee visibili 2D
 62
     7
420
 16777215
370
     9
100
AcDbVertex
100
AcDb2dVertex
 10
221.4420700814662
 20
383.2485297669263
 30
0.0
  0
VERTEX
  5
160
330
15E
100
AcDbEntity
  8
Linee visibili 2D
 62
     7
420
 16777215
370
     9
100
AcDbVertex
100
AcDb2dVertex
 10
227.1114758911135
 20
383.2485297669263
 30
0.0
  0
SEQEND
  5
161
330
15E
100
AcDbEntity
  8
Linee visibili 2D
 62
     7
420
 16777215
370
     9
  0
POLYLINE
  5
162
330
1F
100
AcDbEntity
  8
Linee visibili 2D
 62
     7
420
 16777215
370
     9
100
AcDb2dPolyline
 66
     1
 10
0.0
 20
0.0
 30
0.0
  0
VERTEX
  5
163
330
162
100
AcDbEntity
  8
Linee visibili 2D
 62
     7
420
 16777215
370
     9
100
AcDbVertex
100
AcDb2dVertex
 10
221.4420700814662
 20
378.4003298894022
 30
0.0
  0
VERTEX
  5
164
330
162
100
AcDbEntity
  8
Linee visibili 2D
 62
     7
420
 16777215
370
     9
100
AcDbVertex
100
AcDb2dVertex
 10
221.4420700814662
 20
372.0331300502512
 30
0.0
  0
SEQEND
  5
165
330
162
100
AcDbEntity
  8
Linee visibili 2D
 62
     7
420
 16777215
370
     9
  0
SPLINE
  5
166
330
1F
100
AcDbEntity
  8
Linee visibili 2D
 62
     7
420
 16777215
370
     9
100
AcDbSpline
210
0.0
220
0.0
230
1.0
 70
     8
 71
     3
 72
     8
 73
     4
 74
     0
 42
0.0000000001
 43
0.0000000001
 40
0.0
 40
0.0
 40
0.0
 40
0.0
 40
1.0
 40
1.0
 40
1.0
 40
1.0
 10
221.4420700814662
 20
371.7372300577263
 30
0.0
 10
221.4420700814662
 20
371.7372300577263
 30
0.0
 10
221.1588700886204
 20
371.5878300615004
 30
0.0
 10
221.1588700886204
 20
371.5576300622633
 30
0.0
  0
POLYLINE
  5
167
330
1F
100
AcDbEntity
  8
Linee visibili 2D
 62
     7
420
 16777215
370
     9
100
AcDb2dPolyline
 66
     1
 10
0.0
 20
0.0
 30
0.0
  0
VERTEX
  5
168
330
167
100
AcDbEntity
  8
Linee visibili 2D
 62
     7
420
 16777215
370
     9
100
AcDbVertex
100
AcDb2dVertex
 10
221.4420700814662
 20
372.0331300502512
 30
0.0
  0
VERTEX
  5
169
330
167
100
AcDbEntity
  8
Linee visibili 2D
 62
     7
420
 16777215
370
     9
100
AcDbVertex
100
AcDb2dVertex
 10
221.4420700814662
 20
371.7372300577263
 30
0.0
  0
SEQEND
  5
16A
330
167
100
AcDbEntity
  8
Linee visibili 2D
 62
     7
420
 16777215
370
     9
  0
POLYLINE
  5
16B
330
1F
100
AcDbEntity
  8
Linee visibili 2D
 62
     7
420
 16777215
370
     9
100
AcDb2dPolyline
 66
     1
 10
0.0
 20
0.0
 30
0.0
  0
VERTEX
  5
16C
330
16B
100
AcDbEntity
  8
Linee visibili 2D
 62
     7
420
 16777215
370
     9
100
AcDbVertex
100
AcDb2dVertex
 10
221.1588700886204
 20
371.5576300622633
 30
0.0
  0
VERTEX
  5
16D
330
16B
100
AcDbEntity
  8
Linee visibili 2D
 62
     7
420
 16777215
370
     9
100
AcDbVertex
100
AcDb2dVertex
 10
221.1588700886204
 20
366.4462301913882
 30
0.0
  0
SEQEND
  5
16E
330
16B
100
AcDbEntity
  8
Linee visibili 2D
 62
     7
420
 16777215
370
     9
  0
SPLINE
  5
16F
330
1F
100
AcDbEntity
  8
Linee visibili 2D
 62
     7
420
 16777215
370
     9
100
AcDbSpline
210
0.0
220
0.0
230
1.0
 70
     8
 71
     3
 72
     8
 73
     4
 74
     0
 42
0.0000000001
 43
0.0000000001
 40
0.0
 40
0.0
 40
0.0
 40
0.0
 40
1.0
 40
1.0
 40
1.0
 40
1.0
 10
227.1114758911135
 20
377.5776299101853
 30
0.0
 10
227.1207699380102
 20
377.5746299102611
 30
0.0
 10
227.1305699377626
 20
377.5722299103218
 30
0.0
 10
227.1398699375277
 20
377.569329910395
 30
0.0
  0
SPLINE
  5
170
330
1F
100
AcDbEntity
  8
Linee visibili 2D
 62
     7
420
 16777215
370
     9
100
AcDbSpline
210
0.0
220
0.0
230
1.0
 70
     8
 71
     3
 72
     8
 73
     4
 74
     0
 42
0.0000000001
 43
0.0000000001
 40
0.0
 40
0.0
 40
0.0
 40
0.0
 40
1.0
 40
1.0
 40
1.0
 40
1.0
 10
227.1398699375277
 20
374.595629985517
 30
0.0
 10
227.1305699377626
 20
374.5927299855903
 30
0.0
 10
227.1207699380102
 20
374.5908299856383
 30
0.0
 10
227.1114758911135
 20
374.5869299857368
 30
0.0
  0
SPLINE
  5
171
330
1F
100
AcDbEntity
  8
Linee visibili 2D
 62
     7
420
 16777215
370
     9
100
AcDbSpline
210
0.0
220
0.0
230
1.0
 70
     8
 71
     3
 72
     8
 73
     4
 74
     0
 42
0.0000000001
 43
0.0000000001
 40
0.0
 40
0.0
 40
0.0
 40
0.0
 40
1.0
 40
1.0
 40
1.0
 40
1.0
 10
221.4420700814662
 20
374.5869299857368
 30
0.0
 10
221.4327700817012
 20
374.5908299856383
 30
0.0
 10
221.4235700819336
 20
374.5927299855903
 30
0.0
 10
221.4137700821812
 20
374.595629985517
 30
0.0
  0
SPLINE
  5
172
330
1F
100
AcDbEntity
  8
Linee visibili 2D
 62
     7
420
 16777215
370
     9
100
AcDbSpline
210
0.0
220
0.0
230
1.0
 70
     8
 71
     3
 72
     8
 73
     4
 74
     0
 42
0.0000000001
 43
0.0000000001
 40
0.0
 40
0.0
 40
0.0
 40
0.0
 40
1.0
 40
1.0
 40
1.0
 40
1.0
 10
221.4137700821812
 20
377.569329910395
 30
0.0
 10
221.4235700819336
 20
377.5722299103218
 30
0.0
 10
221.4327700817012
 20
377.5746299102611
 30
0.0
 10
221.4420700814662
 20
377.5776299101853
 30
0.0
  0
POLYLINE
  5
173
330
1F
100
AcDbEntity
  8
Linee visibili 2D
 62
     7
420
 16777215
370
     9
100
AcDb2dPolyline
 66
     1
 10
0.0
 20
0.0
 30
0.0
  0
VERTEX
  5
174
330
173
100
AcDbEntity
  8
Linee visibili 2D
 62
     7
420
 16777215
370
     9
100
AcDbVertex
100
AcDb2dVertex
 10
219.9967701179776
 20
372.2275300453402
 30
0.0
  0
VERTEX
  5
175
330
173
100
AcDbEntity
  8
Linee visibili 2D
 62
     7
420
 16777215
370
     9
100
AcDbVertex
100
AcDb2dVertex
 10
219.9967701179776
 20
376.0829299479447
 30
0.0
  0
SEQEND
  5
176
330
173
100
AcDbEntity
  8
Linee visibili 2D
 62
     7
420
 16777215
370
     9
  0
POLYLINE
  5
177
330
1F
100
AcDbEntity
  8
Linee visibili 2D
 62
     7
420
 16777215
370
     9
100
AcDb2dPolyline
 66
     1
 10
0.0
 20
0.0
 30
0.0
  0
VERTEX
  5
178
330
177
100
AcDbEntity
  8
Linee visibili 2D
 62
     7
420
 16777215
370
     9
100
AcDbVertex
100
AcDb2dVertex
 10
219.9967701179776
 20
376.0829299479447
 30
0.0
  0
VERTEX
  5
179
330
177
100
AcDbEntity
  8
Linee visibili 2D
 62
     7
420
 16777215
370
     9
100
AcDbVertex
100
AcDb2dVertex
 10
219.9967701179776
 20
379.9374298505718
 30
0.0
  0
SEQEND
  5
17A
330
177
100
AcDbEntity
  8
Linee visibili 2D
 62
     7
420
 16777215
370
     9
  0
POLYLINE
  5
17B
330
1F
100
AcDbEntity
  8
Linee visibili 2D
 62
     7
420
 16777215
370
     9
100
AcDb2dPolyline
 66
     1
 10
0.0
 20
0.0
 30
0.0
  0
VERTEX
  5
17C
330
17B
100
AcDbEntity
  8
Linee visibili 2D
 62
     7
420
 16777215
370
     9
100
AcDbVertex
100
AcDb2dVertex
 10
221.4137700821812
 20
376.0829299479447
 30
0.0
  0
VERTEX
  5
17D
330
17B
100
AcDbEntity
  8
Linee visibili 2D
 62
     7
420
 16777215
370
     9
100
AcDbVertex
100
AcDb2dVertex
 10
221.4137700821812
 20
379.9374298505718
 30
0.0
  0
SEQEND
  5
17E
330
17B
100
AcDbEntity
  8
Linee visibili 2D
 62
     7
420
 16777215
370
     9
  0
POLYLINE
  5
17F
330
1F
100
AcDbEntity
  8
Linee visibili 2D
 62
     7
420
 16777215
370
     9
100
AcDb2dPolyline
 66
     1
 10
0.0
 20
0.0
 30
0.0
  0
VERTEX
  5
180
330
17F
100
AcDbEntity
  8
Linee visibili 2D
 62
     7
420
 16777215
370
     9
100
AcDbVertex
100
AcDb2dVertex
 10
221.4137700821812
 20
372.2275300453402
 30
0.0
  0
VERTEX
  5
181
330
17F
100
AcDbEntity
  8
Linee visibili 2D
 62
     7
420
 16777215
370
     9
100
AcDbVertex
100
AcDb2dVertex
 10
221.4137700821812
 20
376.0829299479447
 30
0.0
  0
SEQEND
  5
182
330
17F
100
AcDbEntity
  8
Linee visibili 2D
 62
     7
420
 16777215
370
     9
  0
SPLINE
  5
183
330
1F
100
AcDbEntity
  8
Linee visibili 2D
 62
     7
420
 16777215
370
     9
100
AcDbSpline
210
0.0
220
0.0
230
1.0
 70
     8
 71
     3
 72
     8
 73
     4
 74
     0
 42
0.0000000001
 43
0.0000000001
 40
0.0
 40
0.0
 40
0.0
 40
0.0
 40
1.0
 40
1.0
 40
1.0
 40
1.0
 10
227.3951699310783
 20
366.4824301904737
 30
0.0
 10
227.4073699307701
 20
366.4804301905242
 30
0.0
 10
227.5367699275012
 20
366.4853301904004
 30
0.0
 10
227.5367699275012
 20
366.4531301912139
 30
0.0
  0
SPLINE
  5
184
330
1F
100
AcDbEntity
  8
Linee visibili 2D
 62
     7
420
 16777215
370
     9
100
AcDbSpline
210
0.0
220
0.0
230
1.0
 70
     8
 71
     3
 72
     8
 73
     4
 74
     0
 42
0.0000000001
 43
0.0000000001
 40
0.0
 40
0.0
 40
0.0
 40
0.0
 40
1.0
 40
1.0
 40
1.0
 40
1.0
 10
227.5367699275012
 20
366.4531301912139
 30
0.0
 10
227.5367699275012
 20
366.441330191512
 30
0.0
 10
227.3390699324955
 20
366.4492301913124
 30
0.0
 10
227.3434758911135
 20
366.4492301913124
 30
0.0
  0
SPLINE
  5
185
330
1F
100
AcDbEntity
  8
Linee visibili 2D
 62
     7
420
 16777215
370
     9
100
AcDbSpline
210
0.0
220
0.0
230
1.0
 70
     8
 71
     3
 72
    11
 73
     7
 74
     0
 42
0.0000000001
 43
0.0000000001
 40
0.0
 40
0.0
 40
0.0
 40
0.0
 40
1.0
 40
1.0
 40
1.0
 40
2.0
 40
2.0
 40
2.0
 40
2.0
 10
229.9469698666144
 20
329.8212311166135
 30
0.0
 10
229.9469698666144
 20
326.7314311946684
 30
0.0
 10
227.3673699317805
 20
324.1503312598725
 30
0.0
 10
224.2770700098481
 20
324.1503312598725
 30
0.0
 10
221.1866700879182
 20
324.1503312598725
 30
0.0
 10
218.6066701530945
 20
326.7304311946937
 30
0.0
 10
218.6066701530945
 20
329.8212311166135
 30
0.0
  0
SPLINE
  5
186
330
1F
100
AcDbEntity
  8
Linee visibili 2D
 62
     7
420
 16777215
370
     9
100
AcDbSpline
210
0.0
220
0.0
230
1.0
 70
     8
 71
     3
 72
    11
 73
     7
 74
     0
 42
0.0000000001
 43
0.0000000001
 40
0.0
 40
0.0
 40
0.0
 40
0.0
 40
1.0
 40
1.0
 40
1.0
 40
2.0
 40
2.0
 40
2.0
 40
2.0
 10
218.6066701530945
 20
329.8212311166135
 30
0.0
 10
218.6066701530945
 20
332.912039611816
 30
0.0
 10
221.1871700879056
 20
335.4911309733798
 30
0.0
 10
224.2770700098481
 20
335.4911309733798
 30
0.0
 10
227.3668699317932
 20
335.4911309733798
 30
0.0
 10
229.9469698666144
 20
332.911131038556
 30
0.0
 10
229.9469698666144
 20
329.8212311166135
 30
0.0
  0
SPLINE
  5
187
330
1F
100
AcDbEntity
  8
Linee visibili 2D
 62
     7
420
 16777215
370
     9
100
AcDbSpline
210
0.0
220
0.0
230
1.0
 70
     8
 71
     3
 72
    14
 73
    10
 74
     0
 42
0.0000000001
 43
0.0000000001
 40
0.0
 40
0.0
 40
0.0
 40
0.0
 40
1.0
 40
1.0
 40
1.0
 40
2.0
 40
2.0
 40
2.0
 40
3.0
 40
3.0
 40
3.0
 40
3.0
 10
227.3434758911135
 20
366.4492301913124
 30
0.0
 10
226.2281699605592
 20
366.4882301903272
 30
0.0
 10
225.1173699886203
 20
366.5419301889706
 30
0.0
 10
224.0006700168306
 20
366.537039611816
 30
0.0
 10
223.6066700267838
 20
366.5341301891676
 30
0.0
 10
221.0455700914827
 20
366.5995301875155
 30
0.0
 10
221.0084758911134
 20
366.4501301912896
 30
0.0
 10
221.0153700922456
 20
366.4706301907718
 30
0.0
 10
221.1456700889539
 20
366.4785301905722
 30
0.0
 10
221.1588700886204
 20
366.4804301905242
 30
0.0
  0
SPLINE
  5
188
330
1F
100
AcDbEntity
  8
Linee visibili 2D
 62
     7
420
 16777215
370
     9
100
AcDbSpline
210
0.0
220
0.0
230
1.0
 70
     8
 71
     3
 72
     8
 73
     4
 74
     0
 42
0.0000000001
 43
0.0000000001
 40
0.0
 40
0.0
 40
0.0
 40
0.0
 40
1.0
 40
1.0
 40
1.0
 40
1.0
 10
221.1588700886204
 20
366.5390396118164
 30
0.0
 10
202.0841705704879
 20
364.9199302299458
 30
0.0
 10
187.4264758911131
 20
348.9648306330055
 30
0.0
 10
187.4264758911131
 20
329.8212311166135
 30
0.0
  0
SPLINE
  5
189
330
1F
100
AcDbEntity
  8
Linee visibili 2D
 62
     7
420
 16777215
370
     9
100
AcDbSpline
210
0.0
220
0.0
230
1.0
 70
     8
 71
     3
 72
     8
 73
     4
 74
     0
 42
0.0000000001
 43
0.0000000001
 40
0.0
 40
0.0
 40
0.0
 40
0.0
 40
1.0
 40
1.0
 40
1.0
 40
1.0
 10
261.1271690789363
 20
329.8212311166135
 30
0.0
 10
261.1271690789363
 20
348.9648306330055
 30
0.0
 10
246.4694758911137
 20
364.9199302299458
 30
0.0
 10
227.3951699310783
 20
366.5390396118164
 30
0.0
  0
SPLINE
  5
18A
330
1F
100
AcDbEntity
  8
Linee visibili 2D
 62
     7
420
 16777215
370
     9
100
AcDbSpline
210
0.0
220
0.0
230
1.0
 70
     8
 71
     3
 72
    20
 73
    16
 74
     0
 42
0.0000000001
 43
0.0000000001
 40
0.0
 40
0.0
 40
0.0
 40
0.0
 40
1.0
 40
1.0
 40
1.0
 40
2.0
 40
2.0
 40
2.0
 40
3.0
 40
3.0
 40
3.0
 40
4.0
 40
4.0
 40
4.0
 40
5.0
 40
5.0
 40
5.0
 40
5.0
 10
187.4264758911131
 20
329.8212311166135
 30
0.0
 10
187.4264758911131
 20
320.8163313440964
 30
0.0
 10
190.7823708559954
 20
312.0038315667189
 30
0.0
 10
196.7804758911134
 20
305.287039611816
 30
0.0
 10
202.7091705546991
 20
298.6464319041552
 30
0.0
 10
210.9811703457308
 20
294.3027320138863
 30
0.0
 10
219.8229701223681
 20
293.2372320408031
 30
0.0
 10
228.8483698943673
 20
292.1494320682832
 30
0.0
 10
238.1036696605588
 20
294.4619320098645
 30
0.0
 10
245.528475891113
 20
299.7119318772384
 30
0.0
 10
252.7438692907162
 20
304.8144317483384
 30
0.0
 10
257.9899691581886
 20
312.480431554679
 30
0.0
 10
260.0817691053453
 20
321.0703313376798
 30
0.0
 10
260.7789690877325
 20
323.932631265372
 30
0.0
 10
261.1271690789363
 20
326.8769311909928
 30
0.0
 10
261.1271690789363
 20
329.8212311166135
 30
0.0
  0
POLYLINE
  5
18B
330
1F
100
AcDbEntity
  8
Linee visibili 2D
 62
     7
420
 16777215
370
     9
100
AcDb2dPolyline
 66
     1
 10
0.0
 20
0.0
 30
0.0
  0
VERTEX
  5
18C
330
18B
100
AcDbEntity
  8
Linee visibili 2D
 62
     7
420
 16777215
370
     9
100
AcDbVertex
100
AcDb2dVertex
 10
187.5748709370236
 20
329.8212311166135
 30
0.0
  0
VERTEX
  5
18D
330
18B
100
AcDbEntity
  8
Linee visibili 2D
 62
     7
420
 16777215
370
     9
100
AcDbVertex
100
AcDb2dVertex
 10
187.4264758911131
 20
329.8212311166135
 30
0.0
  0
SEQEND
  5
18E
330
18B
100
AcDbEntity
  8
Linee visibili 2D
 62
     7
420
 16777215
370
     9
  0
SPLINE
  5
18F
330
1F
100
AcDbEntity
  8
Linee visibili 2D
 62
     7
420
 16777215
370
     9
100
AcDbSpline
210
0.0
220
0.0
230
1.0
 70
     8
 71
     3
 72
    20
 73
    16
 74
     0
 42
0.0000000001
 43
0.0000000001
 40
0.0
 40
0.0
 40
0.0
 40
0.0
 40
1.0
 40
1.0
 40
1.0
 40
2.0
 40
2.0
 40
2.0
 40
3.0
 40
3.0
 40
3.0
 40
4.0
 40
4.0
 40
4.0
 40
5.0
 40
5.0
 40
5.0
 40
5.0
 10
260.9786690826877
 20
329.8212311166135
 30
0.0
 10
260.9786690826877
 20
320.8115313442176
 30
0.0
 10
257.6046691679221
 20
311.997039611817
 30
0.0
 10
251.5817693200734
 20
305.2949317362
 30
0.0
 10
245.624169470575
 20
298.6669319036373
 30
0.0
 10
237.3180696804047
 20
294.3593320124564
 30
0.0
 10
228.4591699041994
 20
293.3544320378423
 30
0.0
 10
219.4249701324225
 20
292.3300396118157
 30
0.0
 10
210.1876703657763
 20
294.7206320033292
 30
0.0
 10
202.8136705520592
 20
300.0458318688034
 30
0.0
 10
195.640370733272
 20
305.2255317379531
 30
0.0
 10
190.4767708637155
 20
312.9658315424167
 30
0.0
 10
188.500670913636
 20
321.5947313244324
 30
0.0
 10
187.8829709292404
 20
324.2910396118168
 30
0.0
 10
187.5748709370236
 20
327.0556311864784
 30
0.0
 10
187.5748709370236
 20
329.8212311166135
 30
0.0
  0
SPLINE
  5
190
330
1F
100
AcDbEntity
  8
Linee visibili 2D
 62
     7
420
 16777215
370
     9
100
AcDbSpline
210
0.0
220
0.0
230
1.0
 70
     8
 71
     3
 72
    20
 73
    16
 74
     0
 42
0.0000000001
 43
0.0000000001
 40
0.0
 40
0.0
 40
0.0
 40
0.0
 40
1.0
 40
1.0
 40
1.0
 40
2.0
 40
2.0
 40
2.0
 40
3.0
 40
3.0
 40
3.0
 40
4.0
 40
4.0
 40
4.0
 40
5.0
 40
5.0
 40
5.0
 40
5.0
 10
187.5748709370236
 20
329.8212311166135
 30
0.0
 10
187.5748709370236
 20
338.8310396118159
 30
0.0
 10
190.9488708517892
 20
347.6454306663363
 30
0.0
 10
196.9723706996228
 20
354.3466304970498
 30
0.0
 10
202.9293705491364
 20
360.9745303296149
 30
0.0
 10
211.2360703392915
 20
365.2822302207933
 30
0.0
 10
220.0948701154993
 20
366.287039611816
 30
0.0
 10
229.1290698872763
 20
367.3115301695288
 30
0.0
 10
238.3663696539224
 20
364.920830229923
 30
0.0
 10
245.7399694676496
 20
359.5956303644489
 30
0.0
 10
252.9132692864369
 20
354.4160396118168
 30
0.0
 10
258.0768691559933
 20
346.6767306908077
 30
0.0
 10
260.0528691060754
 20
338.0478309087921
 30
0.0
 10
260.670569090471
 20
335.3525309768811
 30
0.0
 10
260.9786690826877
 20
332.5869310467461
 30
0.0
 10
260.9786690826877
 20
329.8212311166135
 30
0.0
  0
POLYLINE
  5
191
330
1F
100
AcDbEntity
  8
Linee visibili 2D
 62
     7
420
 16777215
370
     9
100
AcDb2dPolyline
 66
     1
 10
0.0
 20
0.0
 30
0.0
  0
VERTEX
  5
192
330
191
100
AcDbEntity
  8
Linee visibili 2D
 62
     7
420
 16777215
370
     9
100
AcDbVertex
100
AcDb2dVertex
 10
228.5572699017212
 20
376.0829299479447
 30
0.0
  0
VERTEX
  5
193
330
191
100
AcDbEntity
  8
Linee visibili 2D
 62
     7
420
 16777215
370
     9
100
AcDbVertex
100
AcDb2dVertex
 10
228.5572699017212
 20
372.2275300453402
 30
0.0
  0
SEQEND
  5
194
330
191
100
AcDbEntity
  8
Linee visibili 2D
 62
     7
420
 16777215
370
     9
  0
POLYLINE
  5
195
330
1F
100
AcDbEntity
  8
Linee visibili 2D
 62
     7
420
 16777215
370
     9
100
AcDb2dPolyline
 66
     1
 10
0.0
 20
0.0
 30
0.0
  0
VERTEX
  5
196
330
195
100
AcDbEntity
  8
Linee visibili 2D
 62
     7
420
 16777215
370
     9
100
AcDbVertex
100
AcDb2dVertex
 10
228.5572699017212
 20
379.9374298505718
 30
0.0
  0
VERTEX
  5
197
330
195
100
AcDbEntity
  8
Linee visibili 2D
 62
     7
420
 16777215
370
     9
100
AcDbVertex
100
AcDb2dVertex
 10
228.5572699017212
 20
376.0829299479447
 30
0.0
  0
SEQEND
  5
198
330
195
100
AcDbEntity
  8
Linee visibili 2D
 62
     7
420
 16777215
370
     9
  0
POLYLINE
  5
199
330
1F
100
AcDbEntity
  8
Linee visibili 2D
 62
     7
420
 16777215
370
     9
100
AcDb2dPolyline
 66
     1
 10
0.0
 20
0.0
 30
0.0
  0
VERTEX
  5
19A
330
199
100
AcDbEntity
  8
Linee visibili 2D
 62
     7
420
 16777215
370
     9
100
AcDbVertex
100
AcDb2dVertex
 10
227.1398699375277
 20
379.9374298505718
 30
0.0
  0
VERTEX
  5
19B
330
199
100
AcDbEntity
  8
Linee visibili 2D
 62
     7
420
 16777215
370
     9
100
AcDbVertex
100
AcDb2dVertex
 10
227.1398699375277
 20
376.0829299479447
 30
0.0
  0
SEQEND
  5
19C
330
199
100
AcDbEntity
  8
Linee visibili 2D
 62
     7
420
 16777215
370
     9
  0
POLYLINE
  5
19D
330
1F
100
AcDbEntity
  8
Linee visibili 2D
 62
     7
420
 16777215
370
     9
100
AcDb2dPolyline
 66
     1
 10
0.0
 20
0.0
 30
0.0
  0
VERTEX
  5
19E
330
19D
100
AcDbEntity
  8
Linee visibili 2D
 62
     7
420
 16777215
370
     9
100
AcDbVertex
100
AcDb2dVertex
 10
227.1398699375277
 20
376.0829299479447
 30
0.0
  0
VERTEX
  5
19F
330
19D
100
AcDbEntity
  8
Linee visibili 2D
 62
     7
420
 16777215
370
     9
100
AcDbVertex
100
AcDb2dVertex
 10
227.1398699375277
 20
372.2275300453402
 30
0.0
  0
SEQEND
  5
1A0
330
19D
100
AcDbEntity
  8
Linee visibili 2D
 62
     7
420
 16777215
370
     9
  0
POLYLINE
  5
1A1
330
1F
100
AcDbEntity
  8
Linee visibili 2D
 62
     7
420
 16777215
370
     9
100
AcDb2dPolyline
 66
     1
 10
0.0
 20
0.0
 30
0.0
  0
VERTEX
  5
1A2
330
1A1
100
AcDbEntity
  8
Linee visibili 2D
 62
     7
420
 16777215
370
     9
100
AcDbVertex
100
AcDb2dVertex
 10
252.5070692966983
 20
398.2719293874034
 30
0.0
  0
VERTEX
  5
1A3
330
1A1
100
AcDbEntity
  8
Linee visibili 2D
 62
     7
420
 16777215
370
     9
100
AcDbVertex
100
AcDb2dVertex
 10
196.0465707230105
 20
398.2719293874034
 30
0.0
  0
SEQEND
  5
1A4
330
1A1
100
AcDbEntity
  8
Linee visibili 2D
 62
     7
420
 16777215
370
     9
  0
POLYLINE
  5
1A5
330
1F
100
AcDbEntity
  8
Linee visibili 2D
 62
     7
420
 16777215
370
     9
100
AcDb2dPolyline
 66
     1
 10
0.0
 20
0.0
 30
0.0
  0
VERTEX
  5
1A6
330
1A5
100
AcDbEntity
  8
Linee visibili 2D
 62
     7
420
 16777215
370
     9
100
AcDbVertex
100
AcDb2dVertex
 10
252.5070692966983
 20
398.2719293874034
 30
0.0
  0
VERTEX
  5
1A7
330
1A5
100
AcDbEntity
  8
Linee visibili 2D
 62
     7
420
 16777215
370
     9
100
AcDbVertex
100
AcDb2dVertex
 10
252.561669295319
 20
392.0361295449329
 30
0.0
  0
SEQEND
  5
1A8
330
1A5
100
AcDbEntity
  8
Linee visibili 2D
 62
     7
420
 16777215
370
     9
  0
SPLINE
  5
1A9
330
1F
100
AcDbEntity
  8
Linee visibili 2D
 62
     7
420
 16777215
370
     9
100
AcDbSpline
210
0.0
220
0.0
230
1.0
 70
     8
 71
     3
 72
     8
 73
     4
 74
     0
 42
0.0000000001
 43
0.0000000001
 40
0.0
 40
0.0
 40
0.0
 40
0.0
 40
1.0
 40
1.0
 40
1.0
 40
1.0
 10
261.0148690817732
 20
383.5317297597721
 30
0.0
 10
261.0948690797522
 20
383.5317297597721
 30
0.0
 10
261.1280690789135
 20
383.5649297589334
 30
0.0
 10
261.1280690789135
 20
383.6450396118162
 30
0.0
  0
POLYLINE
  5
1AA
330
1F
100
AcDbEntity
  8
Linee visibili 2D
 62
     7
420
 16777215
370
     9
100
AcDb2dPolyline
 66
     1
 10
0.0
 20
0.0
 30
0.0
  0
VERTEX
  5
1AB
330
1AA
100
AcDbEntity
  8
Linee visibili 2D
 62
     7
420
 16777215
370
     9
100
AcDbVertex
100
AcDb2dVertex
 10
261.2013690770618
 20
392.0361295449329
 30
0.0
  0
VERTEX
  5
1AC
330
1AA
100
AcDbEntity
  8
Linee visibili 2D
 62
     7
420
 16777215
370
     9
100
AcDbVertex
100
AcDb2dVertex
 10
187.352270942647
 20
392.0361295449329
 30
0.0
  0
SEQEND
  5
1AD
330
1AA
100
AcDbEntity
  8
Linee visibili 2D
 62
     7
420
 16777215
370
     9
  0
POLYLINE
  5
1AE
330
1F
100
AcDbEntity
  8
Linee visibili 2D
 62
     7
420
 16777215
370
     9
100
AcDb2dPolyline
 66
     1
 10
0.0
 20
0.0
 30
0.0
  0
VERTEX
  5
1AF
330
1AE
100
AcDbEntity
  8
Linee visibili 2D
 62
     7
420
 16777215
370
     9
100
AcDbVertex
100
AcDb2dVertex
 10
187.4254758911129
 20
383.6445297569225
 30
0.0
  0
VERTEX
  5
1B0
330
1AE
100
AcDbEntity
  8
Linee visibili 2D
 62
     7
420
 16777215
370
     9
100
AcDbVertex
100
AcDb2dVertex
 10
187.352270942647
 20
392.0361295449329
 30
0.0
  0
SEQEND
  5
1B1
330
1AE
100
AcDbEntity
  8
Linee visibili 2D
 62
     7
420
 16777215
370
     9
  0
POLYLINE
  5
1B2
330
1F
100
AcDbEntity
  8
Linee visibili 2D
 62
     7
420
 16777215
370
     9
100
AcDb2dPolyline
 66
     1
 10
0.0
 20
0.0
 30
0.0
  0
VERTEX
  5
1B3
330
1B2
100
AcDbEntity
  8
Linee visibili 2D
 62
     7
420
 16777215
370
     9
100
AcDbVertex
100
AcDb2dVertex
 10
187.5387709379356
 20
383.5317297597721
 30
0.0
  0
VERTEX
  5
1B4
330
1B2
100
AcDbEntity
  8
Linee visibili 2D
 62
     7
420
 16777215
370
     9
100
AcDbVertex
100
AcDb2dVertex
 10
261.0148690817732
 20
383.5317297597721
 30
0.0
  0
SEQEND
  5
1B5
330
1B2
100
AcDbEntity
  8
Linee visibili 2D
 62
     7
420
 16777215
370
     9
  0
SPLINE
  5
1B6
330
1F
100
AcDbEntity
  8
Linee visibili 2D
 62
     7
420
 16777215
370
     9
100
AcDbSpline
210
0.0
220
0.0
230
1.0
 70
     8
 71
     3
 72
    11
 73
     7
 74
     0
 42
0.0000000001
 43
0.0000000001
 40
0.0
 40
0.0
 40
0.0
 40
0.0
 40
1.0
 40
1.0
 40
1.0
 40
2.0
 40
2.0
 40
2.0
 40
2.0
 10
218.6925701509244
 20
329.8212311166135
 30
0.0
 10
218.6925701509244
 20
326.7783311934836
 30
0.0
 10
221.2335700867334
 20
324.2372312576772
 30
0.0
 10
224.2770700098481
 20
324.2372312576772
 30
0.0
 10
227.3204758911134
 20
324.2372312576772
 30
0.0
 10
229.8610698687844
 20
326.7783311934836
 30
0.0
 10
229.8610698687844
 20
329.8212311166135
 30
0.0
  0
SPLINE
  5
1B7
330
1F
100
AcDbEntity
  8
Linee visibili 2D
 62
     7
420
 16777215
370
     9
100
AcDbSpline
210
0.0
220
0.0
230
1.0
 70
     8
 71
     3
 72
    11
 73
     7
 74
     0
 42
0.0000000001
 43
0.0000000001
 40
0.0
 40
0.0
 40
0.0
 40
0.0
 40
1.0
 40
1.0
 40
1.0
 40
2.0
 40
2.0
 40
2.0
 40
2.0
 10
229.8610698687844
 20
329.8212311166135
 30
0.0
 10
229.8610698687844
 20
332.8642310397408
 30
0.0
 10
227.319969932978
 20
335.4052309755498
 30
0.0
 10
224.2770700098481
 20
335.4052309755498
 30
0.0
 10
221.2335700867334
 20
335.4052309755498
 30
0.0
 10
218.6925701509244
 20
332.8652310397156
 30
0.0
 10
218.6925701509244
 20
329.8212311166135
 30
0.0
  0
POLYLINE
  5
1B8
330
1F
100
AcDbEntity
  8
Linee visibili 2D
 62
     7
420
 16777215
370
     9
100
AcDb2dPolyline
 66
     1
 10
0.0
 20
0.0
 30
0.0
  0
VERTEX
  5
1B9
330
1B8
100
AcDbEntity
  8
Linee visibili 2D
 62
     7
420
 16777215
370
     9
100
AcDbVertex
100
AcDb2dVertex
 10
229.8600698688097
 20
329.8212311166135
 30
0.0
  0
VERTEX
  5
1BA
330
1B8
100
AcDbEntity
  8
Linee visibili 2D
 62
     7
420
 16777215
370
     9
100
AcDbVertex
100
AcDb2dVertex
 10
229.8610698687844
 20
329.8212311166135
 30
0.0
  0
SEQEND
  5
1BB
330
1B8
100
AcDbEntity
  8
Linee visibili 2D
 62
     7
420
 16777215
370
     9
  0
SPLINE
  5
1BC
330
1F
100
AcDbEntity
  8
Linee visibili 2D
 62
     7
420
 16777215
370
     9
100
AcDbSpline
210
0.0
220
0.0
230
1.0
 70
     8
 71
     3
 72
    11
 73
     7
 74
     0
 42
0.0000000001
 43
0.0000000001
 40
0.0
 40
0.0
 40
0.0
 40
0.0
 40
1.0
 40
1.0
 40
1.0
 40
2.0
 40
2.0
 40
2.0
 40
2.0
 10
218.6935701508992
 20
329.8212311166135
 30
0.0
 10
218.6935701508992
 20
332.8642310397408
 30
0.0
 10
221.2340700867208
 20
335.4042309755751
 30
0.0
 10
224.2770700098481
 20
335.4042309755751
 30
0.0
 10
227.3195699329881
 20
335.4042309755751
 30
0.0
 10
229.8600698688097
 20
332.8632310397661
 30
0.0
 10
229.8600698688097
 20
329.8212311166135
 30
0.0
  0
SPLINE
  5
1BD
330
1F
100
AcDbEntity
  8
Linee visibili 2D
 62
     7
420
 16777215
370
     9
100
AcDbSpline
210
0.0
220
0.0
230
1.0
 70
     8
 71
     3
 72
    11
 73
     7
 74
     0
 42
0.0000000001
 43
0.0000000001
 40
0.0
 40
0.0
 40
0.0
 40
0.0
 40
1.0
 40
1.0
 40
1.0
 40
2.0
 40
2.0
 40
2.0
 40
2.0
 10
229.8600698688097
 20
329.8212311166135
 30
0.0
 10
229.8600698688097
 20
326.7783311934836
 30
0.0
 10
227.319969932978
 20
324.2372312576772
 30
0.0
 10
224.2770700098481
 20
324.2372312576772
 30
0.0
 10
221.2340700867208
 20
324.2372312576772
 30
0.0
 10
218.6935701508992
 20
326.7783311934836
 30
0.0
 10
218.6935701508992
 20
329.8212311166135
 30
0.0
  0
POLYLINE
  5
1BE
330
1F
100
AcDbEntity
  8
Linee visibili 2D
 62
   250
420
  2301728
370
     9
100
AcDb2dPolyline
 66
     1
 10
0.0
 20
0.0
 30
0.0
  0
VERTEX
  5
1BF
330
1BE
100
AcDbEntity
  8
Linee visibili 2D
 62
   250
420
  2301728
370
     9
100
AcDbVertex
100
AcDb2dVertex
 10
267.0329332351685
 20
398.2719293874034
 30
0.0
  0
VERTEX
  5
1C0
330
1BE
100
AcDbEntity
  8
Linee visibili 2D
 62
   250
420
  2301728
370
     9
100
AcDbVertex
100
AcDb2dVertex
 10
267.0329332351685
 20
292.9745320474394
 30
0.0
  0
SEQEND
  5
1C1
330
1BE
100
AcDbEntity
  8
Linee visibili 2D
 62
   250
420
  2301728
370
     9
  0
MTEXT
  5
1C2
330
1F
100
AcDbEntity
  8
Linee visibili 2D
 62
   250
420
  2301728
100
AcDbMText
 10
273.9674682617188
 20
337.3720703125
 30
0.0
 40
3.893999999999999
 41
0.0
 46
0.0
 71
     7
 72
     1
  1
\fFrutigerLT Light|b0|i0|c0|p34;\W1;185
 11
0.0000000000000001
 21
1.0
 31
0.0
 73
     1
 44
1.0
  0
POLYLINE
  5
1C3
330
1F
100
AcDbEntity
  8
Linee visibili 2D
 62
   250
420
  2301728
370
     9
100
AcDb2dPolyline
 66
     1
 10
0.0
 20
0.0
 30
0.0
  0
VERTEX
  5
1C4
330
1C3
100
AcDbEntity
  8
Linee visibili 2D
 62
   250
420
  2301728
370
     9
100
AcDbVertex
100
AcDb2dVertex
 10
381.4444582909345
 20
407.5929052500724
 30
0.0
  0
VERTEX
  5
1C5
330
1C3
100
AcDbEntity
  8
Linee visibili 2D
 62
   250
420
  2301728
370
     9
100
AcDbVertex
100
AcDb2dVertex
 10
276.143760951054
 20
407.5929052500724
 30
0.0
  0
SEQEND
  5
1C6
330
1C3
100
AcDbEntity
  8
Linee visibili 2D
 62
   250
420
  2301728
370
     9
  0
MTEXT
  5
1C7
330
1F
100
AcDbEntity
  8
Linee visibili 2D
 62
   250
420
  2301728
100
AcDbMText
 10
326.2432098388672
 20
400.9385986328124
 30
0.0
 40
3.893999999999999
 41
0.0
 46
0.0
 71
     7
 72
     1
  1
\fFrutigerLT Light|b0|i0|c0|p34;\W1;185
 73
     1
 44
1.0
  0
POLYLINE
  5
1C8
330
1F
100
AcDbEntity
  8
Linee visibili 2D
 62
   250
420
  2301728
370
     9
100
AcDb2dPolyline
 66
     1
 10
0.0
 20
0.0
 30
0.0
  0
VERTEX
  5
1C9
330
1C8
100
AcDbEntity
  8
Linee visibili 2D
 62
   250
420
  2301728
370
     9
100
AcDbVertex
100
AcDb2dVertex
 10
387.1137504577637
 20
486.9247821297831
 30
0.0
  0
VERTEX
  5
1CA
330
1C8
100
AcDbEntity
  8
Linee visibili 2D
 62
   250
420
  2301728
370
     9
100
AcDbVertex
100
AcDb2dVertex
 10
387.1137504577637
 20
413.075695863843
 30
0.0
  0
SEQEND
  5
1CB
330
1C8
100
AcDbEntity
  8
Linee visibili 2D
 62
   250
420
  2301728
370
     9
  0
MTEXT
  5
1CC
330
1F
100
AcDbEntity
  8
Linee visibili 2D
 62
   250
420
  2301728
100
AcDbMText
 10
394.1995315551758
 20
446.3164062499999
 30
0.0
 40
3.893999999999999
 41
0.0
 46
0.0
 71
     7
 72
     1
  1
\fFrutigerLT Light|b0|i0|c0|p34;\W1;130
 11
0.0000000000000001
 21
1.0
 31
0.0
 73
     1
 44
1.0
  0
POLYLINE
  5
1CD
330
1F
100
AcDbEntity
  8
Linee visibili 2D
 62
   250
420
  2301728
370
     9
100
AcDb2dPolyline
 66
     1
 10
0.0
 20
0.0
 30
0.0
  0
VERTEX
  5
1CE
330
1CD
100
AcDbEntity
  8
Linee visibili 2D
 62
   250
420
  2301728
370
     9
100
AcDbVertex
100
AcDb2dVertex
 10
260.081269105358
 20
287.4530284106004
 30
0.0
  0
VERTEX
  5
1CF
330
1CD
100
AcDbEntity
  8
Linee visibili 2D
 62
   250
420
  2301728
370
     9
100
AcDbVertex
100
AcDb2dVertex
 10
187.2814758911136
 20
287.4530284106004
 30
0.0
  0
SEQEND
  5
1D0
330
1CD
100
AcDbEntity
  8
Linee visibili 2D
 62
   250
420
  2301728
370
     9
  0
MTEXT
  5
1D1
330
1F
100
AcDbEntity
  8
Linee visibili 2D
 62
   250
420
  2301728
100
AcDbMText
 10
217.2106399536133
 20
279.9622116088867
 30
0.0
 40
3.893999999999999
 41
0.0
 46
0.0
 71
     7
 72
     1
  1
\fFrutigerLT Light|b0|i0|c0|p34;\W1;ø130
 73
     1
 44
1.0
  0
ENDSEC
  0
SECTION
  2
OBJECTS
  0
DICTIONARY
  5
C
330
0
100
AcDbDictionary
281
     1
  3
ACAD_CIP_PREVIOUS_PRODUCT_INFO
350
1FC
  3
ACAD_COLOR
350
1DF
  3
ACAD_DETAILVIEWSTYLE
350
1F7
  3
ACAD_GROUP
350
D
  3
ACAD_LAYOUT
350
1A
  3
ACAD_MATERIAL
350
3B
  3
ACAD_MLEADERSTYLE
350
1D3
  3
ACAD_MLINESTYLE
350
17
  3
ACAD_PLOTSETTINGS
350
19
  3
ACAD_PLOTSTYLENAME
350
E
  3
ACAD_SCALELIST
350
1E1
  3
ACAD_SECTIONVIEWSTYLE
350
1F4
  3
ACAD_TABLESTYLE
350
1D2
  3
ACAD_VISUALSTYLE
350
2A
  3
ACDB_RECOMPOSE_DATA
350
20F
  3
AcDbVariableDictionary
350
206
  0
SUN
  5
3F
330
29
100
AcDbSun
 90
        1
290
     0
 63
     7
421
 16777215
 40
1.0
291
     1
 91
  2455826
 92
 54000000
292
     0
 70
     0
 71
   256
280
     1
  0
DICTIONARY
  5
200
330
2
100
AcDbDictionary
280
     1
281
     1
  3
ACAD_LAYERSTATES
360
201
  0
XRECORD
  5
1FC
102
{ACAD_REACTORS
330
C
102
}
330
C
100
AcDbXrecord
280
     1
300
ACDMAC
300
2013
300

  0
DICTIONARY
  5
1DF
102
{ACAD_REACTORS
330
C
102
}
330
C
100
AcDbDictionary
281
     1
  0
DICTIONARY
  5
1F7
102
{ACAD_REACTORS
330
C
102
}
330
C
100
AcDbDictionary
281
     1
  3
Imperial24
350
1F8
  0
DICTIONARY
  5
D
102
{ACAD_REACTORS
330
C
102
}
330
C
100
AcDbDictionary
281
     1
  0
DICTIONARY
  5
1A
102
{ACAD_REACTORS
330
C
102
}
330
C
100
AcDbDictionary
281
     1
  3
Layout1
350
1E
  3
Layout2
350
26
  3
Model
350
22
  0
DICTIONARY
  5
3B
102
{ACAD_REACTORS
330
C
102
}
330
C
100
AcDbDictionary
281
     1
  3
ByBlock
350
3D
  3
ByLayer
350
3C
  3
Global
350
3E
  0
DICTIONARY
  5
1D3
102
{ACAD_REACTORS
330
C
102
}
330
C
100
AcDbDictionary
281
     1
  3
Standard
350
1F3
  0
DICTIONARY
  5
17
102
{ACAD_REACTORS
330
C
102
}
330
C
100
AcDbDictionary
281
     1
  3
Standard
350
18
  0
DICTIONARY
  5
19
102
{ACAD_REACTORS
330
C
102
}
330
C
100
AcDbDictionary
281
     1
  0
ACDBDICTIONARYWDFLT
  5
E
102
{ACAD_REACTORS
330
C
102
}
330
C
100
AcDbDictionary
281
     1
  3
Normal
350
F
100
AcDbDictionaryWithDefault
340
F
  0
DICTIONARY
  5
1E1
102
{ACAD_REACTORS
330
C
102
}
330
C
100
AcDbDictionary
281
     1
  3
A0
350
1E2
  3
A1
350
1E3
  3
A2
350
1E4
  3
A3
350
1E5
  3
A4
350
1E6
  3
A5
350
1E7
  3
A6
350
1E8
  3
A7
350
1E9
  3
A8
350
1EA
  3
A9
350
1EB
  3
B0
350
1EC
  3
B1
350
1ED
  3
B2
350
1EE
  3
B3
350
1EF
  3
B4
350
1F0
  3
B5
350
1F1
  3
B6
350
1F2
  0
DICTIONARY
  5
1F4
102
{ACAD_REACTORS
330
C
102
}
330
C
100
AcDbDictionary
281
     1
  3
Imperial24
350
1F6
  0
DICTIONARY
  5
1D2
102
{ACAD_REACTORS
330
C
102
}
330
C
100
AcDbDictionary
281
     1
  3
Standard
350
1E0
  0
DICTIONARY
  5
2A
102
{ACAD_REACTORS
330
C
102
}
330
C
100
AcDbDictionary
281
     1
  3
2dWireframe
350
2F
  3
3D Hidden
350
31
  3
3dWireframe
350
30
  3
Basic
350
32
  3
Brighten
350
36
  3
ColorChange
350
3A
  3
Conceptual
350
34
  3
Dim
350
35
  3
EdgeColorOff
350
1DE
  3
Facepattern
350
39
  3
Flat
350
2B
  3
FlatWithEdges
350
2C
  3
Gouraud
350
2D
  3
GouraudWithEdges
350
2E
  3
Hidden
350
1D6
  3
JitterOff
350
1DC
  3
Linepattern
350
38
  3
OverhangOff
350
1DD
  3
Realistic
350
33
  3
Shaded
350
1DB
  3
Shaded with edges
350
1DA
  3
Shades of Gray
350
1D7
  3
Sketchy
350
1D8
  3
Thicken
350
37
  3
Wireframe
350
1D5
  3
X-Ray
350
1D9
  0
XRECORD
  5
20F
102
{ACAD_REACTORS
330
C
102
}
330
C
100
AcDbXrecord
280
     1
 90
        1
330
1E0
  0
DICTIONARY
  5
206
102
{ACAD_REACTORS
330
C
102
}
330
C
100
AcDbDictionary
281
     1
  3
CANNOSCALE
350
20B
  3
CMLEADERSTYLE
350
208
  3
CTABLESTYLE
350
207
  3
CVIEWDETAILSTYLE
350
209
  3
CVIEWSECTIONSTYLE
350
20A
  0
DICTIONARY
  5
201
102
{ACAD_REACTORS
330
200
102
}
330
200
100
AcDbDictionary
281
     1
  0
ACDBDETAILVIEWSTYLE
  5
1F8
102
{ACAD_REACTORS
330
1F7
102
}
330
1F7
100
AcDbModelDocViewStyle
 70
     0
  3
Imperial24
290
     1
100
AcDbDetailViewStyle
 70
     0
 71
     0
 90
        3
 71
     1
340
11
 62
   256
 40
0.24
340
0
 62
   256
 40
0.24
300

 40
0.36
280
     3
 71
     2
340
16
 90
       25
 62
   256
 71
     3
340
11
 62
   256
 40
0.24
 90
        1
 40
0.75
 90
        1
300
%<\AcVar ViewType \f "%tc1">% %<\AcVar ViewDetailId>%\PSCALE %<\AcVar ViewScale \f "%sn">%
 71
     4
340
16
 90
       25
 62
   256
340
16
 90
       25
 62
   256
280
     0
  0
LAYOUT
  5
1E
102
{ACAD_REACTORS
330
1A
102
}
330
1A
100
AcDbPlotSettings
  1

  2
none_device
  4

  6

 40
0.0
 41
0.0
 42
0.0
 43
0.0
 44
0.0
 45
0.0
 46
0.0
 47
0.0
 48
0.0
 49
0.0
140
0.0
141
0.0
142
1.0
143
1.0
 70
   688
 72
     0
 73
     0
 74
     5
  7

 75
    16
147
1.0
 76
     0
 77
     2
 78
   300
148
0.0
149
0.0
100
AcDbLayout
  1
Layout1
 70
     1
 71
     1
 10
0.0
 20
0.0
 11
12.0
 21
9.0
 12
0.0
 22
0.0
 32
0.0
 14
1.000000000000000E+20
 24
1.000000000000000E+20
 34
1.000000000000000E+20
 15
-1.000000000000000E+20
 25
-1.000000000000000E+20
 35
-1.000000000000000E+20
146
0.0
 13
0.0
 23
0.0
 33
0.0
 16
1.0
 26
0.0
 36
0.0
 17
0.0
 27
1.0
 37
0.0
 76
     0
330
1B
  0
LAYOUT
  5
26
102
{ACAD_REACTORS
330
1A
102
}
330
1A
100
AcDbPlotSettings
  1

  2
none_device
  4

  6

 40
0.0
 41
0.0
 42
0.0
 43
0.0
 44
0.0
 45
0.0
 46
0.0
 47
0.0
 48
0.0
 49
0.0
140
0.0
141
0.0
142
1.0
143
1.0
 70
   688
 72
     0
 73
     0
 74
     5
  7

 75
    16
147
1.0
 76
     0
 77
     2
 78
   300
148
0.0
149
0.0
100
AcDbLayout
  1
Layout2
 70
     1
 71
     2
 10
0.0
 20
0.0
 11
0.0
 21
0.0
 12
0.0
 22
0.0
 32
0.0
 14
0.0
 24
0.0
 34
0.0
 15
0.0
 25
0.0
 35
0.0
146
0.0
 13
0.0
 23
0.0
 33
0.0
 16
1.0
 26
0.0
 36
0.0
 17
0.0
 27
1.0
 37
0.0
 76
     0
330
23
  0
LAYOUT
  5
22
102
{ACAD_REACTORS
330
1A
102
}
330
1A
100
AcDbPlotSettings
  1

  2
none_device
  4

  6

 40
0.0
 41
0.0
 42
0.0
 43
0.0
 44
0.0
 45
0.0
 46
0.0
 47
0.0
 48
0.0
 49
0.0
140
0.0
141
0.0
142
1.0
143
1.0
 70
  1712
 72
     0
 73
     0
 74
     0
  7

 75
     0
147
1.0
 76
     0
 77
     2
 78
   300
148
0.0
149
0.0
100
AcDbLayout
  1
Model
 70
     1
 71
     0
 10
0.0
 20
0.0
 11
12.0
 21
9.0
 12
0.0
 22
0.0
 32
0.0
 14
1.000000000000000E+20
 24
1.000000000000000E+20
 34
1.000000000000000E+20
 15
-1.000000000000000E+20
 25
-1.000000000000000E+20
 35
-1.000000000000000E+20
146
0.0
 13
0.0
 23
0.0
 33
0.0
 16
1.0
 26
0.0
 36
0.0
 17
0.0
 27
1.0
 37
0.0
 76
     0
330
1F
331
29
  0
MATERIAL
  5
3D
102
{ACAD_REACTORS
330
3B
102
}
330
3B
100
AcDbMaterial
  1
ByBlock
 73
     1
 78
     1
172
     1
176
     1
270
     1
274
     1
  0
MATERIAL
  5
3C
102
{ACAD_REACTORS
330
3B
102
}
330
3B
100
AcDbMaterial
  1
ByLayer
 73
     1
 78
     1
172
     1
176
     1
270
     1
274
     1
  0
MATERIAL
  5
3E
102
{ACAD_REACTORS
330
3B
102
}
330
3B
100
AcDbMaterial
  1
Global
 73
     1
 78
     1
172
     1
176
     1
270
     1
274
     1
  0
MLEADERSTYLE
  5
1F3
102
{ACAD_REACTORS
330
1D3
102
}
330
1D3
100
AcDbMLeaderStyle
179
     2
170
     2
171
     1
172
     0
 90
        2
 40
0.0
 41
0.0
173
     1
 91
-1056964608
340
14
 92
       -2
290
     1
 42
0.09
291
     1
 43
0.36
  3
Standard
 44
0.18
300

342
11
174
     1
178
     6
175
     1
176
     0
 93
-1056964608
 45
0.18
292
     0
297
     0
 46
0.18
 94
-1056964608
 47
1.0
 49
1.0
140
1.0
293
     1
141
0.0
294
     1
177
     0
142
1.0
295
     1
296
     0
143
0.125
271
     0
272
     9
273
     9
298
     1
  0
MLINESTYLE
  5
18
102
{ACAD_REACTORS
330
17
102
}
330
17
100
AcDbMlineStyle
  2
STANDARD
 70
     0
  3

 62
   256
 51
90.0
 52
90.0
 71
     2
 49
0.5
 62
   256
  6
BYLAYER
 49
-0.5
 62
   256
  6
BYLAYER
  0
ACDBPLACEHOLDER
  5
F
102
{ACAD_REACTORS
330
E
102
}
330
E
  0
SCALE
  5
1E2
102
{ACAD_REACTORS
330
1E1
102
}
330
1E1
100
AcDbScale
 70
     0
300
1:1
140
1.0
141
1.0
290
     1
  0
SCALE
  5
1E3
102
{ACAD_REACTORS
330
1E1
102
}
330
1E1
100
AcDbScale
 70
     0
300
1/128" = 1'-0"
140
0.0078125
141
12.0
290
     0
  0
SCALE
  5
1E4
102
{ACAD_REACTORS
330
1E1
102
}
330
1E1
100
AcDbScale
 70
     0
300
1/64" = 1'-0"
140
0.015625
141
12.0
290
     0
  0
SCALE
  5
1E5
102
{ACAD_REACTORS
330
1E1
102
}
330
1E1
100
AcDbScale
 70
     0
300
1/32" = 1'-0"
140
0.03125
141
12.0
290
     0
  0
SCALE
  5
1E6
102
{ACAD_REACTORS
330
1E1
102
}
330
1E1
100
AcDbScale
 70
     0
300
1/16" = 1'-0"
140
0.0625
141
12.0
290
     0
  0
SCALE
  5
1E7
102
{ACAD_REACTORS
330
1E1
102
}
330
1E1
100
AcDbScale
 70
     0
300
3/32" = 1'-0"
140
0.09375
141
12.0
290
     0
  0
SCALE
  5
1E8
102
{ACAD_REACTORS
330
1E1
102
}
330
1E1
100
AcDbScale
 70
     0
300
1/8" = 1'-0"
140
0.125
141
12.0
290
     0
  0
SCALE
  5
1E9
102
{ACAD_REACTORS
330
1E1
102
}
330
1E1
100
AcDbScale
 70
     0
300
3/16" = 1'-0"
140
0.1875
141
12.0
290
     0
  0
SCALE
  5
1EA
102
{ACAD_REACTORS
330
1E1
102
}
330
1E1
100
AcDbScale
 70
     0
300
1/4" = 1'-0"
140
0.25
141
12.0
290
     0
  0
SCALE
  5
1EB
102
{ACAD_REACTORS
330
1E1
102
}
330
1E1
100
AcDbScale
 70
     0
300
3/8" = 1'-0"
140
0.375
141
12.0
290
     0
  0
SCALE
  5
1EC
102
{ACAD_REACTORS
330
1E1
102
}
330
1E1
100
AcDbScale
 70
     0
300
1/2" = 1'-0"
140
0.5
141
12.0
290
     0
  0
SCALE
  5
1ED
102
{ACAD_REACTORS
330
1E1
102
}
330
1E1
100
AcDbScale
 70
     0
300
3/4" = 1'-0"
140
0.75
141
12.0
290
     0
  0
SCALE
  5
1EE
102
{ACAD_REACTORS
330
1E1
102
}
330
1E1
100
AcDbScale
 70
     0
300
1" = 1'-0"
140
1.0
141
12.0
290
     0
  0
SCALE
  5
1EF
102
{ACAD_REACTORS
330
1E1
102
}
330
1E1
100
AcDbScale
 70
     0
300
1-1/2" = 1'-0"
140
1.5
141
12.0
290
     0
  0
SCALE
  5
1F0
102
{ACAD_REACTORS
330
1E1
102
}
330
1E1
100
AcDbScale
 70
     0
300
3" = 1'-0"
140
3.0
141
12.0
290
     0
  0
SCALE
  5
1F1
102
{ACAD_REACTORS
330
1E1
102
}
330
1E1
100
AcDbScale
 70
     0
300
6" = 1'-0"
140
6.0
141
12.0
290
     0
  0
SCALE
  5
1F2
102
{ACAD_REACTORS
330
1E1
102
}
330
1E1
100
AcDbScale
 70
     0
300
1'-0" = 1'-0"
140
12.0
141
12.0
290
     0
  0
ACDBSECTIONVIEWSTYLE
  5
1F6
102
{ACAD_REACTORS
330
1F4
102
}
330
1F4
100
AcDbModelDocViewStyle
 70
     0
  3
Imperial24
290
     1
100
AcDbSectionViewStyle
 70
     0
 71
     0
 90
       78
 71
     1
340
11
 62
   256
 40
0.24
340
0
340
0
 62
   256
 40
0.24
300
I, O, Q, S, X, Z
 40
0.48
 90
        3
 40
0.18
 90
        1
 71
     2
340
1F5
 90
       25
 62
   256
340
16
 90
       50
 62
   256
 40
0.24
 40
0.0
 40
0.24
 71
     3
340
11
 62
   256
 40
0.24
 90
        1
 40
0.75
 90
        1
300
%<\AcVar ViewType \f "%tc1">% %<\AcVar ViewSectionStartId>%-%<\AcVar ViewSectionEndId>%\PSCALE %<\AcVar ViewScale \f "%sn">%
 71
     4
 62
   256
 62
   257
300
ANSI31
 40
1.0
 90
        0
290
     0
290
     0
 90
        6
 40
0.0
 40
1.570796326794896
 40
0.2617993877991494
 40
1.308996938995747
 40
-0.2617993877991494
 40
1.832595714594046
  0
TABLESTYLE
  5
1E0
102
{ACAD_XDICTIONARY
360
20D
102
}
102
{ACAD_REACTORS
330
1D2
102
}
330
1D2
100
AcDbTableStyle
280
     0
  3
Standard
 70
     0
 71
     0
 40
0.06
 41
0.06
280
     0
281
     0
  7
Standard
140
0.18
170
     2
 62
     0
 63
     7
283
     0
 90
      512
 91
        0
  1

274
    -2
284
     1
 64
     0
275
    -2
285
     1
 65
     0
276
    -2
286
     1
 66
     0
277
    -2
287
     1
 67
     0
278
    -2
288
     1
 68
     0
279
    -2
289
     1
 69
     0
  7
Standard
140
0.25
170
     5
 62
     0
 63
     7
283
     0
 90
      512
 91
        0
  1

274
    -2
284
     1
 64
     0
275
    -2
285
     1
 65
     0
276
    -2
286
     1
 66
     0
277
    -2
287
     1
 67
     0
278
    -2
288
     1
 68
     0
279
    -2
289
     1
 69
     0
  7
Standard
140
0.18
170
     5
 62
     0
 63
     7
283
     0
 90
      512
 91
        0
  1

274
    -2
284
     1
 64
     0
275
    -2
285
     1
 65
     0
276
    -2
286
     1
 66
     0
277
    -2
287
     1
 67
     0
278
    -2
288
     1
 68
     0
279
    -2
289
     1
 69
     0
  0
VISUALSTYLE
  5
2F
102
{ACAD_REACTORS
330
2A
102
}
330
2A
100
AcDbVisualStyle
  2
2dWireframe
 70
     4
177
     3
291
     0
 70
    58
 90
        0
176
     1
 90
        2
176
     1
 90
        0
176
     1
 90
        0
176
     1
 40
0.6
176
     1
 40
30.0
176
     1
 62
     7
420
 16777215
176
     1
 90
        1
176
     1
 90
        4
176
     1
 62
     7
176
     1
 62
   257
176
     1
 90
        1
176
     1
 90
        1
176
     1
 40
1.0
176
     1
 90
        0
176
     1
 62
   257
176
     1
 40
1.0
176
     1
 90
        1
176
     1
 90
        6
176
     1
 90
        2
176
     1
 62
     7
176
     1
 90
        5
176
     1
 90
        0
176
     1
 90
        0
176
     1
290
     0
176
     1
 90
        1
176
     1
 40
0.0
176
     1
 90
        0
176
     1
290
     1
176
     1
290
     1
176
     1
290
     0
176
     1
290
     0
176
     1
290
     0
176
     1
290
     0
176
     1
290
     0
176
     1
290
     0
176
     1
290
     0
176
     1
 90
       50
176
     1
 40
0.0
176
     1
 40
1.0
176
     1
 90
        0
176
     1
 62
    18
420
        0
176
     1
 90
       50
176
     1
 90
        3
176
     1
 62
     5
420
      255
176
     1
290
     0
176
     1
 90
       50
176
     1
 90
       50
176
     1
 90
       50
176
     1
290
     0
176
     1
 90
       50
176
     1
 62
   256
176
     0
 40
1.0
176
     0
 90
        2
176
     1
  1
strokes_ogs.tif
176
     1
290
     0
176
     1
 40
1.0
176
     1
 40
1.0
176
     1
  0
VISUALSTYLE
  5
31
102
{ACAD_REACTORS
330
2A
102
}
330
2A
100
AcDbVisualStyle
  2
3D Hidden
 70
     6
177
     3
291
     0
 70
    58
 90
        1
176
     1
 90
        2
176
     1
 90
        2
176
     1
 90
        0
176
     1
 40
0.6
176
     1
 40
30.0
176
     1
 62
     7
420
 16777215
176
     1
 90
        2
176
     1
 90
        2
176
     1
 62
     7
176
     1
 62
   257
176
     1
 90
        2
176
     1
 90
        1
176
     1
 40
40.0
176
     1
 90
        0
176
     1
 62
   257
176
     1
 40
1.0
176
     1
 90
        1
176
     1
 90
        6
176
     1
 90
        2
176
     1
 62
     7
176
     1
 90
        3
176
     1
 90
        0
176
     1
 90
        0
176
     1
290
     0
176
     1
 90
        1
176
     1
 40
0.0
176
     1
 90
        0
176
     1
290
     0
176
     1
290
     1
176
     1
290
     1
176
     1
290
     0
176
     1
290
     0
176
     1
290
     0
176
     1
290
     0
176
     1
290
     0
176
     1
290
     0
176
     1
 90
       50
176
     1
 40
0.0
176
     1
 40
1.0
176
     1
 90
        0
176
     1
 62
    18
420
        0
176
     1
 90
       50
176
     1
 90
        3
176
     1
 62
     5
420
      255
176
     1
290
     0
176
     1
 90
       50
176
     1
 90
       50
176
     1
 90
       50
176
     1
290
     0
176
     1
 90
       50
176
     1
 62
   256
176
     0
 40
1.0
176
     0
 90
        2
176
     1
  1
strokes_ogs.tif
176
     1
290
     0
176
     1
 40
1.0
176
     1
 40
1.0
176
     1
  0
VISUALSTYLE
  5
30
102
{ACAD_REACTORS
330
2A
102
}
330
2A
100
AcDbVisualStyle
  2
3dWireframe
 70
     5
177
     3
291
     0
 70
    58
 90
        0
176
     1
 90
        2
176
     1
 90
        0
176
     1
 90
        0
176
     1
 40
0.6
176
     1
 40
30.0
176
     1
 62
     7
420
 16777215
176
     1
 90
        1
176
     1
 90
        4
176
     1
 62
     7
176
     1
 62
   257
176
     1
 90
        1
176
     1
 90
        1
176
     1
 40
1.0
176
     1
 90
        0
176
     1
 62
   257
176
     1
 40
1.0
176
     1
 90
        1
176
     1
 90
        6
176
     1
 90
        2
176
     1
 62
     7
176
     1
 90
        5
176
     1
 90
        0
176
     1
 90
        0
176
     1
290
     0
176
     1
 90
        1
176
     1
 40
0.0
176
     1
 90
        0
176
     1
290
     0
176
     1
290
     1
176
     1
290
     1
176
     1
290
     0
176
     1
290
     0
176
     1
290
     0
176
     1
290
     0
176
     1
290
     0
176
     1
290
     0
176
     1
 90
       50
176
     1
 40
0.0
176
     1
 40
1.0
176
     1
 90
        0
176
     1
 62
    18
420
        0
176
     1
 90
       50
176
     1
 90
        3
176
     1
 62
     5
420
      255
176
     1
290
     0
176
     1
 90
       50
176
     1
 90
       50
176
     1
 90
       50
176
     1
290
     0
176
     1
 90
       50
176
     1
 62
   256
176
     0
 40
1.0
176
     0
 90
        2
176
     1
  1
strokes_ogs.tif
176
     1
290
     0
176
     1
 40
1.0
176
     1
 40
1.0
176
     1
  0
VISUALSTYLE
  5
32
102
{ACAD_REACTORS
330
2A
102
}
330
2A
100
AcDbVisualStyle
  2
Basic
 70
     7
177
     3
291
     1
 70
    58
 90
        1
176
     1
 90
        0
176
     1
 90
        1
176
     1
 90
        0
176
     1
 40
0.6
176
     1
 40
30.0
176
     1
 62
     7
420
 16777215
176
     1
 90
        0
176
     1
 90
        4
176
     1
 62
     7
176
     1
 62
   257
176
     1
 90
        1
176
     1
 90
        1
176
     1
 40
1.0
176
     1
 90
        8
176
     1
 62
     7
176
     1
 40
1.0
176
     1
 90
        1
176
     1
 90
        6
176
     1
 90
        2
176
     1
 62
     7
176
     1
 90
        5
176
     1
 90
        0
176
     1
 90
        0
176
     1
290
     0
176
     1
 90
        1
176
     1
 40
0.0
176
     1
 90
        0
176
     1
290
     0
176
     1
290
     1
176
     1
290
     1
176
     1
290
     0
176
     1
290
     0
176
     1
290
     0
176
     1
290
     0
176
     1
290
     0
176
     1
290
     0
176
     1
 90
       50
176
     1
 40
0.0
176
     1
 40
1.0
176
     1
 90
        0
176
     1
 62
    18
420
        0
176
     1
 90
       50
176
     1
 90
        3
176
     1
 62
     5
420
      255
176
     1
290
     0
176
     1
 90
       50
176
     1
 90
       50
176
     1
 90
       50
176
     1
290
     0
176
     1
 90
       50
176
     1
 62
   256
176
     0
 40
1.0
176
     0
 90
        2
176
     1
  1
strokes_ogs.tif
176
     1
290
     0
176
     1
 40
1.0
176
     1
 40
1.0
176
     1
  0
VISUALSTYLE
  5
36
102
{ACAD_REACTORS
330
2A
102
}
330
2A
100
AcDbVisualStyle
  2
Brighten
 70
    12
177
     3
291
     1
 70
    58
 90
        2
176
     1
 90
        2
176
     1
 90
        0
176
     1
 90
        0
176
     1
 40
0.6
176
     1
 40
30.0
176
     1
 62
     7
420
 16777215
176
     1
 90
        1
176
     1
 90
        4
176
     1
 62
     7
176
     1
 62
   257
176
     1
 90
        1
176
     1
 90
        1
176
     1
 40
1.0
176
     1
 90
        8
176
     1
 62
     7
176
     1
 40
1.0
176
     1
 90
        1
176
     1
 90
        6
176
     1
 90
        2
176
     1
 62
     7
176
     1
 90
        5
176
     1
 90
        0
176
     1
 90
        0
176
     1
290
     0
176
     1
 90
        1
176
     1
 40
50.0
176
     1
 90
        0
176
     1
290
     0
176
     1
290
     1
176
     1
290
     1
176
     1
290
     0
176
     1
290
     0
176
     1
290
     0
176
     1
290
     0
176
     1
290
     0
176
     1
290
     0
176
     1
 90
       50
176
     1
 40
0.0
176
     1
 40
1.0
176
     1
 90
        0
176
     1
 62
    18
420
        0
176
     1
 90
       50
176
     1
 90
        3
176
     1
 62
     5
420
      255
176
     1
290
     0
176
     1
 90
       50
176
     1
 90
       50
176
     1
 90
       50
176
     1
290
     0
176
     1
 90
       50
176
     1
 62
   256
176
     0
 40
1.0
176
     0
 90
        2
176
     1
  1
strokes_ogs.tif
176
     1
290
     0
176
     1
 40
1.0
176
     1
 40
1.0
176
     1
  0
VISUALSTYLE
  5
3A
102
{ACAD_REACTORS
330
2A
102
}
330
2A
100
AcDbVisualStyle
  2
ColorChange
 70
    16
177
     3
291
     1
 70
    58
 90
        2
176
     1
 90
        2
176
     1
 90
        3
176
     1
 90
        0
176
     1
 40
0.6
176
     1
 40
30.0
176
     1
 62
     8
420
  8421504
176
     1
 90
        1
176
     1
 90
        4
176
     1
 62
     7
176
     1
 62
   257
176
     1
 90
        1
176
     1
 90
        1
176
     1
 40
1.0
176
     1
 90
        8
176
     1
 62
     8
420
  8421504
176
     1
 40
1.0
176
     1
 90
        1
176
     1
 90
        6
176
     1
 90
        2
176
     1
 62
     7
176
     1
 90
        5
176
     1
 90
        0
176
     1
 90
        0
176
     1
290
     0
176
     1
 90
        1
176
     1
 40
0.0
176
     1
 90
        0
176
     1
290
     0
176
     1
290
     1
176
     1
290
     1
176
     1
290
     0
176
     1
290
     0
176
     1
290
     0
176
     1
290
     0
176
     1
290
     0
176
     1
290
     0
176
     1
 90
       50
176
     1
 40
0.0
176
     1
 40
1.0
176
     1
 90
        0
176
     1
 62
    18
420
        0
176
     1
 90
       50
176
     1
 90
        3
176
     1
 62
     5
420
      255
176
     1
290
     0
176
     1
 90
       50
176
     1
 90
       50
176
     1
 90
       50
176
     1
290
     0
176
     1
 90
       50
176
     1
 62
   256
176
     0
 40
1.0
176
     0
 90
        2
176
     1
  1
strokes_ogs.tif
176
     1
290
     0
176
     1
 40
1.0
176
     1
 40
1.0
176
     1
  0
VISUALSTYLE
  5
34
102
{ACAD_REACTORS
330
2A
102
}
330
2A
100
AcDbVisualStyle
  2
Conceptual
 70
     9
177
     3
291
     0
 70
    58
 90
        3
176
     1
 90
        2
176
     1
 90
        0
176
     1
 90
        0
176
     1
 40
0.6
176
     1
 40
30.0
176
     1
 62
     7
420
 16777215
176
     1
 90
        2
176
     1
 90
        2
176
     1
 62
     7
176
     1
 62
   257
176
     1
 90
        1
176
     1
 90
        1
176
     1
 40
40.0
176
     1
 90
        8
176
     1
 62
     7
176
     1
 40
1.0
176
     1
 90
        1
176
     1
 90
        6
176
     1
 90
        2
176
     1
 62
     7
176
     1
 90
        3
176
     1
 90
        0
176
     1
 90
        0
176
     1
290
     0
176
     1
 90
        1
176
     1
 40
0.0
176
     1
 90
        0
176
     1
290
     0
176
     1
290
     1
176
     1
290
     1
176
     1
290
     0
176
     1
290
     0
176
     1
290
     0
176
     1
290
     0
176
     1
290
     0
176
     1
290
     0
176
     1
 90
       50
176
     1
 40
0.0
176
     1
 40
1.0
176
     1
 90
        0
176
     1
 62
    18
420
        0
176
     1
 90
       50
176
     1
 90
        3
176
     1
 62
     5
420
      255
176
     1
290
     0
176
     1
 90
       50
176
     1
 90
       50
176
     1
 90
       50
176
     1
290
     0
176
     1
 90
       50
176
     1
 62
   256
176
     0
 40
1.0
176
     0
 90
        2
176
     1
  1
strokes_ogs.tif
176
     1
290
     0
176
     1
 40
1.0
176
     1
 40
1.0
176
     1
  0
VISUALSTYLE
  5
35
102
{ACAD_REACTORS
330
2A
102
}
330
2A
100
AcDbVisualStyle
  2
Dim
 70
    11
177
     3
291
     1
 70
    58
 90
        2
176
     1
 90
        2
176
     1
 90
        0
176
     1
 90
        0
176
     1
 40
0.6
176
     1
 40
30.0
176
     1
 62
     7
420
 16777215
176
     1
 90
        1
176
     1
 90
        4
176
     1
 62
     7
176
     1
 62
   257
176
     1
 90
        1
176
     1
 90
        1
176
     1
 40
1.0
176
     1
 90
        8
176
     1
 62
     7
176
     1
 40
1.0
176
     1
 90
        1
176
     1
 90
        6
176
     1
 90
        2
176
     1
 62
     7
176
     1
 90
        5
176
     1
 90
        0
176
     1
 90
        0
176
     1
290
     0
176
     1
 90
        1
176
     1
 40
-50.0
176
     1
 90
        0
176
     1
290
     0
176
     1
290
     1
176
     1
290
     1
176
     1
290
     0
176
     1
290
     0
176
     1
290
     0
176
     1
290
     0
176
     1
290
     0
176
     1
290
     0
176
     1
 90
       50
176
     1
 40
0.0
176
     1
 40
1.0
176
     1
 90
        0
176
     1
 62
    18
420
        0
176
     1
 90
       50
176
     1
 90
        3
176
     1
 62
     5
420
      255
176
     1
290
     0
176
     1
 90
       50
176
     1
 90
       50
176
     1
 90
       50
176
     1
290
     0
176
     1
 90
       50
176
     1
 62
   256
176
     0
 40
1.0
176
     0
 90
        2
176
     1
  1
strokes_ogs.tif
176
     1
290
     0
176
     1
 40
1.0
176
     1
 40
1.0
176
     1
  0
VISUALSTYLE
  5
1DE
102
{ACAD_REACTORS
330
2A
102
}
330
2A
100
AcDbVisualStyle
  2
EdgeColorOff
 70
    22
177
     3
291
     1
 70
    58
 90
        2
176
     0
 90
        2
176
     0
 90
        0
176
     0
 90
        0
176
     0
 40
0.6
176
     0
 40
30.0
176
     0
 62
     7
420
 16777215
176
     0
 90
        1
176
     0
 90
        4
176
     0
 62
     7
176
     0
 62
   257
176
     0
 90
        1
176
     0
 90
        1
176
     0
 40
1.0
176
     0
 90
        8
176
     2
 62
     7
176
     0
 40
1.0
176
     0
 90
        1
176
     0
 90
        6
176
     0
 90
        2
176
     0
 62
     7
176
     0
 90
        5
176
     0
 90
        0
176
     0
 90
        0
176
     0
290
     0
176
     0
 90
        1
176
     0
 40
0.0
176
     0
 90
        0
176
     0
290
     0
176
     0
290
     1
176
     0
290
     1
176
     0
290
     0
176
     0
290
     0
176
     0
290
     0
176
     0
290
     0
176
     0
290
     0
176
     0
290
     0
176
     0
 90
       50
176
     0
 40
0.0
176
     0
 40
1.0
176
     0
 90
        0
176
     0
 62
    18
420
        0
176
     0
 90
       50
176
     0
 90
        3
176
     0
 62
     5
420
      255
176
     0
290
     0
176
     0
 90
       50
176
     0
 90
       50
176
     0
 90
       50
176
     0
290
     0
176
     0
 90
       50
176
     0
 62
   256
176
     0
 40
1.0
176
     0
 90
        2
176
     0
  1
strokes_ogs.tif
176
     0
290
     0
176
     0
 40
1.0
176
     0
 40
1.0
176
     0
  0
VISUALSTYLE
  5
39
102
{ACAD_REACTORS
330
2A
102
}
330
2A
100
AcDbVisualStyle
  2
Facepattern
 70
    15
177
     3
291
     1
 70
    58
 90
        2
176
     1
 90
        2
176
     1
 90
        0
176
     1
 90
        0
176
     1
 40
0.6
176
     1
 40
30.0
176
     1
 62
     7
420
 16777215
176
     1
 90
        1
176
     1
 90
        4
176
     1
 62
     7
176
     1
 62
   257
176
     1
 90
        1
176
     1
 90
        1
176
     1
 40
1.0
176
     1
 90
        8
176
     1
 62
     7
176
     1
 40
1.0
176
     1
 90
        1
176
     1
 90
        6
176
     1
 90
        2
176
     1
 62
     7
176
     1
 90
        5
176
     1
 90
        0
176
     1
 90
        0
176
     1
290
     0
176
     1
 90
        1
176
     1
 40
0.0
176
     1
 90
        0
176
     1
290
     0
176
     1
290
     1
176
     1
290
     1
176
     1
290
     0
176
     1
290
     0
176
     1
290
     0
176
     1
290
     0
176
     1
290
     0
176
     1
290
     0
176
     1
 90
       50
176
     1
 40
0.0
176
     1
 40
1.0
176
     1
 90
        0
176
     1
 62
    18
420
        0
176
     1
 90
       50
176
     1
 90
        3
176
     1
 62
     5
420
      255
176
     1
290
     0
176
     1
 90
       50
176
     1
 90
       50
176
     1
 90
       50
176
     1
290
     0
176
     1
 90
       50
176
     1
 62
   256
176
     0
 40
1.0
176
     0
 90
        2
176
     1
  1
strokes_ogs.tif
176
     1
290
     0
176
     1
 40
1.0
176
     1
 40
1.0
176
     1
  0
VISUALSTYLE
  5
2B
102
{ACAD_REACTORS
330
2A
102
}
330
2A
100
AcDbVisualStyle
  2
Flat
 70
     0
177
     3
291
     1
 70
    58
 90
        2
176
     1
 90
        1
176
     1
 90
        1
176
     1
 90
        2
176
     1
 40
0.6
176
     1
 40
30.0
176
     1
 62
     7
420
 16777215
176
     1
 90
        0
176
     1
 90
        4
176
     1
 62
     7
176
     1
 62
   257
176
     1
 90
        1
176
     1
 90
        1
176
     1
 40
1.0
176
     1
 90
        8
176
     1
 62
     7
176
     1
 40
1.0
176
     1
 90
        1
176
     1
 90
        6
176
     1
 90
        2
176
     1
 62
     7
176
     1
 90
        5
176
     1
 90
        0
176
     1
 90
        0
176
     1
290
     0
176
     1
 90
       13
176
     1
 40
0.0
176
     1
 90
        0
176
     1
290
     0
176
     1
290
     1
176
     1
290
     1
176
     1
290
     0
176
     1
290
     0
176
     1
290
     0
176
     1
290
     0
176
     1
290
     0
176
     1
290
     0
176
     1
 90
       50
176
     1
 40
0.0
176
     1
 40
1.0
176
     1
 90
        0
176
     1
 62
    18
420
        0
176
     1
 90
       50
176
     1
 90
        3
176
     1
 62
     5
420
      255
176
     1
290
     0
176
     1
 90
       50
176
     1
 90
       50
176
     1
 90
       50
176
     1
290
     0
176
     1
 90
       50
176
     1
 62
   256
176
     0
 40
1.0
176
     0
 90
        2
176
     1
  1
strokes_ogs.tif
176
     1
290
     0
176
     1
 40
1.0
176
     1
 40
1.0
176
     1
  0
VISUALSTYLE
  5
2C
102
{ACAD_REACTORS
330
2A
102
}
330
2A
100
AcDbVisualStyle
  2
FlatWithEdges
 70
     1
177
     3
291
     1
 70
    58
 90
        2
176
     1
 90
        1
176
     1
 90
        1
176
     1
 90
        2
176
     1
 40
0.6
176
     1
 40
30.0
176
     1
 62
     7
420
 16777215
176
     1
 90
        1
176
     1
 90
        4
176
     1
 62
     7
176
     1
 62
   257
176
     1
 90
        1
176
     1
 90
        1
176
     1
 40
1.0
176
     1
 90
        0
176
     1
 62
   257
176
     1
 40
1.0
176
     1
 90
        1
176
     1
 90
        6
176
     1
 90
        2
176
     1
 62
     7
176
     1
 90
        5
176
     1
 90
        0
176
     1
 90
        0
176
     1
290
     0
176
     1
 90
       13
176
     1
 40
0.0
176
     1
 90
        0
176
     1
290
     0
176
     1
290
     1
176
     1
290
     1
176
     1
290
     0
176
     1
290
     0
176
     1
290
     0
176
     1
290
     0
176
     1
290
     0
176
     1
290
     0
176
     1
 90
       50
176
     1
 40
0.0
176
     1
 40
1.0
176
     1
 90
        0
176
     1
 62
    18
420
        0
176
     1
 90
       50
176
     1
 90
        3
176
     1
 62
     5
420
      255
176
     1
290
     0
176
     1
 90
       50
176
     1
 90
       50
176
     1
 90
       50
176
     1
290
     0
176
     1
 90
       50
176
     1
 62
   256
176
     0
 40
1.0
176
     0
 90
        2
176
     1
  1
strokes_ogs.tif
176
     1
290
     0
176
     1
 40
1.0
176
     1
 40
1.0
176
     1
  0
VISUALSTYLE
  5
2D
102
{ACAD_REACTORS
330
2A
102
}
330
2A
100
AcDbVisualStyle
  2
Gouraud
 70
     2
177
     3
291
     1
 70
    58
 90
        2
176
     1
 90
        2
176
     1
 90
        1
176
     1
 90
        2
176
     1
 40
0.6
176
     1
 40
30.0
176
     1
 62
     7
420
 16777215
176
     1
 90
        0
176
     1
 90
        4
176
     1
 62
     7
176
     1
 62
   257
176
     1
 90
        1
176
     1
 90
        1
176
     1
 40
1.0
176
     1
 90
        0
176
     1
 62
     7
176
     1
 40
1.0
176
     1
 90
        1
176
     1
 90
        6
176
     1
 90
        2
176
     1
 62
     7
176
     1
 90
        5
176
     1
 90
        0
176
     1
 90
        0
176
     1
290
     0
176
     1
 90
       13
176
     1
 40
0.0
176
     1
 90
        0
176
     1
290
     0
176
     1
290
     1
176
     1
290
     1
176
     1
290
     0
176
     1
290
     0
176
     1
290
     0
176
     1
290
     0
176
     1
290
     0
176
     1
290
     0
176
     1
 90
       50
176
     1
 40
0.0
176
     1
 40
1.0
176
     1
 90
        0
176
     1
 62
    18
420
        0
176
     1
 90
       50
176
     1
 90
        3
176
     1
 62
     5
420
      255
176
     1
290
     0
176
     1
 90
       50
176
     1
 90
       50
176
     1
 90
       50
176
     1
290
     0
176
     1
 90
       50
176
     1
 62
   256
176
     0
 40
1.0
176
     0
 90
        2
176
     1
  1
strokes_ogs.tif
176
     1
290
     0
176
     1
 40
1.0
176
     1
 40
1.0
176
     1
  0
VISUALSTYLE
  5
2E
102
{ACAD_REACTORS
330
2A
102
}
330
2A
100
AcDbVisualStyle
  2
GouraudWithEdges
 70
     3
177
     3
291
     1
 70
    58
 90
        2
176
     1
 90
        2
176
     1
 90
        1
176
     1
 90
        2
176
     1
 40
0.6
176
     1
 40
30.0
176
     1
 62
     7
420
 16777215
176
     1
 90
        1
176
     1
 90
        4
176
     1
 62
     7
176
     1
 62
   257
176
     1
 90
        1
176
     1
 90
        1
176
     1
 40
1.0
176
     1
 90
        0
176
     1
 62
   257
176
     1
 40
1.0
176
     1
 90
        1
176
     1
 90
        6
176
     1
 90
        2
176
     1
 62
     7
176
     1
 90
        5
176
     1
 90
        0
176
     1
 90
        0
176
     1
290
     0
176
     1
 90
       13
176
     1
 40
0.0
176
     1
 90
        0
176
     1
290
     0
176
     1
290
     1
176
     1
290
     1
176
     1
290
     0
176
     1
290
     0
176
     1
290
     0
176
     1
290
     0
176
     1
290
     0
176
     1
290
     0
176
     1
 90
       50
176
     1
 40
0.0
176
     1
 40
1.0
176
     1
 90
        0
176
     1
 62
    18
420
        0
176
     1
 90
       50
176
     1
 90
        3
176
     1
 62
     5
420
      255
176
     1
290
     0
176
     1
 90
       50
176
     1
 90
       50
176
     1
 90
       50
176
     1
290
     0
176
     1
 90
       50
176
     1
 62
   256
176
     0
 40
1.0
176
     0
 90
        2
176
     1
  1
strokes_ogs.tif
176
     1
290
     0
176
     1
 40
1.0
176
     1
 40
1.0
176
     1
  0
VISUALSTYLE
  5
1D6
102
{ACAD_REACTORS
330
2A
102
}
330
2A
100
AcDbVisualStyle
  2
Hidden
 70
     6
177
     3
291
     0
 70
    58
 90
        1
176
     1
 90
        2
176
     1
 90
        2
176
     1
 90
        0
176
     1
 40
0.6
176
     1
 40
30.0
176
     1
 62
     7
420
 16777215
176
     1
 90
        2
176
     1
 90
        2
176
     1
 62
     7
176
     1
 62
   257
176
     1
 90
        2
176
     1
 90
        1
176
     1
 40
40.0
176
     1
 90
        0
176
     1
 62
   257
176
     1
 40
1.0
176
     1
 90
        1
176
     1
 90
        6
176
     1
 90
        2
176
     1
 62
     7
176
     1
 90
        3
176
     1
 90
        0
176
     1
 90
        0
176
     1
290
     0
176
     1
 90
        1
176
     1
 40
0.0
176
     1
 90
        0
176
     1
290
     0
176
     1
290
     1
176
     1
290
     1
176
     1
290
     0
176
     1
290
     0
176
     1
290
     0
176
     1
290
     0
176
     1
290
     0
176
     1
290
     0
176
     1
 90
       50
176
     1
 40
0.0
176
     1
 40
1.0
176
     1
 90
        0
176
     1
 62
    18
420
        0
176
     1
 90
       50
176
     1
 90
        3
176
     1
 62
     5
420
      255
176
     1
290
     0
176
     1
 90
       50
176
     1
 90
       50
176
     1
 90
       50
176
     1
290
     0
176
     1
 90
       50
176
     1
 62
   256
176
     0
 40
1.0
176
     0
 90
        2
176
     1
  1
strokes_ogs.tif
176
     1
290
     0
176
     1
 40
1.0
176
     1
 40
1.0
176
     1
  0
VISUALSTYLE
  5
1DC
102
{ACAD_REACTORS
330
2A
102
}
330
2A
100
AcDbVisualStyle
  2
JitterOff
 70
    20
177
     3
291
     1
 70
    58
 90
        2
176
     0
 90
        2
176
     0
 90
        0
176
     0
 90
        0
176
     0
 40
0.6
176
     0
 40
30.0
176
     0
 62
     7
420
 16777215
176
     0
 90
        1
176
     0
 90
        4
176
     0
 62
     7
176
     0
 62
   257
176
     0
 90
        1
176
     0
 90
        1
176
     0
 40
1.0
176
     0
 90
       10
176
     2
 62
     7
176
     0
 40
1.0
176
     0
 90
        1
176
     0
 90
        6
176
     0
 90
        2
176
     0
 62
     7
176
     0
 90
        5
176
     0
 90
        0
176
     0
 90
        0
176
     0
290
     0
176
     0
 90
        1
176
     0
 40
0.0
176
     0
 90
        0
176
     0
290
     0
176
     0
290
     1
176
     0
290
     1
176
     0
290
     0
176
     0
290
     0
176
     0
290
     0
176
     0
290
     0
176
     0
290
     0
176
     0
290
     0
176
     0
 90
       50
176
     0
 40
0.0
176
     0
 40
1.0
176
     0
 90
        0
176
     0
 62
    18
420
        0
176
     0
 90
       50
176
     0
 90
        3
176
     0
 62
     5
420
      255
176
     0
290
     0
176
     0
 90
       50
176
     0
 90
       50
176
     0
 90
       50
176
     0
290
     0
176
     0
 90
       50
176
     0
 62
   256
176
     0
 40
1.0
176
     0
 90
        2
176
     0
  1
strokes_ogs.tif
176
     0
290
     0
176
     0
 40
1.0
176
     0
 40
1.0
176
     0
  0
VISUALSTYLE
  5
38
102
{ACAD_REACTORS
330
2A
102
}
330
2A
100
AcDbVisualStyle
  2
Linepattern
 70
    14
177
     3
291
     1
 70
    58
 90
        2
176
     1
 90
        2
176
     1
 90
        0
176
     1
 90
        0
176
     1
 40
0.6
176
     1
 40
30.0
176
     1
 62
     7
420
 16777215
176
     1
 90
        1
176
     1
 90
        4
176
     1
 62
     7
176
     1
 62
   257
176
     1
 90
        7
176
     1
 90
        7
176
     1
 40
1.0
176
     1
 90
        8
176
     1
 62
     7
176
     1
 40
1.0
176
     1
 90
        1
176
     1
 90
        6
176
     1
 90
        2
176
     1
 62
     7
176
     1
 90
        5
176
     1
 90
        0
176
     1
 90
        0
176
     1
290
     0
176
     1
 90
        1
176
     1
 40
0.0
176
     1
 90
        0
176
     1
290
     0
176
     1
290
     1
176
     1
290
     1
176
     1
290
     0
176
     1
290
     0
176
     1
290
     0
176
     1
290
     0
176
     1
290
     0
176
     1
290
     0
176
     1
 90
       50
176
     1
 40
0.0
176
     1
 40
1.0
176
     1
 90
        0
176
     1
 62
    18
420
        0
176
     1
 90
       50
176
     1
 90
        3
176
     1
 62
     5
420
      255
176
     1
290
     0
176
     1
 90
       50
176
     1
 90
       50
176
     1
 90
       50
176
     1
290
     0
176
     1
 90
       50
176
     1
 62
   256
176
     0
 40
1.0
176
     0
 90
        2
176
     1
  1
strokes_ogs.tif
176
     1
290
     0
176
     1
 40
1.0
176
     1
 40
1.0
176
     1
  0
VISUALSTYLE
  5
1DD
102
{ACAD_REACTORS
330
2A
102
}
330
2A
100
AcDbVisualStyle
  2
OverhangOff
 70
    21
177
     3
291
     1
 70
    58
 90
        2
176
     0
 90
        2
176
     0
 90
        0
176
     0
 90
        0
176
     0
 40
0.6
176
     0
 40
30.0
176
     0
 62
     7
420
 16777215
176
     0
 90
        1
176
     0
 90
        4
176
     0
 62
     7
176
     0
 62
   257
176
     0
 90
        1
176
     0
 90
        1
176
     0
 40
1.0
176
     0
 90
        9
176
     2
 62
     7
176
     0
 40
1.0
176
     0
 90
        1
176
     0
 90
        6
176
     0
 90
        2
176
     0
 62
     7
176
     0
 90
        5
176
     0
 90
        0
176
     0
 90
        0
176
     0
290
     0
176
     0
 90
        1
176
     0
 40
0.0
176
     0
 90
        0
176
     0
290
     0
176
     0
290
     1
176
     0
290
     1
176
     0
290
     0
176
     0
290
     0
176
     0
290
     0
176
     0
290
     0
176
     0
290
     0
176
     0
290
     0
176
     0
 90
       50
176
     0
 40
0.0
176
     0
 40
1.0
176
     0
 90
        0
176
     0
 62
    18
420
        0
176
     0
 90
       50
176
     0
 90
        3
176
     0
 62
     5
420
      255
176
     0
290
     0
176
     0
 90
       50
176
     0
 90
       50
176
     0
 90
       50
176
     0
290
     0
176
     0
 90
       50
176
     0
 62
   256
176
     0
 40
1.0
176
     0
 90
        2
176
     0
  1
strokes_ogs.tif
176
     0
290
     0
176
     0
 40
1.0
176
     0
 40
1.0
176
     0
  0
VISUALSTYLE
  5
33
102
{ACAD_REACTORS
330
2A
102
}
330
2A
100
AcDbVisualStyle
  2
Realistic
 70
     8
177
     3
291
     0
 70
    58
 90
        2
176
     1
 90
        2
176
     1
 90
        0
176
     1
 90
        0
176
     1
 40
0.6
176
     1
 40
30.0
176
     1
 62
     7
420
 16777215
176
     1
 90
        1
176
     1
 90
        0
176
     1
 62
     7
176
     1
 62
   257
176
     1
 90
        1
176
     1
 90
        1
176
     1
 40
1.0
176
     1
 90
        8
176
     1
 62
     8
420
  7895160
176
     1
 40
1.0
176
     1
 90
        1
176
     1
 90
        6
176
     1
 90
        2
176
     1
 62
     7
176
     1
 90
        5
176
     1
 90
        0
176
     1
 90
        0
176
     1
290
     0
176
     1
 90
       13
176
     1
 40
0.0
176
     1
 90
        0
176
     1
290
     0
176
     1
290
     1
176
     1
290
     1
176
     1
290
     0
176
     1
290
     0
176
     1
290
     0
176
     1
290
     0
176
     1
290
     0
176
     1
290
     0
176
     1
 90
       50
176
     1
 40
0.0
176
     1
 40
1.0
176
     1
 90
        0
176
     1
 62
    18
420
        0
176
     1
 90
       50
176
     1
 90
        3
176
     1
 62
     5
420
      255
176
     1
290
     0
176
     1
 90
       50
176
     1
 90
       50
176
     1
 90
       50
176
     1
290
     0
176
     1
 90
       50
176
     1
 62
   256
176
     0
 40
1.0
176
     0
 90
        2
176
     1
  1
strokes_ogs.tif
176
     1
290
     0
176
     1
 40
1.0
176
     1
 40
1.0
176
     1
  0
VISUALSTYLE
  5
1DB
102
{ACAD_REACTORS
330
2A
102
}
330
2A
100
AcDbVisualStyle
  2
Shaded
 70
    27
177
     3
291
     0
 70
    58
 90
        2
176
     1
 90
        2
176
     1
 90
        1
176
     1
 90
        2
176
     1
 40
0.6
176
     1
 40
30.0
176
     1
 62
     7
420
 16777215
176
     1
 90
        0
176
     1
 90
        4
176
     1
 62
     7
176
     1
 62
   257
176
     1
 90
        1
176
     1
 90
        1
176
     1
 40
1.0
176
     1
 90
        8
176
     1
 62
   257
176
     1
 40
1.0
176
     1
 90
        1
176
     1
 90
        6
176
     1
 90
        2
176
     1
 62
     8
420
  7895160
176
     1
 90
        3
176
     1
 90
        0
176
     1
 90
        0
176
     1
290
     0
176
     1
 90
        5
176
     1
 40
0.0
176
     1
 90
        0
176
     1
290
     0
176
     1
290
     1
176
     1
290
     1
176
     1
290
     0
176
     1
290
     0
176
     1
290
     0
176
     1
290
     0
176
     1
290
     0
176
     1
290
     0
176
     1
 90
       50
176
     1
 40
0.0
176
     1
 40
1.0
176
     1
 90
        0
176
     1
 62
    18
420
        0
176
     1
 90
       50
176
     1
 90
        3
176
     1
 62
     5
420
      255
176
     1
290
     0
176
     1
 90
       50
176
     1
 90
       50
176
     1
 90
       50
176
     1
290
     0
176
     1
 90
       50
176
     1
 62
   256
176
     0
 40
1.0
176
     0
 90
        2
176
     1
  1
strokes_ogs.tif
176
     1
290
     0
176
     1
 40
1.0
176
     1
 40
1.0
176
     1
  0
VISUALSTYLE
  5
1DA
102
{ACAD_REACTORS
330
2A
102
}
330
2A
100
AcDbVisualStyle
  2
Shaded with edges
 70
    26
177
     3
291
     0
 70
    58
 90
        2
176
     1
 90
        2
176
     1
 90
        1
176
     1
 90
        2
176
     1
 40
0.6
176
     1
 40
30.0
176
     1
 62
     7
420
 16777215
176
     1
 90
        1
176
     1
 90
       10
176
     1
 62
     7
176
     1
 62
   257
176
     1
 90
        2
176
     1
 90
        1
176
     1
 40
1.0
176
     1
 90
        8
176
     1
 62
   257
176
     1
 40
1.0
176
     1
 90
        1
176
     1
 90
        6
176
     1
 90
        2
176
     1
 62
     7
176
     1
 90
        3
176
     1
 90
        0
176
     1
 90
        0
176
     1
290
     0
176
     1
 90
        5
176
     1
 40
0.0
176
     1
 90
        0
176
     1
290
     0
176
     1
290
     1
176
     1
290
     1
176
     1
290
     0
176
     1
290
     0
176
     1
290
     0
176
     1
290
     0
176
     1
290
     0
176
     1
290
     0
176
     1
 90
       50
176
     1
 40
0.0
176
     1
 40
1.0
176
     1
 90
        0
176
     1
 62
    18
420
        0
176
     1
 90
       50
176
     1
 90
        3
176
     1
 62
     5
420
      255
176
     1
290
     0
176
     1
 90
       50
176
     1
 90
       50
176
     1
 90
       50
176
     1
290
     0
176
     1
 90
       50
176
     1
 62
   256
176
     0
 40
1.0
176
     0
 90
        2
176
     1
  1
strokes_ogs.tif
176
     1
290
     0
176
     1
 40
1.0
176
     1
 40
1.0
176
     1
  0
VISUALSTYLE
  5
1D7
102
{ACAD_REACTORS
330
2A
102
}
330
2A
100
AcDbVisualStyle
  2
Shades of Gray
 70
    23
177
     3
291
     0
 70
    58
 90
        2
176
     1
 90
        2
176
     1
 90
        3
176
     1
 90
        0
176
     1
 40
0.6
176
     1
 40
30.0
176
     1
 62
     7
420
 16777215
176
     1
 90
        2
176
     1
 90
        2
176
     1
 62
     7
176
     1
 62
     7
176
     1
 90
        1
176
     1
 90
        1
176
     1
 40
40.0
176
     1
 90
        8
176
     1
 62
     7
176
     1
 40
1.0
176
     1
 90
        1
176
     1
 90
        6
176
     1
 90
        2
176
     1
 62
     7
176
     1
 90
        3
176
     1
 90
        0
176
     1
 90
        0
176
     1
290
     0
176
     1
 90
        1
176
     1
 40
0.0
176
     1
 90
        0
176
     1
290
     0
176
     1
290
     1
176
     1
290
     1
176
     1
290
     0
176
     1
290
     0
176
     1
290
     0
176
     1
290
     0
176
     1
290
     0
176
     1
290
     0
176
     1
 90
       50
176
     1
 40
0.0
176
     1
 40
1.0
176
     1
 90
        0
176
     1
 62
    18
420
        0
176
     1
 90
       50
176
     1
 90
        3
176
     1
 62
     5
420
      255
176
     1
290
     0
176
     1
 90
       50
176
     1
 90
       50
176
     1
 90
       50
176
     1
290
     0
176
     1
 90
       50
176
     1
 62
   256
176
     0
 40
1.0
176
     0
 90
        2
176
     1
  1
strokes_ogs.tif
176
     1
290
     0
176
     1
 40
1.0
176
     1
 40
1.0
176
     1
  0
VISUALSTYLE
  5
1D8
102
{ACAD_REACTORS
330
2A
102
}
330
2A
100
AcDbVisualStyle
  2
Sketchy
 70
    24
177
     3
291
     0
 70
    58
 90
        1
176
     1
 90
        2
176
     1
 90
        2
176
     1
 90
        0
176
     1
 40
0.6
176
     1
 40
30.0
176
     1
 62
     7
420
 16777215
176
     1
 90
        2
176
     1
 90
        2
176
     1
 62
     7
176
     1
 62
     7
176
     1
 90
        1
176
     1
 90
        1
176
     1
 40
40.0
176
     1
 90
       11
176
     1
 62
     7
176
     1
 40
1.0
176
     1
 90
        1
176
     1
 90
        6
176
     1
 90
        2
176
     1
 62
     7
176
     1
 90
        6
176
     1
 90
        0
176
     1
 90
        0
176
     1
290
     0
176
     1
 90
        1
176
     1
 40
0.0
176
     1
 90
        0
176
     1
290
     0
176
     1
290
     1
176
     1
290
     1
176
     1
290
     0
176
     1
290
     0
176
     1
290
     0
176
     1
290
     0
176
     1
290
     0
176
     1
290
     0
176
     1
 90
       50
176
     1
 40
0.0
176
     1
 40
1.0
176
     1
 90
        0
176
     1
 62
    18
420
        0
176
     1
 90
       50
176
     1
 90
        3
176
     1
 62
     5
420
      255
176
     1
290
     0
176
     1
 90
       50
176
     1
 90
       50
176
     1
 90
       50
176
     1
290
     0
176
     1
 90
       50
176
     1
 62
   256
176
     0
 40
1.0
176
     0
 90
        2
176
     1
  1
strokes_ogs.tif
176
     1
290
     0
176
     1
 40
1.0
176
     1
 40
1.0
176
     1
  0
VISUALSTYLE
  5
37
102
{ACAD_REACTORS
330
2A
102
}
330
2A
100
AcDbVisualStyle
  2
Thicken
 70
    13
177
     3
291
     1
 70
    58
 90
        2
176
     1
 90
        2
176
     1
 90
        0
176
     1
 90
        0
176
     1
 40
0.6
176
     1
 40
30.0
176
     1
 62
     7
420
 16777215
176
     1
 90
        1
176
     1
 90
        4
176
     1
 62
     7
176
     1
 62
   257
176
     1
 90
        1
176
     1
 90
        1
176
     1
 40
1.0
176
     1
 90
       12
176
     1
 62
     7
176
     1
 40
1.0
176
     1
 90
        1
176
     1
 90
        6
176
     1
 90
        2
176
     1
 62
     7
176
     1
 90
        5
176
     1
 90
        0
176
     1
 90
        0
176
     1
290
     0
176
     1
 90
        1
176
     1
 40
0.0
176
     1
 90
        0
176
     1
290
     0
176
     1
290
     1
176
     1
290
     1
176
     1
290
     0
176
     1
290
     0
176
     1
290
     0
176
     1
290
     0
176
     1
290
     0
176
     1
290
     0
176
     1
 90
       50
176
     1
 40
0.0
176
     1
 40
1.0
176
     1
 90
        0
176
     1
 62
    18
420
        0
176
     1
 90
       50
176
     1
 90
        3
176
     1
 62
     5
420
      255
176
     1
290
     0
176
     1
 90
       50
176
     1
 90
       50
176
     1
 90
       50
176
     1
290
     0
176
     1
 90
       50
176
     1
 62
   256
176
     0
 40
1.0
176
     0
 90
        2
176
     1
  1
strokes_ogs.tif
176
     1
290
     0
176
     1
 40
1.0
176
     1
 40
1.0
176
     1
  0
VISUALSTYLE
  5
1D5
102
{ACAD_REACTORS
330
2A
102
}
330
2A
100
AcDbVisualStyle
  2
Wireframe
 70
     5
177
     3
291
     0
 70
    58
 90
        0
176
     1
 90
        2
176
     1
 90
        0
176
     1
 90
        0
176
     1
 40
0.6
176
     1
 40
30.0
176
     1
 62
     7
420
 16777215
176
     1
 90
        1
176
     1
 90
        4
176
     1
 62
     7
176
     1
 62
   257
176
     1
 90
        1
176
     1
 90
        1
176
     1
 40
1.0
176
     1
 90
        0
176
     1
 62
   257
176
     1
 40
1.0
176
     1
 90
        1
176
     1
 90
        6
176
     1
 90
        2
176
     1
 62
     7
176
     1
 90
        3
176
     1
 90
        0
176
     1
 90
        0
176
     1
290
     0
176
     1
 90
        1
176
     1
 40
0.0
176
     1
 90
        0
176
     1
290
     0
176
     1
290
     1
176
     1
290
     1
176
     1
290
     0
176
     1
290
     0
176
     1
290
     0
176
     1
290
     0
176
     1
290
     0
176
     1
290
     0
176
     1
 90
       50
176
     1
 40
0.0
176
     1
 40
1.0
176
     1
 90
        0
176
     1
 62
    18
420
        0
176
     1
 90
       50
176
     1
 90
        3
176
     1
 62
     5
420
      255
176
     1
290
     0
176
     1
 90
       50
176
     1
 90
       50
176
     1
 90
       50
176
     1
290
     0
176
     1
 90
       50
176
     1
 62
   256
176
     0
 40
1.0
176
     0
 90
        2
176
     1
  1
strokes_ogs.tif
176
     1
290
     0
176
     1
 40
1.0
176
     1
 40
1.0
176
     1
  0
VISUALSTYLE
  5
1D9
102
{ACAD_REACTORS
330
2A
102
}
330
2A
100
AcDbVisualStyle
  2
X-Ray
 70
    25
177
     3
291
     0
 70
    58
 90
        2
176
     1
 90
        2
176
     1
 90
        1
176
     1
 90
        1
176
     1
 40
0.5
176
     1
 40
30.0
176
     1
 62
     7
420
 16777215
176
     1
 90
        1
176
     1
 90
        0
176
     1
 62
     7
176
     1
 62
   257
176
     1
 90
        1
176
     1
 90
        1
176
     1
 40
1.0
176
     1
 90
        8
176
     1
 62
     7
176
     1
 40
1.0
176
     1
 90
        1
176
     1
 90
        6
176
     1
 90
        2
176
     1
 62
     7
176
     1
 90
        3
176
     1
 90
        0
176
     1
 90
        0
176
     1
290
     0
176
     1
 90
       13
176
     1
 40
0.0
176
     1
 90
        0
176
     1
290
     0
176
     1
290
     1
176
     1
290
     1
176
     1
290
     0
176
     1
290
     0
176
     1
290
     0
176
     1
290
     0
176
     1
290
     0
176
     1
290
     0
176
     1
 90
       50
176
     1
 40
0.0
176
     1
 40
1.0
176
     1
 90
        0
176
     1
 62
    18
420
        0
176
     1
 90
       50
176
     1
 90
        3
176
     1
 62
     5
420
      255
176
     1
290
     0
176
     1
 90
       50
176
     1
 90
       50
176
     1
 90
       50
176
     1
290
     0
176
     1
 90
       50
176
     1
 62
   256
176
     0
 40
1.0
176
     0
 90
        2
176
     1
  1
strokes_ogs.tif
176
     1
290
     0
176
     1
 40
1.0
176
     1
 40
1.0
176
     1
  0
DICTIONARYVAR
  5
20B
102
{ACAD_REACTORS
330
206
102
}
330
206
100
DictionaryVariables
280
     0
  1
1:1
  0
DICTIONARYVAR
  5
208
102
{ACAD_REACTORS
330
206
102
}
330
206
100
DictionaryVariables
280
     0
  1
STANDARD
  0
DICTIONARYVAR
  5
207
102
{ACAD_REACTORS
330
206
102
}
330
206
100
DictionaryVariables
280
     0
  1
STANDARD
  0
DICTIONARYVAR
  5
209
102
{ACAD_REACTORS
330
206
102
}
330
206
100
DictionaryVariables
280
     0
  1
Imperial24
  0
DICTIONARYVAR
  5
20A
102
{ACAD_REACTORS
330
206
102
}
330
206
100
DictionaryVariables
280
     0
  1
Imperial24
  0
DICTIONARY
  5
20D
330
1E0
100
AcDbDictionary
280
     1
281
     1
  3
ACAD_ROUNDTRIP_2008_TABLESTYLE_CELLSTYLEMAP
360
20E
  0
CELLSTYLEMAP
  5
20E
102
{ACAD_REACTORS
330
20D
102
}
330
20D
100
AcDbCellStyleMap
 90
        3
300
CELLSTYLE
  1
TABLEFORMAT_BEGIN
 90
        5
170
     1
 91
        0
 92
    32768
 62
   257
 93
        1
300
CONTENTFORMAT
  1
CONTENTFORMAT_BEGIN
 90
        0
 91
        0
 92
      512
 93
        0
300

 40
0.0
140
1.0
 94
        5
 62
     0
340
11
144
0.25
309
CONTENTFORMAT_END
171
     0
 94
        0
309
TABLEFORMAT_END
  1
CELLSTYLE_BEGIN
 90
        1
 91
        1
300
_TITLE
309
CELLSTYLE_END
300
CELLSTYLE
  1
TABLEFORMAT_BEGIN
 90
        5
170
     1
 91
        0
 92
        0
 62
   257
 93
        1
300
CONTENTFORMAT
  1
CONTENTFORMAT_BEGIN
 90
        0
 91
        0
 92
      512
 93
        0
300

 40
0.0
140
1.0
 94
        5
 62
     0
340
11
144
0.18
309
CONTENTFORMAT_END
171
     0
 94
        0
309
TABLEFORMAT_END
  1
CELLSTYLE_BEGIN
 90
        2
 91
        1
300
_HEADER
309
CELLSTYLE_END
300
CELLSTYLE
  1
TABLEFORMAT_BEGIN
 90
        5
170
     1
 91
        0
 92
        0
 62
   257
 93
        1
300
CONTENTFORMAT
  1
CONTENTFORMAT_BEGIN
 90
        0
 91
        0
 92
      512
 93
        0
300

 40
0.0
140
1.0
 94
        2
 62
     0
340
11
144
0.18
309
CONTENTFORMAT_END
171
     0
 94
        0
309
TABLEFORMAT_END
  1
CELLSTYLE_BEGIN
 90
        3
 91
        2
300
_DATA
309
CELLSTYLE_END
  0
ENDSEC
  0
SECTION
  2
ACDSDATA
 70
     2
 71
     2
  0
ACDSSCHEMA
 90
        0
  1
AcDb_Thumbnail_Schema
  2
AcDbDs::ID
280
    10
 91
        8
  2
Thumbnail_Data
280
    15
 91
        0
101
ACDSRECORD
 95
        0
 90
        1
  2
AcDbDs::TreatedAsObjectData
280
     1
291
     1
101
ACDSRECORD
 95
        0
 90
        2
  2
AcDbDs::Legacy
280
     1
291
     1
101
ACDSRECORD
  1
AcDbDs::ID
 90
        3
  2
AcDs:Indexable
280
     1
291
     1
101
ACDSRECORD
  1
AcDbDs::ID
 90
        4
  2
AcDbDs::HandleAttribute
280
     7
282
     1
  0
ACDSSCHEMA
 90
        1
  1
AcDbDs::TreatedAsObjectDataSchema
  2
AcDbDs::TreatedAsObjectData
280
     1
 91
        0
  0
ACDSSCHEMA
 90
        2
  1
AcDbDs::LegacySchema
  2
AcDbDs::Legacy
280
     1
 91
        0
  0
ACDSSCHEMA
 90
        3
  1
AcDbDs::IndexedPropertySchema
  2
AcDs:Indexable
280
     1
 91
        0
  0
ACDSSCHEMA
 90
        4
  1
AcDbDs::HandleAttributeSchema
  2
AcDbDs::HandleAttribute
280
     7
 91
        1
284
     1
  0
ACDSRECORD
 90
        0
  2
AcDbDs::ID
280
    10
320
22
  2
Thumbnail_Data
280
    15
 94
     1657
310
89504E470D0A1A0A0000000D49484452000001000000009A0803000000712666C500000300504C54452128300000000000000000000000000000000000000000000000000000000000000000330000660000990000CC0000FF0033000033330033660033990033CC0033FF0066000066330066660066990066CC0066FF0099
310
000099330099660099990099CC0099FF00CC0000CC3300CC6600CC9900CCCC00CCFF00FF0000FF3300FF6600FF9900FFCC00FFFF3300003300333300663300993300CC3300FF3333003333333333663333993333CC3333FF3366003366333366663366993366CC3366FF3399003399333399663399993399CC3399FF33CC00
310
33CC3333CC6633CC9933CCCC33CCFF33FF0033FF3333FF6633FF9933FFCC33FFFF6600006600336600666600996600CC6600FF6633006633336633666633996633CC6633FF6666006666336666666666996666CC6666FF6699006699336699666699996699CC6699FF66CC0066CC3366CC6666CC9966CCCC66CCFF66FF0066
310
FF3366FF6666FF9966FFCC66FFFF9900009900339900669900999900CC9900FF9933009933339933669933999933CC9933FF9966009966339966669966999966CC9966FF9999009999339999669999999999CC9999FF99CC0099CC3399CC6699CC9999CCCC99CCFF99FF0099FF3399FF6699FF9999FFCC99FFFFCC0000CC00
310
33CC0066CC0099CC00CCCC00FFCC3300CC3333CC3366CC3399CC33CCCC33FFCC6600CC6633CC6666CC6699CC66CCCC66FFCC9900CC9933CC9966CC9999CC99CCCC99FFCCCC00CCCC33CCCC66CCCC99CCCCCCCCCCFFCCFF00CCFF33CCFF66CCFF99CCFFCCCCFFFFFF0000FF0033FF0066FF0099FF00CCFF00FFFF3300FF3333
310
FF3366FF3399FF33CCFF33FFFF6600FF6633FF6666FF6699FF66CCFF66FFFF9900FF9933FF9966FF9999FF99CCFF99FFFFCC00FFCC33FFCC66FFCC99FFCCCCFFCCFFFFFF00FFFF33FFFF66FFFF99FFFFCCFFFFFF0000000D0D0D1A1A1A2828283535354343435050505D5D5D6B6B6B787878868686939393A1A1A1AEAEAEBB
310
BBBBC9C9C9D6D6D6E4E4E4F1F1F1FFFFFF000000000000000000000000000000000000000000000000000000000000544354A80000033449444154789CEDDC6972AC300C04605F8AFB9FCAFF938C67262C36DE24ECB6BAEB55411250D0F798358C9C4BC47B9FFA51F55691FD226B4F67CB6DE073DD6537B8D935B2F674B200
310
EEB6C58EEE1D0E800B8D1E9ABD7CA3254000EFF8FF48FC72E1724DA9035830E60118866198A7B34D91D10A0CD39C2DDC8A9CD5F3F8AFEDD73F9BEDBBC31960D3E0730638ABAF65B6CF496019C0F29D20A3182F954B65909355EABD39025CBE4300A1CACA21805A1D020855568E5900B1C7FFE45382C901144380B020C0D8A3
310
181802840501C61EC5C010202C0830F628060603804F850BE34FCBF21040F64046C53AC0F7EDEEFA4B3B09207C28634200029C578A4300E14319130210E0BC521C02081FCA98980730FF5A800004382DCB4300D9031915E30091F73A8B030F70ECBA1E011A20D56B0D022E40A6C75203548092F68A0C30018A4FF03C012240
310
D59D5C6E633C80EA47BAFBEDD100EA1FE8DD3D01184053FFB7025800ED9381923B4201C8CC063A0609A06FA84D62672080DEA13EF1DD7100FAAF988F568001E8EF3F5E030540A2FF68151000A9A15ED73218007243CD2E854000E42A9D4B4100C8F57F154000909DEA8708A0590E0040B87F3800F9B19687820000BA1503C0
310
C4533F34E69AEE4B6EEE3DFA68560185FE09B02FFA02788DBED1F845FD51E9FF0C30731E01987990A10EC0AEECE4F7015AB3AD09F0AD3BF94D40A9FF5DE139FBFE86006A853F95CDDE04F600139F060F01CC9B0A80CA3F1C2F0610BAAF310001288C8FAC15EEB204C0FE3FBEFC9C09CB350012EBB7FB2C0470BCE5170A1060
310
25809BAFD23B11202C9700307F13B00ED0F63CE0BD5C02C0FC33C1860F4DA1BC1A2C4EED87859603A80D0A00DF10512B4C80F78A5980CF8A51000F03F0C8DF06278E7900ADEB03CC03FCAF1240E517084645C03AC0BEE6FC000A025000BC5658FE6A7138006181633900007E6244F63343A7AF210024054001C4042E853000
310
CC7F72544A2052040540442056020640627E003640B740FC1C4202E81348EC0E04D02790DA1909A0758C52D835F1032880DFBB814681450629B59E030BCD126B21586B9A9CABBD2F5C6F9EA0AB21C86F0909E08AC685965D32030AE072A3738B2F18820570DF0BA30E9D56CF979E1BE007EF502B787AD4053D000000004945
310
4E44AE426082
  0
ENDSEC
  0
EOF
