ISO-10303-21;
HEADER;
/* Generated by software containing ST-Developer
 * from STEP Tools, Inc. (www.steptools.com) 
 */

FILE_DESCRIPTION(
/* description */ (''),
/* implementation_level */ '2;1');

FILE_NAME(
/* name */ 
'C:\\Users\\STEFANO\\Desktop\\3D SEM\\1831-21 - FEEL ASTA SMALL F.E\\S
ORGENTI\\Assieme3.stp',
/* time_stamp */ '2019-09-18T09:50:08+02:00',
/* author */ ('STEFANO'),
/* organization */ (''),
/* preprocessor_version */ 'ST-DEVELOPER v17',
/* originating_system */ 'Autodesk Inventor 2019',
/* authorisation */ '');

FILE_SCHEMA (('AUTOMOTIVE_DESIGN { 1 0 10303 214 3 1 1 }'));
ENDSEC;

DATA;
#10=MECHANICAL_DESIGN_GEOMETRIC_PRESENTATION_REPRESENTATION('',(#43,#44,
#45,#46),#563);
#11=ITEM_DEFINED_TRANSFORMATION($,$,#338,#378);
#12=ITEM_DEFINED_TRANSFORMATION($,$,#349,#379);
#13=ITEM_DEFINED_TRANSFORMATION($,$,#349,#380);
#14=ITEM_DEFINED_TRANSFORMATION($,$,#355,#381);
#15=ITEM_DEFINED_TRANSFORMATION($,$,#372,#382);
#16=(
REPRESENTATION_RELATIONSHIP($,$,#584,#583)
REPRESENTATION_RELATIONSHIP_WITH_TRANSFORMATION(#11)
SHAPE_REPRESENTATION_RELATIONSHIP()
);
#17=(
REPRESENTATION_RELATIONSHIP($,$,#585,#583)
REPRESENTATION_RELATIONSHIP_WITH_TRANSFORMATION(#12)
SHAPE_REPRESENTATION_RELATIONSHIP()
);
#18=(
REPRESENTATION_RELATIONSHIP($,$,#585,#583)
REPRESENTATION_RELATIONSHIP_WITH_TRANSFORMATION(#13)
SHAPE_REPRESENTATION_RELATIONSHIP()
);
#19=(
REPRESENTATION_RELATIONSHIP($,$,#586,#583)
REPRESENTATION_RELATIONSHIP_WITH_TRANSFORMATION(#14)
SHAPE_REPRESENTATION_RELATIONSHIP()
);
#20=(
REPRESENTATION_RELATIONSHIP($,$,#587,#583)
REPRESENTATION_RELATIONSHIP_WITH_TRANSFORMATION(#15)
SHAPE_REPRESENTATION_RELATIONSHIP()
);
#21=CONTEXT_DEPENDENT_SHAPE_REPRESENTATION(#16,#578);
#22=CONTEXT_DEPENDENT_SHAPE_REPRESENTATION(#17,#579);
#23=CONTEXT_DEPENDENT_SHAPE_REPRESENTATION(#18,#580);
#24=CONTEXT_DEPENDENT_SHAPE_REPRESENTATION(#19,#581);
#25=CONTEXT_DEPENDENT_SHAPE_REPRESENTATION(#20,#582);
#26=NEXT_ASSEMBLY_USAGE_OCCURRENCE('rosone:1','rosone:1','rosone:1',#589,
#590,'rosone:1');
#27=NEXT_ASSEMBLY_USAGE_OCCURRENCE('vetro:1','vetro:1','vetro:1',#589,#591,
'vetro:1');
#28=NEXT_ASSEMBLY_USAGE_OCCURRENCE('vetro:2','vetro:2','vetro:2',#589,#591,
'vetro:2');
#29=NEXT_ASSEMBLY_USAGE_OCCURRENCE('disco luce:1','disco luce:1',
'disco luce:1',#589,#592,'disco luce:1');
#30=NEXT_ASSEMBLY_USAGE_OCCURRENCE('asta:1','asta:1','asta:1',#589,#593,
'asta:1');
#31=FACE_BOUND('',#109,.T.);
#32=FACE_BOUND('',#112,.T.);
#33=FACE_BOUND('',#116,.T.);
#34=FACE_BOUND('',#118,.T.);
#35=SHAPE_REPRESENTATION_RELATIONSHIP('SRR','None',#584,#39);
#36=SHAPE_REPRESENTATION_RELATIONSHIP('SRR','None',#585,#40);
#37=SHAPE_REPRESENTATION_RELATIONSHIP('SRR','None',#586,#41);
#38=SHAPE_REPRESENTATION_RELATIONSHIP('SRR','None',#587,#42);
#39=ADVANCED_BREP_SHAPE_REPRESENTATION('',(#47),#559);
#40=ADVANCED_BREP_SHAPE_REPRESENTATION('',(#48),#560);
#41=ADVANCED_BREP_SHAPE_REPRESENTATION('',(#49),#561);
#42=ADVANCED_BREP_SHAPE_REPRESENTATION('',(#50),#562);
#43=STYLED_ITEM('',(#300),#47);
#44=STYLED_ITEM('',(#300),#48);
#45=STYLED_ITEM('',(#300),#49);
#46=STYLED_ITEM('',(#300),#50);
#47=MANIFOLD_SOLID_BREP('Solido1',#251);
#48=MANIFOLD_SOLID_BREP('Solido1',#252);
#49=MANIFOLD_SOLID_BREP('Solido1',#253);
#50=MANIFOLD_SOLID_BREP('Solido1',#254);
#51=PLANE('',#347);
#52=PLANE('',#348);
#53=PLANE('',#353);
#54=PLANE('',#354);
#55=PLANE('',#359);
#56=PLANE('',#364);
#57=PLANE('',#370);
#58=PLANE('',#371);
#59=PLANE('',#376);
#60=PLANE('',#377);
#61=LINE('',#497,#68);
#62=LINE('',#505,#69);
#63=LINE('',#514,#70);
#64=LINE('',#523,#71);
#65=LINE('',#529,#72);
#66=LINE('',#534,#73);
#67=LINE('',#543,#74);
#68=VECTOR('',#403,90.);
#69=VECTOR('',#414,89.);
#70=VECTOR('',#427,89.);
#71=VECTOR('',#438,89.);
#72=VECTOR('',#447,83.);
#73=VECTOR('',#452,90.);
#74=VECTOR('',#465,7.5);
#75=CYLINDRICAL_SURFACE('',#345,90.);
#76=CYLINDRICAL_SURFACE('',#350,89.);
#77=CYLINDRICAL_SURFACE('',#356,89.);
#78=CYLINDRICAL_SURFACE('',#361,89.);
#79=CYLINDRICAL_SURFACE('',#366,83.);
#80=CYLINDRICAL_SURFACE('',#367,90.);
#81=CYLINDRICAL_SURFACE('',#373,7.5);
#82=FACE_OUTER_BOUND('',#100,.T.);
#83=FACE_OUTER_BOUND('',#101,.T.);
#84=FACE_OUTER_BOUND('',#102,.T.);
#85=FACE_OUTER_BOUND('',#103,.T.);
#86=FACE_OUTER_BOUND('',#104,.T.);
#87=FACE_OUTER_BOUND('',#105,.T.);
#88=FACE_OUTER_BOUND('',#106,.T.);
#89=FACE_OUTER_BOUND('',#107,.T.);
#90=FACE_OUTER_BOUND('',#108,.T.);
#91=FACE_OUTER_BOUND('',#110,.T.);
#92=FACE_OUTER_BOUND('',#111,.T.);
#93=FACE_OUTER_BOUND('',#113,.T.);
#94=FACE_OUTER_BOUND('',#114,.T.);
#95=FACE_OUTER_BOUND('',#115,.T.);
#96=FACE_OUTER_BOUND('',#117,.T.);
#97=FACE_OUTER_BOUND('',#119,.T.);
#98=FACE_OUTER_BOUND('',#120,.T.);
#99=FACE_OUTER_BOUND('',#121,.T.);
#100=EDGE_LOOP('',(#182,#183,#184,#185,#186,#187));
#101=EDGE_LOOP('',(#188,#189,#190,#191,#192));
#102=EDGE_LOOP('',(#193,#194));
#103=EDGE_LOOP('',(#195));
#104=EDGE_LOOP('',(#196,#197,#198,#199));
#105=EDGE_LOOP('',(#200));
#106=EDGE_LOOP('',(#201));
#107=EDGE_LOOP('',(#202,#203,#204,#205));
#108=EDGE_LOOP('',(#206));
#109=EDGE_LOOP('',(#207));
#110=EDGE_LOOP('',(#208,#209,#210,#211));
#111=EDGE_LOOP('',(#212));
#112=EDGE_LOOP('',(#213));
#113=EDGE_LOOP('',(#214,#215,#216,#217));
#114=EDGE_LOOP('',(#218,#219,#220,#221));
#115=EDGE_LOOP('',(#222));
#116=EDGE_LOOP('',(#223));
#117=EDGE_LOOP('',(#224));
#118=EDGE_LOOP('',(#225));
#119=EDGE_LOOP('',(#226,#227,#228,#229));
#120=EDGE_LOOP('',(#230));
#121=EDGE_LOOP('',(#231));
#122=CIRCLE('',#340,88.);
#123=CIRCLE('',#341,2.);
#124=CIRCLE('',#342,90.);
#125=CIRCLE('',#343,90.);
#126=CIRCLE('',#344,88.);
#127=CIRCLE('',#346,90.);
#128=CIRCLE('',#351,89.);
#129=CIRCLE('',#352,89.);
#130=CIRCLE('',#357,89.);
#131=CIRCLE('',#358,89.);
#132=CIRCLE('',#360,83.);
#133=CIRCLE('',#362,89.);
#134=CIRCLE('',#363,89.);
#135=CIRCLE('',#365,83.);
#136=CIRCLE('',#368,90.);
#137=CIRCLE('',#369,90.);
#138=CIRCLE('',#374,7.5);
#139=CIRCLE('',#375,7.5);
#140=VERTEX_POINT('',#485);
#141=VERTEX_POINT('',#486);
#142=VERTEX_POINT('',#488);
#143=VERTEX_POINT('',#490);
#144=VERTEX_POINT('',#495);
#145=VERTEX_POINT('',#502);
#146=VERTEX_POINT('',#504);
#147=VERTEX_POINT('',#511);
#148=VERTEX_POINT('',#513);
#149=VERTEX_POINT('',#517);
#150=VERTEX_POINT('',#520);
#151=VERTEX_POINT('',#522);
#152=VERTEX_POINT('',#526);
#153=VERTEX_POINT('',#531);
#154=VERTEX_POINT('',#533);
#155=VERTEX_POINT('',#540);
#156=VERTEX_POINT('',#542);
#157=EDGE_CURVE('',#140,#141,#122,.T.);
#158=EDGE_CURVE('',#141,#142,#123,.T.);
#159=EDGE_CURVE('',#142,#143,#124,.T.);
#160=EDGE_CURVE('',#143,#142,#125,.T.);
#161=EDGE_CURVE('',#141,#140,#126,.T.);
#162=EDGE_CURVE('',#144,#144,#127,.T.);
#163=EDGE_CURVE('',#144,#143,#61,.T.);
#164=EDGE_CURVE('',#145,#145,#128,.T.);
#165=EDGE_CURVE('',#145,#146,#62,.T.);
#166=EDGE_CURVE('',#146,#146,#129,.T.);
#167=EDGE_CURVE('',#147,#147,#130,.T.);
#168=EDGE_CURVE('',#147,#148,#63,.T.);
#169=EDGE_CURVE('',#148,#148,#131,.T.);
#170=EDGE_CURVE('',#149,#149,#132,.T.);
#171=EDGE_CURVE('',#150,#150,#133,.T.);
#172=EDGE_CURVE('',#150,#151,#64,.T.);
#173=EDGE_CURVE('',#151,#151,#134,.T.);
#174=EDGE_CURVE('',#152,#152,#135,.T.);
#175=EDGE_CURVE('',#152,#149,#65,.T.);
#176=EDGE_CURVE('',#153,#153,#136,.T.);
#177=EDGE_CURVE('',#153,#154,#66,.T.);
#178=EDGE_CURVE('',#154,#154,#137,.T.);
#179=EDGE_CURVE('',#155,#155,#138,.T.);
#180=EDGE_CURVE('',#155,#156,#67,.T.);
#181=EDGE_CURVE('',#156,#156,#139,.T.);
#182=ORIENTED_EDGE('',*,*,#157,.T.);
#183=ORIENTED_EDGE('',*,*,#158,.T.);
#184=ORIENTED_EDGE('',*,*,#159,.T.);
#185=ORIENTED_EDGE('',*,*,#160,.T.);
#186=ORIENTED_EDGE('',*,*,#158,.F.);
#187=ORIENTED_EDGE('',*,*,#161,.T.);
#188=ORIENTED_EDGE('',*,*,#162,.F.);
#189=ORIENTED_EDGE('',*,*,#163,.T.);
#190=ORIENTED_EDGE('',*,*,#159,.F.);
#191=ORIENTED_EDGE('',*,*,#160,.F.);
#192=ORIENTED_EDGE('',*,*,#163,.F.);
#193=ORIENTED_EDGE('',*,*,#157,.F.);
#194=ORIENTED_EDGE('',*,*,#161,.F.);
#195=ORIENTED_EDGE('',*,*,#162,.T.);
#196=ORIENTED_EDGE('',*,*,#164,.F.);
#197=ORIENTED_EDGE('',*,*,#165,.T.);
#198=ORIENTED_EDGE('',*,*,#166,.F.);
#199=ORIENTED_EDGE('',*,*,#165,.F.);
#200=ORIENTED_EDGE('',*,*,#166,.T.);
#201=ORIENTED_EDGE('',*,*,#164,.T.);
#202=ORIENTED_EDGE('',*,*,#167,.F.);
#203=ORIENTED_EDGE('',*,*,#168,.T.);
#204=ORIENTED_EDGE('',*,*,#169,.F.);
#205=ORIENTED_EDGE('',*,*,#168,.F.);
#206=ORIENTED_EDGE('',*,*,#169,.T.);
#207=ORIENTED_EDGE('',*,*,#170,.F.);
#208=ORIENTED_EDGE('',*,*,#171,.F.);
#209=ORIENTED_EDGE('',*,*,#172,.T.);
#210=ORIENTED_EDGE('',*,*,#173,.T.);
#211=ORIENTED_EDGE('',*,*,#172,.F.);
#212=ORIENTED_EDGE('',*,*,#173,.F.);
#213=ORIENTED_EDGE('',*,*,#174,.F.);
#214=ORIENTED_EDGE('',*,*,#174,.T.);
#215=ORIENTED_EDGE('',*,*,#175,.T.);
#216=ORIENTED_EDGE('',*,*,#170,.T.);
#217=ORIENTED_EDGE('',*,*,#175,.F.);
#218=ORIENTED_EDGE('',*,*,#176,.F.);
#219=ORIENTED_EDGE('',*,*,#177,.T.);
#220=ORIENTED_EDGE('',*,*,#178,.F.);
#221=ORIENTED_EDGE('',*,*,#177,.F.);
#222=ORIENTED_EDGE('',*,*,#178,.T.);
#223=ORIENTED_EDGE('',*,*,#171,.T.);
#224=ORIENTED_EDGE('',*,*,#176,.T.);
#225=ORIENTED_EDGE('',*,*,#167,.T.);
#226=ORIENTED_EDGE('',*,*,#179,.F.);
#227=ORIENTED_EDGE('',*,*,#180,.T.);
#228=ORIENTED_EDGE('',*,*,#181,.F.);
#229=ORIENTED_EDGE('',*,*,#180,.F.);
#230=ORIENTED_EDGE('',*,*,#181,.T.);
#231=ORIENTED_EDGE('',*,*,#179,.T.);
#232=TOROIDAL_SURFACE('',#339,88.,2.);
#233=ADVANCED_FACE('',(#82),#232,.T.);
#234=ADVANCED_FACE('',(#83),#75,.T.);
#235=ADVANCED_FACE('',(#84),#51,.F.);
#236=ADVANCED_FACE('',(#85),#52,.T.);
#237=ADVANCED_FACE('',(#86),#76,.T.);
#238=ADVANCED_FACE('',(#87),#53,.F.);
#239=ADVANCED_FACE('',(#88),#54,.T.);
#240=ADVANCED_FACE('',(#89),#77,.F.);
#241=ADVANCED_FACE('',(#90,#31),#55,.T.);
#242=ADVANCED_FACE('',(#91),#78,.F.);
#243=ADVANCED_FACE('',(#92,#32),#56,.F.);
#244=ADVANCED_FACE('',(#93),#79,.F.);
#245=ADVANCED_FACE('',(#94),#80,.T.);
#246=ADVANCED_FACE('',(#95,#33),#57,.F.);
#247=ADVANCED_FACE('',(#96,#34),#58,.T.);
#248=ADVANCED_FACE('',(#97),#81,.T.);
#249=ADVANCED_FACE('',(#98),#59,.F.);
#250=ADVANCED_FACE('',(#99),#60,.T.);
#251=CLOSED_SHELL('',(#233,#234,#235,#236));
#252=CLOSED_SHELL('',(#237,#238,#239));
#253=CLOSED_SHELL('',(#240,#241,#242,#243,#244,#245,#246,#247));
#254=CLOSED_SHELL('',(#248,#249,#250));
#255=DERIVED_UNIT_ELEMENT(#263,1.);
#256=DERIVED_UNIT_ELEMENT(#565,3.);
#257=DERIVED_UNIT_ELEMENT(#263,1.);
#258=DERIVED_UNIT_ELEMENT(#565,3.);
#259=DERIVED_UNIT_ELEMENT(#263,1.);
#260=DERIVED_UNIT_ELEMENT(#565,3.);
#261=DERIVED_UNIT_ELEMENT(#263,1.);
#262=DERIVED_UNIT_ELEMENT(#565,3.);
#263=(
MASS_UNIT()
NAMED_UNIT(*)
SI_UNIT($,.GRAM.)
);
#264=DERIVED_UNIT((#255,#256));
#265=DERIVED_UNIT((#257,#258));
#266=DERIVED_UNIT((#259,#260));
#267=DERIVED_UNIT((#261,#262));
#268=MEASURE_REPRESENTATION_ITEM('density measure',
POSITIVE_RATIO_MEASURE(1.),#264);
#269=MEASURE_REPRESENTATION_ITEM('density measure',
POSITIVE_RATIO_MEASURE(1.),#265);
#270=MEASURE_REPRESENTATION_ITEM('density measure',
POSITIVE_RATIO_MEASURE(1.),#266);
#271=MEASURE_REPRESENTATION_ITEM('density measure',
POSITIVE_RATIO_MEASURE(1.),#267);
#272=PROPERTY_DEFINITION_REPRESENTATION(#292,#280);
#273=PROPERTY_DEFINITION_REPRESENTATION(#293,#281);
#274=PROPERTY_DEFINITION_REPRESENTATION(#294,#282);
#275=PROPERTY_DEFINITION_REPRESENTATION(#295,#283);
#276=PROPERTY_DEFINITION_REPRESENTATION(#296,#284);
#277=PROPERTY_DEFINITION_REPRESENTATION(#297,#285);
#278=PROPERTY_DEFINITION_REPRESENTATION(#298,#286);
#279=PROPERTY_DEFINITION_REPRESENTATION(#299,#287);
#280=REPRESENTATION('material name',(#288),#559);
#281=REPRESENTATION('density',(#268),#559);
#282=REPRESENTATION('material name',(#289),#560);
#283=REPRESENTATION('density',(#269),#560);
#284=REPRESENTATION('material name',(#290),#561);
#285=REPRESENTATION('density',(#270),#561);
#286=REPRESENTATION('material name',(#291),#562);
#287=REPRESENTATION('density',(#271),#562);
#288=DESCRIPTIVE_REPRESENTATION_ITEM('Generico','Generico');
#289=DESCRIPTIVE_REPRESENTATION_ITEM('Generico','Generico');
#290=DESCRIPTIVE_REPRESENTATION_ITEM('Generico','Generico');
#291=DESCRIPTIVE_REPRESENTATION_ITEM('Generico','Generico');
#292=PROPERTY_DEFINITION('material property','material name',#590);
#293=PROPERTY_DEFINITION('material property','density of part',#590);
#294=PROPERTY_DEFINITION('material property','material name',#591);
#295=PROPERTY_DEFINITION('material property','density of part',#591);
#296=PROPERTY_DEFINITION('material property','material name',#592);
#297=PROPERTY_DEFINITION('material property','density of part',#592);
#298=PROPERTY_DEFINITION('material property','material name',#593);
#299=PROPERTY_DEFINITION('material property','density of part',#593);
#300=PRESENTATION_STYLE_ASSIGNMENT((#301));
#301=SURFACE_STYLE_USAGE(.BOTH.,#302);
#302=SURFACE_SIDE_STYLE('',(#303));
#303=SURFACE_STYLE_FILL_AREA(#304);
#304=FILL_AREA_STYLE('',(#305));
#305=FILL_AREA_STYLE_COLOUR('',#306);
#306=COLOUR_RGB('',0.749019607843137,0.749019607843137,0.749019607843137);
#307=DATE_TIME_ROLE('creation_date');
#308=DATE_TIME_ROLE('creation_date');
#309=DATE_TIME_ROLE('creation_date');
#310=DATE_TIME_ROLE('creation_date');
#311=DATE_TIME_ROLE('creation_date');
#312=APPLIED_DATE_AND_TIME_ASSIGNMENT(#317,#307,(#589));
#313=APPLIED_DATE_AND_TIME_ASSIGNMENT(#318,#308,(#590));
#314=APPLIED_DATE_AND_TIME_ASSIGNMENT(#319,#309,(#591));
#315=APPLIED_DATE_AND_TIME_ASSIGNMENT(#320,#310,(#592));
#316=APPLIED_DATE_AND_TIME_ASSIGNMENT(#321,#311,(#593));
#317=DATE_AND_TIME(#322,#327);
#318=DATE_AND_TIME(#323,#328);
#319=DATE_AND_TIME(#324,#329);
#320=DATE_AND_TIME(#325,#330);
#321=DATE_AND_TIME(#326,#331);
#322=CALENDAR_DATE(2019,18,9);
#323=CALENDAR_DATE(2019,18,9);
#324=CALENDAR_DATE(2019,18,9);
#325=CALENDAR_DATE(2019,18,9);
#326=CALENDAR_DATE(2019,18,9);
#327=LOCAL_TIME(9,32,38.,#332);
#328=LOCAL_TIME(9,28,32.,#333);
#329=LOCAL_TIME(9,24,42.,#334);
#330=LOCAL_TIME(8,57,44.,#335);
#331=LOCAL_TIME(9,26,8.,#336);
#332=COORDINATED_UNIVERSAL_TIME_OFFSET(0,0,.BEHIND.);
#333=COORDINATED_UNIVERSAL_TIME_OFFSET(0,0,.BEHIND.);
#334=COORDINATED_UNIVERSAL_TIME_OFFSET(0,0,.BEHIND.);
#335=COORDINATED_UNIVERSAL_TIME_OFFSET(0,0,.BEHIND.);
#336=COORDINATED_UNIVERSAL_TIME_OFFSET(0,0,.BEHIND.);
#337=AXIS2_PLACEMENT_3D('placement',#482,#383,#384);
#338=AXIS2_PLACEMENT_3D('placement',#483,#385,#386);
#339=AXIS2_PLACEMENT_3D('',#484,#387,#388);
#340=AXIS2_PLACEMENT_3D('',#487,#389,#390);
#341=AXIS2_PLACEMENT_3D('',#489,#391,#392);
#342=AXIS2_PLACEMENT_3D('',#491,#393,#394);
#343=AXIS2_PLACEMENT_3D('',#492,#395,#396);
#344=AXIS2_PLACEMENT_3D('',#493,#397,#398);
#345=AXIS2_PLACEMENT_3D('',#494,#399,#400);
#346=AXIS2_PLACEMENT_3D('',#496,#401,#402);
#347=AXIS2_PLACEMENT_3D('',#498,#404,#405);
#348=AXIS2_PLACEMENT_3D('',#499,#406,#407);
#349=AXIS2_PLACEMENT_3D('placement',#500,#408,#409);
#350=AXIS2_PLACEMENT_3D('',#501,#410,#411);
#351=AXIS2_PLACEMENT_3D('',#503,#412,#413);
#352=AXIS2_PLACEMENT_3D('',#506,#415,#416);
#353=AXIS2_PLACEMENT_3D('',#507,#417,#418);
#354=AXIS2_PLACEMENT_3D('',#508,#419,#420);
#355=AXIS2_PLACEMENT_3D('placement',#509,#421,#422);
#356=AXIS2_PLACEMENT_3D('',#510,#423,#424);
#357=AXIS2_PLACEMENT_3D('',#512,#425,#426);
#358=AXIS2_PLACEMENT_3D('',#515,#428,#429);
#359=AXIS2_PLACEMENT_3D('',#516,#430,#431);
#360=AXIS2_PLACEMENT_3D('',#518,#432,#433);
#361=AXIS2_PLACEMENT_3D('',#519,#434,#435);
#362=AXIS2_PLACEMENT_3D('',#521,#436,#437);
#363=AXIS2_PLACEMENT_3D('',#524,#439,#440);
#364=AXIS2_PLACEMENT_3D('',#525,#441,#442);
#365=AXIS2_PLACEMENT_3D('',#527,#443,#444);
#366=AXIS2_PLACEMENT_3D('',#528,#445,#446);
#367=AXIS2_PLACEMENT_3D('',#530,#448,#449);
#368=AXIS2_PLACEMENT_3D('',#532,#450,#451);
#369=AXIS2_PLACEMENT_3D('',#535,#453,#454);
#370=AXIS2_PLACEMENT_3D('',#536,#455,#456);
#371=AXIS2_PLACEMENT_3D('',#537,#457,#458);
#372=AXIS2_PLACEMENT_3D('placement',#538,#459,#460);
#373=AXIS2_PLACEMENT_3D('',#539,#461,#462);
#374=AXIS2_PLACEMENT_3D('',#541,#463,#464);
#375=AXIS2_PLACEMENT_3D('',#544,#466,#467);
#376=AXIS2_PLACEMENT_3D('',#545,#468,#469);
#377=AXIS2_PLACEMENT_3D('',#546,#470,#471);
#378=AXIS2_PLACEMENT_3D('',#547,#472,#473);
#379=AXIS2_PLACEMENT_3D('',#548,#474,#475);
#380=AXIS2_PLACEMENT_3D('',#549,#476,#477);
#381=AXIS2_PLACEMENT_3D('',#550,#478,#479);
#382=AXIS2_PLACEMENT_3D('',#551,#480,#481);
#383=DIRECTION('axis',(0.,0.,1.));
#384=DIRECTION('refdir',(1.,0.,0.));
#385=DIRECTION('axis',(0.,0.,1.));
#386=DIRECTION('refdir',(1.,0.,0.));
#387=DIRECTION('center_axis',(0.,-1.,0.));
#388=DIRECTION('ref_axis',(0.,0.,-1.));
#389=DIRECTION('center_axis',(0.,1.,0.));
#390=DIRECTION('ref_axis',(1.,0.,0.));
#391=DIRECTION('center_axis',(-1.,0.,-1.22464679914735E-16));
#392=DIRECTION('ref_axis',(-1.22464679914735E-16,0.,1.));
#393=DIRECTION('center_axis',(0.,-1.,0.));
#394=DIRECTION('ref_axis',(1.,0.,0.));
#395=DIRECTION('center_axis',(0.,-1.,0.));
#396=DIRECTION('ref_axis',(1.,0.,0.));
#397=DIRECTION('center_axis',(0.,1.,0.));
#398=DIRECTION('ref_axis',(1.,0.,0.));
#399=DIRECTION('center_axis',(0.,1.,0.));
#400=DIRECTION('ref_axis',(1.,0.,0.));
#401=DIRECTION('center_axis',(0.,1.,0.));
#402=DIRECTION('ref_axis',(1.,0.,0.));
#403=DIRECTION('',(0.,-1.,0.));
#404=DIRECTION('center_axis',(0.,1.,0.));
#405=DIRECTION('ref_axis',(0.,0.,1.));
#406=DIRECTION('center_axis',(0.,1.,0.));
#407=DIRECTION('ref_axis',(0.,0.,1.));
#408=DIRECTION('axis',(0.,0.,1.));
#409=DIRECTION('refdir',(1.,0.,0.));
#410=DIRECTION('center_axis',(0.,1.,0.));
#411=DIRECTION('ref_axis',(1.,0.,0.));
#412=DIRECTION('center_axis',(0.,1.,0.));
#413=DIRECTION('ref_axis',(1.,0.,0.));
#414=DIRECTION('',(0.,-1.,0.));
#415=DIRECTION('center_axis',(0.,-1.,0.));
#416=DIRECTION('ref_axis',(1.,0.,0.));
#417=DIRECTION('center_axis',(0.,1.,0.));
#418=DIRECTION('ref_axis',(0.,0.,1.));
#419=DIRECTION('center_axis',(0.,1.,0.));
#420=DIRECTION('ref_axis',(0.,0.,1.));
#421=DIRECTION('axis',(0.,0.,1.));
#422=DIRECTION('refdir',(1.,0.,0.));
#423=DIRECTION('center_axis',(0.,1.,0.));
#424=DIRECTION('ref_axis',(-1.,0.,0.));
#425=DIRECTION('center_axis',(0.,-1.,0.));
#426=DIRECTION('ref_axis',(-1.,0.,0.));
#427=DIRECTION('',(0.,-1.,0.));
#428=DIRECTION('center_axis',(0.,1.,0.));
#429=DIRECTION('ref_axis',(-1.,0.,0.));
#430=DIRECTION('center_axis',(0.,1.,0.));
#431=DIRECTION('ref_axis',(0.,0.,1.));
#432=DIRECTION('center_axis',(0.,1.,0.));
#433=DIRECTION('ref_axis',(-1.,0.,0.));
#434=DIRECTION('center_axis',(0.,1.,0.));
#435=DIRECTION('ref_axis',(-1.,0.,0.));
#436=DIRECTION('center_axis',(0.,1.,0.));
#437=DIRECTION('ref_axis',(-1.,0.,0.));
#438=DIRECTION('',(0.,1.,0.));
#439=DIRECTION('center_axis',(0.,1.,0.));
#440=DIRECTION('ref_axis',(-1.,0.,0.));
#441=DIRECTION('center_axis',(0.,1.,0.));
#442=DIRECTION('ref_axis',(0.,0.,1.));
#443=DIRECTION('center_axis',(0.,-1.,0.));
#444=DIRECTION('ref_axis',(-1.,0.,0.));
#445=DIRECTION('center_axis',(0.,1.,0.));
#446=DIRECTION('ref_axis',(-1.,0.,0.));
#447=DIRECTION('',(0.,1.,0.));
#448=DIRECTION('center_axis',(0.,1.,0.));
#449=DIRECTION('ref_axis',(1.,0.,0.));
#450=DIRECTION('center_axis',(0.,1.,0.));
#451=DIRECTION('ref_axis',(1.,0.,0.));
#452=DIRECTION('',(0.,-1.,0.));
#453=DIRECTION('center_axis',(0.,-1.,0.));
#454=DIRECTION('ref_axis',(1.,0.,0.));
#455=DIRECTION('center_axis',(0.,1.,0.));
#456=DIRECTION('ref_axis',(0.,0.,1.));
#457=DIRECTION('center_axis',(0.,1.,0.));
#458=DIRECTION('ref_axis',(0.,0.,1.));
#459=DIRECTION('axis',(0.,0.,1.));
#460=DIRECTION('refdir',(1.,0.,0.));
#461=DIRECTION('center_axis',(0.,1.,0.));
#462=DIRECTION('ref_axis',(1.,0.,0.));
#463=DIRECTION('center_axis',(0.,1.,0.));
#464=DIRECTION('ref_axis',(1.,0.,0.));
#465=DIRECTION('',(0.,-1.,0.));
#466=DIRECTION('center_axis',(0.,-1.,0.));
#467=DIRECTION('ref_axis',(1.,0.,0.));
#468=DIRECTION('center_axis',(0.,1.,0.));
#469=DIRECTION('ref_axis',(0.,0.,1.));
#470=DIRECTION('center_axis',(0.,1.,0.));
#471=DIRECTION('ref_axis',(0.,0.,1.));
#472=DIRECTION('',(0.,0.,1.));
#473=DIRECTION('',(1.,0.,0.));
#474=DIRECTION('',(0.,0.,1.));
#475=DIRECTION('',(1.,0.,0.));
#476=DIRECTION('',(0.,0.,1.));
#477=DIRECTION('',(1.,0.,0.));
#478=DIRECTION('',(0.,0.,-1.));
#479=DIRECTION('',(1.,0.,0.));
#480=DIRECTION('',(0.,0.,-1.));
#481=DIRECTION('',(1.,0.,0.));
#482=CARTESIAN_POINT('',(0.,0.,0.));
#483=CARTESIAN_POINT('',(0.,0.,0.));
#484=CARTESIAN_POINT('Origin',(0.,2.,0.));
#485=CARTESIAN_POINT('',(-88.,0.,1.07768918324967E-14));
#486=CARTESIAN_POINT('',(-1.07768918324967E-14,0.,88.));
#487=CARTESIAN_POINT('Origin',(0.,0.,0.));
#488=CARTESIAN_POINT('',(-1.10218211923262E-14,2.,90.));
#489=CARTESIAN_POINT('Origin',(-1.07768918324967E-14,2.,88.));
#490=CARTESIAN_POINT('',(-90.,2.,-1.10218211923262E-14));
#491=CARTESIAN_POINT('Origin',(0.,2.,0.));
#492=CARTESIAN_POINT('Origin',(0.,2.,0.));
#493=CARTESIAN_POINT('Origin',(0.,0.,0.));
#494=CARTESIAN_POINT('Origin',(0.,0.,0.));
#495=CARTESIAN_POINT('',(-90.,34.,1.10218211923262E-14));
#496=CARTESIAN_POINT('Origin',(0.,34.,0.));
#497=CARTESIAN_POINT('',(-90.,0.,1.10218211923262E-14));
#498=CARTESIAN_POINT('Origin',(3.55012486143496E-15,0.,0.));
#499=CARTESIAN_POINT('Origin',(3.55012486143496E-15,34.,0.));
#500=CARTESIAN_POINT('',(0.,0.,0.));
#501=CARTESIAN_POINT('Origin',(0.,0.,0.));
#502=CARTESIAN_POINT('',(-89.,2.6,1.08993565124114E-14));
#503=CARTESIAN_POINT('Origin',(0.,2.6,0.));
#504=CARTESIAN_POINT('',(-89.,0.,1.08993565124114E-14));
#505=CARTESIAN_POINT('',(-89.,0.,1.08993565124114E-14));
#506=CARTESIAN_POINT('Origin',(0.,0.,0.));
#507=CARTESIAN_POINT('Origin',(8.89190595386313E-15,0.,0.));
#508=CARTESIAN_POINT('Origin',(8.89190595386313E-15,2.6,0.));
#509=CARTESIAN_POINT('',(0.,0.,0.));
#510=CARTESIAN_POINT('Origin',(0.,34.,0.));
#511=CARTESIAN_POINT('',(89.,34.,1.08993565124114E-14));
#512=CARTESIAN_POINT('Origin',(0.,34.,0.));
#513=CARTESIAN_POINT('',(89.,31.4,1.08993565124114E-14));
#514=CARTESIAN_POINT('',(89.,34.,-1.08993565124114E-14));
#515=CARTESIAN_POINT('Origin',(0.,31.4,0.));
#516=CARTESIAN_POINT('Origin',(-3.56948845753279E-15,31.4,0.));
#517=CARTESIAN_POINT('',(83.,31.4,-1.0164568432923E-14));
#518=CARTESIAN_POINT('Origin',(0.,31.4,0.));
#519=CARTESIAN_POINT('Origin',(0.,0.,0.));
#520=CARTESIAN_POINT('',(89.,0.,1.08993565124114E-14));
#521=CARTESIAN_POINT('Origin',(0.,0.,0.));
#522=CARTESIAN_POINT('',(89.,2.6,1.08993565124114E-14));
#523=CARTESIAN_POINT('',(89.,0.,-1.08993565124114E-14));
#524=CARTESIAN_POINT('Origin',(0.,2.6,0.));
#525=CARTESIAN_POINT('Origin',(-3.56948845753279E-15,2.6,0.));
#526=CARTESIAN_POINT('',(83.,2.6,1.0164568432923E-14));
#527=CARTESIAN_POINT('Origin',(0.,2.6,0.));
#528=CARTESIAN_POINT('Origin',(0.,0.,0.));
#529=CARTESIAN_POINT('',(83.,0.,-1.0164568432923E-14));
#530=CARTESIAN_POINT('Origin',(0.,0.,0.));
#531=CARTESIAN_POINT('',(-90.,34.,1.10218211923262E-14));
#532=CARTESIAN_POINT('Origin',(0.,34.,0.));
#533=CARTESIAN_POINT('',(-90.,0.,1.10218211923262E-14));
#534=CARTESIAN_POINT('',(-90.,0.,1.10218211923262E-14));
#535=CARTESIAN_POINT('Origin',(0.,0.,0.));
#536=CARTESIAN_POINT('Origin',(3.55012486143496E-15,0.,0.));
#537=CARTESIAN_POINT('Origin',(3.55012486143496E-15,34.,0.));
#538=CARTESIAN_POINT('',(0.,0.,0.));
#539=CARTESIAN_POINT('Origin',(0.,0.,0.));
#540=CARTESIAN_POINT('',(-7.5,451.,9.18485099360515E-16));
#541=CARTESIAN_POINT('Origin',(0.,451.,0.));
#542=CARTESIAN_POINT('',(-7.5,0.,9.18485099360515E-16));
#543=CARTESIAN_POINT('',(-7.5,0.,9.18485099360515E-16));
#544=CARTESIAN_POINT('Origin',(0.,0.,0.));
#545=CARTESIAN_POINT('Origin',(5.69972880335668E-16,0.,-1.2335811384724E-16));
#546=CARTESIAN_POINT('Origin',(5.69972880335668E-16,451.,-1.2335811384724E-16));
#547=CARTESIAN_POINT('',(0.,0.,0.));
#548=CARTESIAN_POINT('',(0.,-453.6,0.));
#549=CARTESIAN_POINT('',(0.,-485.,0.));
#550=CARTESIAN_POINT('',(0.,-451.,0.));
#551=CARTESIAN_POINT('',(0.,0.,0.));
#552=UNCERTAINTY_MEASURE_WITH_UNIT(LENGTH_MEASURE(0.01),#564,
'DISTANCE_ACCURACY_VALUE',
'Maximum model space distance between geometric entities at asserted c
onnectivities');
#553=UNCERTAINTY_MEASURE_WITH_UNIT(LENGTH_MEASURE(0.01),#564,
'DISTANCE_ACCURACY_VALUE',
'Maximum model space distance between geometric entities at asserted c
onnectivities');
#554=UNCERTAINTY_MEASURE_WITH_UNIT(LENGTH_MEASURE(0.01),#564,
'DISTANCE_ACCURACY_VALUE',
'Maximum model space distance between geometric entities at asserted c
onnectivities');
#555=UNCERTAINTY_MEASURE_WITH_UNIT(LENGTH_MEASURE(0.01),#564,
'DISTANCE_ACCURACY_VALUE',
'Maximum model space distance between geometric entities at asserted c
onnectivities');
#556=UNCERTAINTY_MEASURE_WITH_UNIT(LENGTH_MEASURE(0.01),#564,
'DISTANCE_ACCURACY_VALUE',
'Maximum model space distance between geometric entities at asserted c
onnectivities');
#557=UNCERTAINTY_MEASURE_WITH_UNIT(LENGTH_MEASURE(0.01),#564,
'DISTANCE_ACCURACY_VALUE',
'Maximum model space distance between geometric entities at asserted c
onnectivities');
#558=(
GEOMETRIC_REPRESENTATION_CONTEXT(3)
GLOBAL_UNCERTAINTY_ASSIGNED_CONTEXT((#552))
GLOBAL_UNIT_ASSIGNED_CONTEXT((#564,#567,#566))
REPRESENTATION_CONTEXT('','3D')
);
#559=(
GEOMETRIC_REPRESENTATION_CONTEXT(3)
GLOBAL_UNCERTAINTY_ASSIGNED_CONTEXT((#553))
GLOBAL_UNIT_ASSIGNED_CONTEXT((#564,#567,#566))
REPRESENTATION_CONTEXT('','3D')
);
#560=(
GEOMETRIC_REPRESENTATION_CONTEXT(3)
GLOBAL_UNCERTAINTY_ASSIGNED_CONTEXT((#554))
GLOBAL_UNIT_ASSIGNED_CONTEXT((#564,#567,#566))
REPRESENTATION_CONTEXT('','3D')
);
#561=(
GEOMETRIC_REPRESENTATION_CONTEXT(3)
GLOBAL_UNCERTAINTY_ASSIGNED_CONTEXT((#555))
GLOBAL_UNIT_ASSIGNED_CONTEXT((#564,#567,#566))
REPRESENTATION_CONTEXT('','3D')
);
#562=(
GEOMETRIC_REPRESENTATION_CONTEXT(3)
GLOBAL_UNCERTAINTY_ASSIGNED_CONTEXT((#556))
GLOBAL_UNIT_ASSIGNED_CONTEXT((#564,#567,#566))
REPRESENTATION_CONTEXT('','3D')
);
#563=(
GEOMETRIC_REPRESENTATION_CONTEXT(3)
GLOBAL_UNCERTAINTY_ASSIGNED_CONTEXT((#557))
GLOBAL_UNIT_ASSIGNED_CONTEXT((#564,#567,#566))
REPRESENTATION_CONTEXT('','3D')
);
#564=(
LENGTH_UNIT()
NAMED_UNIT(*)
SI_UNIT(.MILLI.,.METRE.)
);
#565=(
LENGTH_UNIT()
NAMED_UNIT(*)
SI_UNIT(.CENTI.,.METRE.)
);
#566=(
NAMED_UNIT(*)
SI_UNIT($,.STERADIAN.)
SOLID_ANGLE_UNIT()
);
#567=(
NAMED_UNIT(*)
PLANE_ANGLE_UNIT()
SI_UNIT($,.RADIAN.)
);
#568=SHAPE_DEFINITION_REPRESENTATION(#573,#583);
#569=SHAPE_DEFINITION_REPRESENTATION(#574,#584);
#570=SHAPE_DEFINITION_REPRESENTATION(#575,#585);
#571=SHAPE_DEFINITION_REPRESENTATION(#576,#586);
#572=SHAPE_DEFINITION_REPRESENTATION(#577,#587);
#573=PRODUCT_DEFINITION_SHAPE('',$,#589);
#574=PRODUCT_DEFINITION_SHAPE('',$,#590);
#575=PRODUCT_DEFINITION_SHAPE('',$,#591);
#576=PRODUCT_DEFINITION_SHAPE('',$,#592);
#577=PRODUCT_DEFINITION_SHAPE('',$,#593);
#578=PRODUCT_DEFINITION_SHAPE($,$,#26);
#579=PRODUCT_DEFINITION_SHAPE($,$,#27);
#580=PRODUCT_DEFINITION_SHAPE($,$,#28);
#581=PRODUCT_DEFINITION_SHAPE($,$,#29);
#582=PRODUCT_DEFINITION_SHAPE($,$,#30);
#583=SHAPE_REPRESENTATION('',(#337,#378,#379,#380,#381,#382),#558);
#584=SHAPE_REPRESENTATION('',(#338),#559);
#585=SHAPE_REPRESENTATION('',(#349),#560);
#586=SHAPE_REPRESENTATION('',(#355),#561);
#587=SHAPE_REPRESENTATION('',(#372),#562);
#588=PRODUCT_DEFINITION_CONTEXT('part definition',#605,'design');
#589=PRODUCT_DEFINITION('Assieme3','Assieme3',#594,#588);
#590=PRODUCT_DEFINITION('rosone','rosone',#595,#588);
#591=PRODUCT_DEFINITION('vetro','vetro',#596,#588);
#592=PRODUCT_DEFINITION('disco luce','disco luce',#597,#588);
#593=PRODUCT_DEFINITION('asta','asta',#598,#588);
#594=PRODUCT_DEFINITION_FORMATION('',$,#607);
#595=PRODUCT_DEFINITION_FORMATION('',$,#608);
#596=PRODUCT_DEFINITION_FORMATION('',$,#609);
#597=PRODUCT_DEFINITION_FORMATION('',$,#610);
#598=PRODUCT_DEFINITION_FORMATION('',$,#611);
#599=PRODUCT_RELATED_PRODUCT_CATEGORY('Assieme3','Assieme3',(#607));
#600=PRODUCT_RELATED_PRODUCT_CATEGORY('rosone','rosone',(#608));
#601=PRODUCT_RELATED_PRODUCT_CATEGORY('vetro','vetro',(#609));
#602=PRODUCT_RELATED_PRODUCT_CATEGORY('disco luce','disco luce',(#610));
#603=PRODUCT_RELATED_PRODUCT_CATEGORY('asta','asta',(#611));
#604=APPLICATION_PROTOCOL_DEFINITION('international standard',
'automotive_design',2009,#605);
#605=APPLICATION_CONTEXT(
'Core Data for Automotive Mechanical Design Process');
#606=PRODUCT_CONTEXT('part definition',#605,'mechanical');
#607=PRODUCT('Assieme3','Assieme3',$,(#606));
#608=PRODUCT('rosone','rosone',$,(#606));
#609=PRODUCT('vetro','vetro',$,(#606));
#610=PRODUCT('disco luce','disco luce',$,(#606));
#611=PRODUCT('asta','asta',$,(#606));
ENDSEC;
END-ISO-10303-21;
