ISO-10303-21;
HEADER;

/* File generated by Shapr3D Version 3.0 */

FILE_DESCRIPTION(('HOOPS Exchange Step'),'2;1');

FILE_NAME('/private/var/mobile/Containers/Data/Application/EACC7B41-43FC-4A6E-8555-8B63CD0D3D79/tmp/export/temp_export',
'2024-04-13T09:36:57+02:00',
('mobile'),
('Shapr3D Limited'),
'HOOPS Exchange 2023.2',
'Shapr3D',
'Authorized');

FILE_SCHEMA( ('AUTOMOTIVE_DESIGN { 1 0 10303 214 1 1 1 1 }') );

ENDSEC;

DATA;
#3=(NAMED_UNIT(*)PLANE_ANGLE_UNIT()SI_UNIT($,.RADIAN.));
#4=PLANE_ANGLE_MEASURE_WITH_UNIT(PLANE_ANGLE_MEASURE(0.0174532925),#3);
#5=(CONVERSION_BASED_UNIT('DEGREE',#4)NAMED_UNIT(#6)PLANE_ANGLE_UNIT());
#6=DIMENSIONAL_EXPONENTS(0.,0.,0.,0.,0.,0.,0.);
#7=(NAMED_UNIT(*)SI_UNIT($,.STERADIAN.)SOLID_ANGLE_UNIT());
#8=(LENGTH_UNIT()NAMED_UNIT(*)SI_UNIT(.MILLI.,.METRE.));
#9=UNCERTAINTY_MEASURE_WITH_UNIT(LENGTH_MEASURE(1.000000E-05),#8,'DISTANCE_ACCURACY_VALUE','Maximum Tolerance applied to model');
#10=(GEOMETRIC_REPRESENTATION_CONTEXT(3)GLOBAL_UNCERTAINTY_ASSIGNED_CONTEXT((#9))GLOBAL_UNIT_ASSIGNED_CONTEXT((#8,#5,#7))REPRESENTATION_CONTEXT('','slit general 6mm'));
#12=CARTESIAN_POINT('',(0.,0.,0.));
#13=DIRECTION('',(0.,0.,1.));
#14=DIRECTION('',(1.,0.,0.));
#15=AXIS2_PLACEMENT_3D('TS3D_PRODUCT_CSYS',#12,#13,#14);
#27=CARTESIAN_POINT('',(0.,0.,0.2));
#28=DIRECTION('',(0.,0.,1.));
#29=DIRECTION('',(1.,0.,0.));
#30=AXIS2_PLACEMENT_3D('',#27,#28,#29);
#31=PLANE('',#30);
#32=CARTESIAN_POINT('',(-0.25,3.,0.2));
#33=VERTEX_POINT('',#32);
#34=CARTESIAN_POINT('',(-0.25,-3.,0.2));
#35=VERTEX_POINT('',#34);
#36=CARTESIAN_POINT('',(-0.25,3.,0.2));
#37=DIRECTION('',(0.,-1.,0.));
#38=VECTOR('',#37,6.);
#39=LINE('',#36,#38);
#40=EDGE_CURVE('',#33,#35,#39,.T.);
#41=ORIENTED_EDGE('',*,*,#40,.F.);
#42=CARTESIAN_POINT('',(0.25,3.,0.2));
#43=VERTEX_POINT('',#42);
#44=CARTESIAN_POINT('',(0.25,3.,0.2));
#45=DIRECTION('',(-1.,0.,0.));
#46=VECTOR('',#45,0.5);
#47=LINE('',#44,#46);
#48=EDGE_CURVE('',#43,#33,#47,.T.);
#49=ORIENTED_EDGE('',*,*,#48,.F.);
#50=CARTESIAN_POINT('',(0.25,-3.,0.2));
#51=VERTEX_POINT('',#50);
#52=CARTESIAN_POINT('',(0.25,-3.,0.2));
#53=DIRECTION('',(-0.,1.,0.));
#54=VECTOR('',#53,6.);
#55=LINE('',#52,#54);
#56=EDGE_CURVE('',#51,#43,#55,.T.);
#57=ORIENTED_EDGE('',*,*,#56,.F.);
#58=CARTESIAN_POINT('',(-0.25,-3.,0.2));
#59=DIRECTION('',(1.,0.,-0.));
#60=VECTOR('',#59,0.5);
#61=LINE('',#58,#60);
#62=EDGE_CURVE('',#35,#51,#61,.T.);
#63=ORIENTED_EDGE('',*,*,#62,.F.);
#64=EDGE_LOOP('',(#41,#49,#57,#63));
#65=FACE_BOUND('',#64,.T.);
#66=CARTESIAN_POINT('',(12.7,-0.,0.2));
#67=VERTEX_POINT('',#66);
#68=CARTESIAN_POINT('',(-12.7,0.,0.2));
#69=VERTEX_POINT('',#68);
#70=CARTESIAN_POINT('',(0.,0.,0.2));
#71=DIRECTION('',(0.,0.,1.));
#72=DIRECTION('',(1.,0.,-0.));
#73=AXIS2_PLACEMENT_3D('',#70,#71,#72);
#74=CIRCLE('',#73,12.7);
#75=EDGE_CURVE('',#67,#69,#74,.T.);
#76=ORIENTED_EDGE('',*,*,#75,.T.);
#77=CARTESIAN_POINT('',(0.,0.,0.2));
#78=DIRECTION('',(0.,0.,1.));
#79=DIRECTION('',(1.,0.,-0.));
#80=AXIS2_PLACEMENT_3D('',#77,#78,#79);
#81=CIRCLE('',#80,12.7);
#82=EDGE_CURVE('',#69,#67,#81,.T.);
#83=ORIENTED_EDGE('',*,*,#82,.T.);
#84=EDGE_LOOP('',(#76,#83));
#85=FACE_BOUND('',#84,.T.);
#86=ADVANCED_FACE('',(#65,#85),#31,.T.);
#87=CARTESIAN_POINT('',(-0.25,-0.,0.2));
#88=DIRECTION('',(1.,0.,0.));
#89=DIRECTION('',(-0.,1.,0.));
#90=AXIS2_PLACEMENT_3D('',#87,#88,#89);
#91=PLANE('',#90);
#92=CARTESIAN_POINT('',(-0.25,3.,0.));
#93=VERTEX_POINT('',#92);
#94=CARTESIAN_POINT('',(-0.25,-3.,0.));
#95=VERTEX_POINT('',#94);
#96=CARTESIAN_POINT('',(-0.25,3.,0.));
#97=DIRECTION('',(0.,-1.,0.));
#98=VECTOR('',#97,6.);
#99=LINE('',#96,#98);
#100=EDGE_CURVE('',#93,#95,#99,.T.);
#101=ORIENTED_EDGE('',*,*,#100,.F.);
#102=CARTESIAN_POINT('',(-0.25,3.,0.2));
#103=DIRECTION('',(0.,0.,-1.));
#104=VECTOR('',#103,0.2);
#105=LINE('',#102,#104);
#106=EDGE_CURVE('',#33,#93,#105,.T.);
#107=ORIENTED_EDGE('',*,*,#106,.F.);
#108=ORIENTED_EDGE('',*,*,#40,.T.);
#109=CARTESIAN_POINT('',(-0.25,-3.,0.2));
#110=DIRECTION('',(0.,0.,-1.));
#111=VECTOR('',#110,0.2);
#112=LINE('',#109,#111);
#113=EDGE_CURVE('',#35,#95,#112,.T.);
#114=ORIENTED_EDGE('',*,*,#113,.T.);
#115=EDGE_LOOP('',(#101,#107,#108,#114));
#116=FACE_BOUND('',#115,.T.);
#117=ADVANCED_FACE('',(#116),#91,.T.);
#118=CARTESIAN_POINT('',(0.,3.,0.2));
#119=DIRECTION('',(0.,-1.,0.));
#120=DIRECTION('',(0.,0.,-1.));
#121=AXIS2_PLACEMENT_3D('',#118,#119,#120);
#122=PLANE('',#121);
#123=CARTESIAN_POINT('',(0.25,3.,0.));
#124=VERTEX_POINT('',#123);
#125=CARTESIAN_POINT('',(0.25,3.,0.));
#126=DIRECTION('',(-1.,0.,0.));
#127=VECTOR('',#126,0.5);
#128=LINE('',#125,#127);
#129=EDGE_CURVE('',#124,#93,#128,.T.);
#130=ORIENTED_EDGE('',*,*,#129,.F.);
#131=CARTESIAN_POINT('',(0.25,3.,0.2));
#132=DIRECTION('',(0.,0.,-1.));
#133=VECTOR('',#132,0.2);
#134=LINE('',#131,#133);
#135=EDGE_CURVE('',#43,#124,#134,.T.);
#136=ORIENTED_EDGE('',*,*,#135,.F.);
#137=ORIENTED_EDGE('',*,*,#48,.T.);
#138=ORIENTED_EDGE('',*,*,#106,.T.);
#139=EDGE_LOOP('',(#130,#136,#137,#138));
#140=FACE_BOUND('',#139,.T.);
#141=ADVANCED_FACE('',(#140),#122,.T.);
#142=CARTESIAN_POINT('',(0.25,0.,0.2));
#143=DIRECTION('',(-1.,-0.,0.));
#144=DIRECTION('',(0.,-1.,0.));
#145=AXIS2_PLACEMENT_3D('',#142,#143,#144);
#146=PLANE('',#145);
#147=CARTESIAN_POINT('',(0.25,-3.,0.));
#148=VERTEX_POINT('',#147);
#149=CARTESIAN_POINT('',(0.25,-3.,0.));
#150=DIRECTION('',(-0.,1.,0.));
#151=VECTOR('',#150,6.);
#152=LINE('',#149,#151);
#153=EDGE_CURVE('',#148,#124,#152,.T.);
#154=ORIENTED_EDGE('',*,*,#153,.F.);
#155=CARTESIAN_POINT('',(0.25,-3.,0.2));
#156=DIRECTION('',(0.,0.,-1.));
#157=VECTOR('',#156,0.2);
#158=LINE('',#155,#157);
#159=EDGE_CURVE('',#51,#148,#158,.T.);
#160=ORIENTED_EDGE('',*,*,#159,.F.);
#161=ORIENTED_EDGE('',*,*,#56,.T.);
#162=ORIENTED_EDGE('',*,*,#135,.T.);
#163=EDGE_LOOP('',(#154,#160,#161,#162));
#164=FACE_BOUND('',#163,.T.);
#165=ADVANCED_FACE('',(#164),#146,.T.);
#166=CARTESIAN_POINT('',(0.,-3.,0.2));
#167=DIRECTION('',(0.,1.,0.));
#168=DIRECTION('',(0.,0.,1.));
#169=AXIS2_PLACEMENT_3D('',#166,#167,#168);
#170=PLANE('',#169);
#171=CARTESIAN_POINT('',(-0.25,-3.,0.));
#172=DIRECTION('',(1.,0.,-0.));
#173=VECTOR('',#172,0.5);
#174=LINE('',#171,#173);
#175=EDGE_CURVE('',#95,#148,#174,.T.);
#176=ORIENTED_EDGE('',*,*,#175,.F.);
#177=ORIENTED_EDGE('',*,*,#113,.F.);
#178=ORIENTED_EDGE('',*,*,#62,.T.);
#179=ORIENTED_EDGE('',*,*,#159,.T.);
#180=EDGE_LOOP('',(#176,#177,#178,#179));
#181=FACE_BOUND('',#180,.T.);
#182=ADVANCED_FACE('',(#181),#170,.T.);
#183=CARTESIAN_POINT('',(0.,0.,0.2));
#184=DIRECTION('',(0.,0.,-1.));
#185=DIRECTION('',(-1.,0.,0.));
#186=AXIS2_PLACEMENT_3D('',#183,#184,#185);
#187=CYLINDRICAL_SURFACE('',#186,12.7);
#188=CARTESIAN_POINT('',(-12.7,0.,0.));
#189=VERTEX_POINT('',#188);
#190=CARTESIAN_POINT('',(-12.7,0.,0.));
#191=DIRECTION('',(-0.,-0.,1.));
#192=VECTOR('',#191,0.2);
#193=LINE('',#190,#192);
#194=EDGE_CURVE('',#189,#69,#193,.T.);
#195=ORIENTED_EDGE('',*,*,#194,.T.);
#196=ORIENTED_EDGE('',*,*,#75,.F.);
#197=ORIENTED_EDGE('',*,*,#82,.F.);
#198=ORIENTED_EDGE('',*,*,#194,.F.);
#199=CARTESIAN_POINT('',(12.7,-0.,0.));
#200=VERTEX_POINT('',#199);
#201=CARTESIAN_POINT('',(0.,0.,0.));
#202=DIRECTION('',(0.,0.,1.));
#203=DIRECTION('',(1.,0.,-0.));
#204=AXIS2_PLACEMENT_3D('',#201,#202,#203);
#205=CIRCLE('',#204,12.7);
#206=EDGE_CURVE('',#189,#200,#205,.T.);
#207=ORIENTED_EDGE('',*,*,#206,.T.);
#208=CARTESIAN_POINT('',(0.,0.,0.));
#209=DIRECTION('',(0.,0.,1.));
#210=DIRECTION('',(1.,0.,-0.));
#211=AXIS2_PLACEMENT_3D('',#208,#209,#210);
#212=CIRCLE('',#211,12.7);
#213=EDGE_CURVE('',#200,#189,#212,.T.);
#214=ORIENTED_EDGE('',*,*,#213,.T.);
#215=EDGE_LOOP('',(#195,#196,#197,#198,#207,#214));
#216=FACE_BOUND('',#215,.T.);
#217=ADVANCED_FACE('',(#216),#187,.T.);
#218=CARTESIAN_POINT('',(0.,0.,0.));
#219=DIRECTION('',(0.,0.,1.));
#220=DIRECTION('',(1.,0.,0.));
#221=AXIS2_PLACEMENT_3D('',#218,#219,#220);
#222=PLANE('',#221);
#223=ORIENTED_EDGE('',*,*,#100,.T.);
#224=ORIENTED_EDGE('',*,*,#175,.T.);
#225=ORIENTED_EDGE('',*,*,#153,.T.);
#226=ORIENTED_EDGE('',*,*,#129,.T.);
#227=EDGE_LOOP('',(#223,#224,#225,#226));
#228=FACE_BOUND('',#227,.T.);
#229=ORIENTED_EDGE('',*,*,#206,.F.);
#230=ORIENTED_EDGE('',*,*,#213,.F.);
#231=EDGE_LOOP('',(#229,#230));
#232=FACE_BOUND('',#231,.T.);
#233=ADVANCED_FACE('',(#228,#232),#222,.F.);
#234=CLOSED_SHELL('',(#86,#117,#141,#165,#182,#217,#233));
#235=MANIFOLD_SOLID_BREP('slit general 6mm',#234);
#236=COLOUR_RGB('',0.494117647,0.494117647,0.525490224);
#237=FILL_AREA_STYLE_COLOUR('',#236);
#238=FILL_AREA_STYLE('',(#237));
#239=SURFACE_STYLE_FILL_AREA(#238);
#240=SURFACE_SIDE_STYLE('',(#239));
#241=SURFACE_STYLE_USAGE(.BOTH.,#240);
#242=PRESENTATION_STYLE_ASSIGNMENT((#241));
#26=STYLED_ITEM('',(#242),#235);
#16=SHAPE_REPRESENTATION('slit general 6mm',(#15),#10);
#17=ADVANCED_BREP_SHAPE_REPRESENTATION('slit general 6mm',(#235),#10);
#250=SHAPE_REPRESENTATION_RELATIONSHIP('','',#16,#17);
#251=APPLICATION_CONTEXT('data for automotive mechanical design processes');
#252=APPLICATION_PROTOCOL_DEFINITION('international standard','automotive_design',1994,#251);
#253=PRODUCT_CONTEXT('',#251,'mechanical');
#254=PRODUCT_DEFINITION_CONTEXT('part definition',#251,'design');
#24=PRODUCT('slit general 6mm','slit general 6mm','',(#253));
#255=PRODUCT_RELATED_PRODUCT_CATEGORY('part','',(#24));
#256=PRODUCT_DEFINITION_FORMATION_WITH_SPECIFIED_SOURCE('','',#24,.NOT_KNOWN.);
#25=PRODUCT_DEFINITION('design','',#256,#254);
#23=PRODUCT_DEFINITION_SHAPE('','',#25);
#257=SHAPE_DEFINITION_REPRESENTATION(#23,#16);
#11=DRAUGHTING_MODEL('',(),#10);
#1=MECHANICAL_DESIGN_GEOMETRIC_PRESENTATION_REPRESENTATION('',(#26),#10);
ENDSEC;
END-ISO-10303-21;
