999
Erzeugt mit innoplus bad 
0
SECTION
2
HEADER
9
$ACADVER
1
AC1009
9
$DWGCODEPAGE
3
ISO8859-1
0
ENDSEC
0
SECTION
2
TABLES
0
TABLE
2
LAYER
70
1
0
LAYER
2
0
70
0
62
7
6
CONTINUOUS
0
ENDTAB
0
ENDSEC
0
SECTION
2
ENTITIES
0
LINE
8
0
6
CONTINUOUS
10
135.207107
20
-19.500000
30
0.0
11
134.500000
21
-18.792893
31
0.0
0
LINE
8
0
6
CONTINUOUS
10
134.000000
20
-19.000000
30
0.0
11
135.000000
21
-20.000000
31
0.0
0
LINE
8
0
6
CONTINUOUS
10
134.500000
20
-18.792893
30
0.0
11
134.500000
21
18.792893
31
0.0
0
LINE
8
0
6
CONTINUOUS
10
134.000000
20
19.000000
30
0.0
11
134.000000
21
-19.000000
31
0.0
0
LINE
8
0
6
CONTINUOUS
10
134.500000
20
18.792893
30
0.0
11
135.207107
21
19.500000
31
0.0
0
LINE
8
0
6
CONTINUOUS
10
135.000000
20
20.000000
30
0.0
11
134.000000
21
19.000000
31
0.0
0
LINE
8
0
6
CONTINUOUS
10
135.207107
20
19.500000
30
0.0
11
148.792893
21
19.500000
31
0.0
0
LINE
8
0
6
CONTINUOUS
10
149.000000
20
20.000000
30
0.0
11
135.000000
21
20.000000
31
0.0
0
LINE
8
0
6
CONTINUOUS
10
148.792893
20
19.500000
30
0.0
11
149.500000
21
18.792893
31
0.0
0
LINE
8
0
6
CONTINUOUS
10
150.000000
20
19.000000
30
0.0
11
149.000000
21
20.000000
31
0.0
0
LINE
8
0
6
CONTINUOUS
10
149.500000
20
18.792893
30
0.0
11
149.500000
21
-18.792893
31
0.0
0
LINE
8
0
6
CONTINUOUS
10
150.000000
20
-19.000000
30
0.0
11
150.000000
21
19.000000
31
0.0
0
LINE
8
0
6
CONTINUOUS
10
149.500000
20
-18.792893
30
0.0
11
148.792893
21
-19.500000
31
0.0
0
LINE
8
0
6
CONTINUOUS
10
149.000000
20
-20.000000
30
0.0
11
150.000000
21
-19.000000
31
0.0
0
LINE
8
0
6
CONTINUOUS
10
148.792893
20
-19.500000
30
0.0
11
135.207107
21
-19.500000
31
0.0
0
LINE
8
0
6
CONTINUOUS
10
135.000000
20
-20.000000
30
0.0
11
149.000000
21
-20.000000
31
0.0
0
LINE
8
0
6
CONTINUOUS
10
-148.792893
20
-19.500000
30
0.0
11
-149.500000
21
-18.792893
31
0.0
0
LINE
8
0
6
CONTINUOUS
10
-150.000000
20
-19.000000
30
0.0
11
-149.000000
21
-20.000000
31
0.0
0
LINE
8
0
6
CONTINUOUS
10
-149.500000
20
-18.792893
30
0.0
11
-149.500000
21
18.792893
31
0.0
0
LINE
8
0
6
CONTINUOUS
10
-150.000000
20
19.000000
30
0.0
11
-150.000000
21
-19.000000
31
0.0
0
LINE
8
0
6
CONTINUOUS
10
-149.500000
20
18.792893
30
0.0
11
-148.792893
21
19.500000
31
0.0
0
LINE
8
0
6
CONTINUOUS
10
-149.000000
20
20.000000
30
0.0
11
-150.000000
21
19.000000
31
0.0
0
LINE
8
0
6
CONTINUOUS
10
-148.792893
20
19.500000
30
0.0
11
-135.207107
21
19.500000
31
0.0
0
LINE
8
0
6
CONTINUOUS
10
-135.000000
20
20.000000
30
0.0
11
-149.000000
21
20.000000
31
0.0
0
LINE
8
0
6
CONTINUOUS
10
-135.207107
20
19.500000
30
0.0
11
-134.500000
21
18.792893
31
0.0
0
LINE
8
0
6
CONTINUOUS
10
-134.000000
20
19.000000
30
0.0
11
-135.000000
21
20.000000
31
0.0
0
LINE
8
0
6
CONTINUOUS
10
-134.500000
20
18.792893
30
0.0
11
-134.500000
21
-18.792893
31
0.0
0
LINE
8
0
6
CONTINUOUS
10
-134.000000
20
-19.000000
30
0.0
11
-134.000000
21
19.000000
31
0.0
0
LINE
8
0
6
CONTINUOUS
10
-134.500000
20
-18.792893
30
0.0
11
-135.207107
21
-19.500000
31
0.0
0
LINE
8
0
6
CONTINUOUS
10
-135.000000
20
-20.000000
30
0.0
11
-134.000000
21
-19.000000
31
0.0
0
LINE
8
0
6
CONTINUOUS
10
-135.207107
20
-19.500000
30
0.0
11
-148.792893
21
-19.500000
31
0.0
0
LINE
8
0
6
CONTINUOUS
10
-149.000000
20
-20.000000
30
0.0
11
-135.000000
21
-20.000000
31
0.0
0
LINE
8
0
6
CONTINUOUS
10
135.088096
20
20.000000
30
0.0
11
135.000000
21
20.000000
31
0.0
0
LINE
8
0
6
CONTINUOUS
10
134.000000
20
19.000000
30
0.0
11
135.088096
21
20.000000
31
0.0
0
LINE
8
0
6
CONTINUOUS
10
135.000000
20
20.000000
30
0.0
11
134.000000
21
19.000000
31
0.0
0
LINE
8
0
6
CONTINUOUS
10
-135.000000
20
20.000000
30
0.0
11
-135.088096
21
20.000000
31
0.0
0
LINE
8
0
6
CONTINUOUS
10
-134.000000
20
19.000000
30
0.0
11
-135.000000
21
20.000000
31
0.0
0
LINE
8
0
6
CONTINUOUS
10
-135.088096
20
20.000000
30
0.0
11
-134.000000
21
19.000000
31
0.0
0
LINE
8
0
6
CONTINUOUS
10
135.088096
20
-20.000000
30
0.0
11
134.000000
21
-19.000000
31
0.0
0
LINE
8
0
6
CONTINUOUS
10
135.000000
20
-20.000000
30
0.0
11
135.088096
21
-20.000000
31
0.0
0
LINE
8
0
6
CONTINUOUS
10
134.000000
20
-19.000000
30
0.0
11
135.000000
21
-20.000000
31
0.0
0
LINE
8
0
6
CONTINUOUS
10
-135.000000
20
-20.000000
30
0.0
11
-134.000000
21
-19.000000
31
0.0
0
LINE
8
0
6
CONTINUOUS
10
-135.088096
20
-20.000000
30
0.0
11
-135.000000
21
-20.000000
31
0.0
0
LINE
8
0
6
CONTINUOUS
10
-134.000000
20
-19.000000
30
0.0
11
-135.088096
21
-20.000000
31
0.0
0
LINE
8
0
6
CONTINUOUS
10
148.911904
20
-20.000000
30
0.0
11
149.000000
21
-20.000000
31
0.0
0
LINE
8
0
6
CONTINUOUS
10
149.000000
20
-20.000000
30
0.0
11
150.000000
21
-19.000000
31
0.0
0
LINE
8
0
6
CONTINUOUS
10
147.978548
20
-20.000000
30
0.0
11
148.911904
21
-20.000000
31
0.0
0
LINE
8
0
6
CONTINUOUS
10
150.000000
20
-19.000000
30
0.0
11
149.121320
21
-19.000000
31
0.0
0
LINE
8
0
6
CONTINUOUS
10
145.732932
20
-20.000000
30
0.0
11
147.978548
21
-20.000000
31
0.0
0
LINE
8
0
6
CONTINUOUS
10
149.121320
20
-19.000000
30
0.0
11
147.000000
21
-19.000000
31
0.0
0
LINE
8
0
6
CONTINUOUS
10
-145.732932
20
-20.000000
30
0.0
11
145.732932
21
-20.000000
31
0.0
0
LINE
8
0
6
CONTINUOUS
10
147.000000
20
-19.000000
30
0.0
11
-147.000000
21
-19.000000
31
0.0
0
LINE
8
0
6
CONTINUOUS
10
-147.978548
20
-20.000000
30
0.0
11
-145.732932
21
-20.000000
31
0.0
0
LINE
8
0
6
CONTINUOUS
10
-147.000000
20
-19.000000
30
0.0
11
-149.121320
21
-19.000000
31
0.0
0
LINE
8
0
6
CONTINUOUS
10
-148.911904
20
-20.000000
30
0.0
11
-147.978548
21
-20.000000
31
0.0
0
LINE
8
0
6
CONTINUOUS
10
-150.000000
20
-19.000000
30
0.0
11
-148.911904
21
-20.000000
31
0.0
0
LINE
8
0
6
CONTINUOUS
10
-149.121320
20
-19.000000
30
0.0
11
-150.000000
21
-19.000000
31
0.0
0
LINE
8
0
6
CONTINUOUS
10
-149.000000
20
-20.000000
30
0.0
11
-148.911904
21
-20.000000
31
0.0
0
LINE
8
0
6
CONTINUOUS
10
-150.000000
20
-19.000000
30
0.0
11
-149.000000
21
-20.000000
31
0.0
0
LINE
8
0
6
CONTINUOUS
10
-148.911904
20
-20.000000
30
0.0
11
-150.000000
21
-19.000000
31
0.0
0
LINE
8
0
6
CONTINUOUS
10
148.911904
20
20.000000
30
0.0
11
150.000000
21
19.000000
31
0.0
0
LINE
8
0
6
CONTINUOUS
10
149.000000
20
20.000000
30
0.0
11
148.911904
21
20.000000
31
0.0
0
LINE
8
0
6
CONTINUOUS
10
150.000000
20
19.000000
30
0.0
11
149.000000
21
20.000000
31
0.0
0
LINE
8
0
6
CONTINUOUS
10
149.121320
20
19.000000
30
0.0
11
150.000000
21
19.000000
31
0.0
0
LINE
8
0
6
CONTINUOUS
10
148.911904
20
20.000000
30
0.0
11
147.978548
21
20.000000
31
0.0
0
LINE
8
0
6
CONTINUOUS
10
150.000000
20
19.000000
30
0.0
11
148.911904
21
20.000000
31
0.0
0
LINE
8
0
6
CONTINUOUS
10
147.000000
20
19.000000
30
0.0
11
149.121320
21
19.000000
31
0.0
0
LINE
8
0
6
CONTINUOUS
10
147.978548
20
20.000000
30
0.0
11
145.732932
21
20.000000
31
0.0
0
LINE
8
0
6
CONTINUOUS
10
-147.000000
20
19.000000
30
0.0
11
147.000000
21
19.000000
31
0.0
0
LINE
8
0
6
CONTINUOUS
10
145.732932
20
20.000000
30
0.0
11
-145.732932
21
20.000000
31
0.0
0
LINE
8
0
6
CONTINUOUS
10
-149.121320
20
19.000000
30
0.0
11
-147.000000
21
19.000000
31
0.0
0
LINE
8
0
6
CONTINUOUS
10
-145.732932
20
20.000000
30
0.0
11
-147.978548
21
20.000000
31
0.0
0
LINE
8
0
6
CONTINUOUS
10
-150.000000
20
19.000000
30
0.0
11
-149.121320
21
19.000000
31
0.0
0
LINE
8
0
6
CONTINUOUS
10
-147.978548
20
20.000000
30
0.0
11
-148.911904
21
20.000000
31
0.0
0
LINE
8
0
6
CONTINUOUS
10
-149.000000
20
20.000000
30
0.0
11
-150.000000
21
19.000000
31
0.0
0
LINE
8
0
6
CONTINUOUS
10
-148.911904
20
20.000000
30
0.0
11
-149.000000
21
20.000000
31
0.0
0
LINE
8
0
6
CONTINUOUS
10
149.121320
20
-19.000000
30
0.0
11
150.000000
21
-19.000000
31
0.0
0
LINE
8
0
6
CONTINUOUS
10
150.000000
20
19.000000
30
0.0
11
149.121320
21
19.000000
31
0.0
0
LINE
8
0
6
CONTINUOUS
10
150.000000
20
-19.000000
30
0.0
11
150.000000
21
19.000000
31
0.0
0
LINE
8
0
6
CONTINUOUS
10
147.000000
20
-19.000000
30
0.0
11
149.121320
21
-19.000000
31
0.0
0
LINE
8
0
6
CONTINUOUS
10
149.121320
20
19.000000
30
0.0
11
147.000000
21
19.000000
31
0.0
0
LINE
8
0
6
CONTINUOUS
10
149.121320
20
-19.000000
30
0.0
11
149.121320
21
19.000000
31
0.0
0
LINE
8
0
6
CONTINUOUS
10
-147.000000
20
-19.000000
30
0.0
11
147.000000
21
-19.000000
31
0.0
0
LINE
8
0
6
CONTINUOUS
10
147.000000
20
19.000000
30
0.0
11
-147.000000
21
19.000000
31
0.0
0
LINE
8
0
6
CONTINUOUS
10
-149.121320
20
-19.000000
30
0.0
11
-147.000000
21
-19.000000
31
0.0
0
LINE
8
0
6
CONTINUOUS
10
-147.000000
20
19.000000
30
0.0
11
-149.121320
21
19.000000
31
0.0
0
LINE
8
0
6
CONTINUOUS
10
-150.000000
20
-19.000000
30
0.0
11
-149.121320
21
-19.000000
31
0.0
0
LINE
8
0
6
CONTINUOUS
10
-150.000000
20
19.000000
30
0.0
11
-150.000000
21
-19.000000
31
0.0
0
LINE
8
0
6
CONTINUOUS
10
-149.121320
20
19.000000
30
0.0
11
-150.000000
21
19.000000
31
0.0
0
LINE
8
0
6
CONTINUOUS
10
-149.121320
20
-19.000000
30
0.0
11
-149.121320
21
19.000000
31
0.0
0
ENDSEC
0
EOF
