  0
SECTION
  2
HEADER
  9
$ACADVER
  1
AC1032
  9
$ACADMAINTVER
 90
      162
  9
$DWGCODEPAGE
  3
ANSI_1250
  9
$LASTSAVEDBY
  1
PC
  9
$REQUIREDVERSIONS
160
                 0
  9
$INSBASE
 10
0.0
 20
0.0
 30
0.0
  9
$EXTMIN
 10
-163.3588138845083
 20
-179.2359305599705
 30
0.0
  9
$EXTMAX
 10
688.333874231351
 20
751.7873816353219
 30
0.0
  9
$LIMMIN
 10
0.0
 20
0.0
  9
$LIMMAX
 10
12.0
 20
9.0
  9
$ORTHOMODE
 70
     0
  9
$REGENMODE
 70
     1
  9
$FILLMODE
 70
     1
  9
$QTEXTMODE
 70
     0
  9
$MIRRTEXT
 70
     1
  9
$LTSCALE
 40
1.0
  9
$ATTMODE
 70
     1
  9
$TEXTSIZE
 40
0.2
  9
$TRACEWID
 40
0.05
  9
$TEXTSTYLE
  7
Standard
  9
$CLAYER
  8
0
  9
$CELTYPE
  6
ByLayer
  9
$CECOLOR
 62
   256
  9
$CELTSCALE
 40
1.0
  9
$DISPSILH
 70
     0
  9
$DIMSCALE
 40
1.0
  9
$DIMASZ
 40
0.18
  9
$DIMEXO
 40
0.0625
  9
$DIMDLI
 40
0.38
  9
$DIMRND
 40
0.0
  9
$DIMDLE
 40
0.0
  9
$DIMEXE
 40
0.18
  9
$DIMTP
 40
0.0
  9
$DIMTM
 40
0.0
  9
$DIMTXT
 40
0.18
  9
$DIMCEN
 40
0.09
  9
$DIMTSZ
 40
0.0
  9
$DIMTOL
 70
     0
  9
$DIMLIM
 70
     0
  9
$DIMTIH
 70
     1
  9
$DIMTOH
 70
     1
  9
$DIMSE1
 70
     0
  9
$DIMSE2
 70
     0
  9
$DIMTAD
 70
     0
  9
$DIMZIN
 70
     0
  9
$DIMBLK
  1

  9
$DIMASO
 70
     1
  9
$DIMSHO
 70
     1
  9
$DIMPOST
  1

  9
$DIMAPOST
  1

  9
$DIMALT
 70
     0
  9
$DIMALTD
 70
     2
  9
$DIMALTF
 40
25.4
  9
$DIMLFAC
 40
1.0
  9
$DIMTOFL
 70
     0
  9
$DIMTVP
 40
0.0
  9
$DIMTIX
 70
     0
  9
$DIMSOXD
 70
     0
  9
$DIMSAH
 70
     0
  9
$DIMBLK1
  1

  9
$DIMBLK2
  1

  9
$DIMSTYLE
  2
Standard
  9
$DIMCLRD
 70
     0
  9
$DIMCLRE
 70
     0
  9
$DIMCLRT
 70
     0
  9
$DIMTFAC
 40
1.0
  9
$DIMGAP
 40
0.09
  9
$DIMJUST
 70
     0
  9
$DIMSD1
 70
     0
  9
$DIMSD2
 70
     0
  9
$DIMTOLJ
 70
     1
  9
$DIMTZIN
 70
     0
  9
$DIMALTZ
 70
     0
  9
$DIMALTTZ
 70
     0
  9
$DIMUPT
 70
     0
  9
$DIMDEC
 70
     4
  9
$DIMTDEC
 70
     4
  9
$DIMALTU
 70
     2
  9
$DIMALTTD
 70
     2
  9
$DIMTXSTY
  7
Standard
  9
$DIMAUNIT
 70
     0
  9
$DIMADEC
 70
     0
  9
$DIMALTRND
 40
0.0
  9
$DIMAZIN
 70
     0
  9
$DIMDSEP
 70
    46
  9
$DIMATFIT
 70
     3
  9
$DIMFRAC
 70
     0
  9
$DIMLDRBLK
  1

  9
$DIMLUNIT
 70
     2
  9
$DIMLWD
 70
    -2
  9
$DIMLWE
 70
    -2
  9
$DIMTMOVE
 70
     0
  9
$DIMFXL
 40
1.0
  9
$DIMFXLON
 70
     0
  9
$DIMJOGANG
 40
0.7853981633974483
  9
$DIMTFILL
 70
     0
  9
$DIMTFILLCLR
 70
     0
  9
$DIMARCSYM
 70
     0
  9
$DIMLTYPE
  6

  9
$DIMLTEX1
  6

  9
$DIMLTEX2
  6

  9
$DIMTXTDIRECTION
 70
     0
  9
$LUNITS
 70
     2
  9
$LUPREC
 70
     4
  9
$SKETCHINC
 40
0.1
  9
$FILLETRAD
 40
0.0
  9
$AUNITS
 70
     0
  9
$AUPREC
 70
     0
  9
$MENU
  1
.
  9
$ELEVATION
 40
0.0
  9
$PELEVATION
 40
0.0
  9
$THICKNESS
 40
0.0
  9
$LIMCHECK
 70
     0
  9
$CHAMFERA
 40
0.0
  9
$CHAMFERB
 40
0.0
  9
$CHAMFERC
 40
0.0
  9
$CHAMFERD
 40
0.0
  9
$SKPOLY
 70
     0
  9
$TDCREATE
 40
2460388.428564815
  9
$TDUCREATE
 40
2460388.386898149
  9
$TDUPDATE
 40
2460388.471875000
  9
$TDUUPDATE
 40
2460388.430208333
  9
$TDINDWG
 40
0.0010532523
  9
$TDUSRTIMER
 40
0.0010532523
  9
$USRTIMER
 70
     1
  9
$ANGBASE
 50
0.0
  9
$ANGDIR
 70
     0
  9
$PDMODE
 70
     0
  9
$PDSIZE
 40
0.0
  9
$PLINEWID
 40
0.0
  9
$SPLFRAME
 70
     0
  9
$SPLINETYPE
 70
     6
  9
$SPLINESEGS
 70
     8
  9
$HANDSEED
  5
C99
  9
$SURFTAB1
 70
     6
  9
$SURFTAB2
 70
     6
  9
$SURFTYPE
 70
     6
  9
$SURFU
 70
     6
  9
$SURFV
 70
     6
  9
$UCSBASE
  2

  9
$UCSNAME
  2

  9
$UCSORG
 10
0.0
 20
0.0
 30
0.0
  9
$UCSXDIR
 10
1.0
 20
0.0
 30
0.0
  9
$UCSYDIR
 10
0.0
 20
1.0
 30
0.0
  9
$UCSORTHOREF
  2

  9
$UCSORTHOVIEW
 70
     0
  9
$UCSORGTOP
 10
0.0
 20
0.0
 30
0.0
  9
$UCSORGBOTTOM
 10
0.0
 20
0.0
 30
0.0
  9
$UCSORGLEFT
 10
0.0
 20
0.0
 30
0.0
  9
$UCSORGRIGHT
 10
0.0
 20
0.0
 30
0.0
  9
$UCSORGFRONT
 10
0.0
 20
0.0
 30
0.0
  9
$UCSORGBACK
 10
0.0
 20
0.0
 30
0.0
  9
$PUCSBASE
  2

  9
$PUCSNAME
  2

  9
$PUCSORG
 10
0.0
 20
0.0
 30
0.0
  9
$PUCSXDIR
 10
1.0
 20
0.0
 30
0.0
  9
$PUCSYDIR
 10
0.0
 20
1.0
 30
0.0
  9
$PUCSORTHOREF
  2

  9
$PUCSORTHOVIEW
 70
     0
  9
$PUCSORGTOP
 10
0.0
 20
0.0
 30
0.0
  9
$PUCSORGBOTTOM
 10
0.0
 20
0.0
 30
0.0
  9
$PUCSORGLEFT
 10
0.0
 20
0.0
 30
0.0
  9
$PUCSORGRIGHT
 10
0.0
 20
0.0
 30
0.0
  9
$PUCSORGFRONT
 10
0.0
 20
0.0
 30
0.0
  9
$PUCSORGBACK
 10
0.0
 20
0.0
 30
0.0
  9
$USERI1
 70
     0
  9
$USERI2
 70
     0
  9
$USERI3
 70
     0
  9
$USERI4
 70
     0
  9
$USERI5
 70
     0
  9
$USERR1
 40
0.0
  9
$USERR2
 40
0.0
  9
$USERR3
 40
0.0
  9
$USERR4
 40
0.0
  9
$USERR5
 40
0.0
  9
$WORLDVIEW
 70
     1
  9
$SHADEDGE
 70
     3
  9
$SHADEDIF
 70
    70
  9
$TILEMODE
 70
     1
  9
$MAXACTVP
 70
    64
  9
$PINSBASE
 10
0.0
 20
0.0
 30
0.0
  9
$PLIMCHECK
 70
     0
  9
$PEXTMIN
 10
1.000000000000000E+20
 20
1.000000000000000E+20
 30
1.000000000000000E+20
  9
$PEXTMAX
 10
-1.000000000000000E+20
 20
-1.000000000000000E+20
 30
-1.000000000000000E+20
  9
$PLIMMIN
 10
0.0
 20
0.0
  9
$PLIMMAX
 10
12.0
 20
9.0
  9
$UNITMODE
 70
     0
  9
$VISRETAIN
 70
     1
  9
$PLINEGEN
 70
     0
  9
$PSLTSCALE
 70
     1
  9
$TREEDEPTH
 70
  3020
  9
$CMLSTYLE
  2
Standard
  9
$CMLJUST
 70
     0
  9
$CMLSCALE
 40
1.0
  9
$PROXYGRAPHICS
 70
     1
  9
$MEASUREMENT
 70
     1
  9
$CELWEIGHT
370
    -1
  9
$ENDCAPS
280
     0
  9
$JOINSTYLE
280
     0
  9
$LWDISPLAY
290
     0
  9
$INSUNITS
 70
     4
  9
$HYPERLINKBASE
  1

  9
$STYLESHEET
  1

  9
$XEDIT
290
     1
  9
$CEPSNTYPE
380
     0
  9
$PSTYLEMODE
290
     1
  9
$FINGERPRINTGUID
  2
{36b286e6-af29-42bf-b822-12513a7ff27d}
  9
$VERSIONGUID
  2
{A1F2D210-10C5-E840-8234-7ACBE0DBF17B}
  9
$EXTNAMES
290
     1
  9
$PSVPSCALE
 40
0.0
  9
$OLESTARTUP
290
     0
  9
$SORTENTS
280
   127
  9
$INDEXCTL
280
     0
  9
$HIDETEXT
280
     1
  9
$XCLIPFRAME
280
     2
  9
$HALOGAP
280
     0
  9
$OBSCOLOR
 70
   257
  9
$OBSLTYPE
280
     0
  9
$INTERSECTIONDISPLAY
280
     0
  9
$INTERSECTIONCOLOR
 70
   257
  9
$DIMASSOC
280
     2
  9
$PROJECTNAME
  1

  9
$CAMERADISPLAY
290
     0
  9
$LENSLENGTH
 40
50.0
  9
$CAMERAHEIGHT
 40
0.0
  9
$STEPSPERSEC
 40
2.0
  9
$STEPSIZE
 40
6.0
  9
$3DDWFPREC
 40
2.0
  9
$PSOLWIDTH
 40
0.25
  9
$PSOLHEIGHT
 40
4.0
  9
$LOFTANG1
 40
1.570796326794896
  9
$LOFTANG2
 40
1.570796326794896
  9
$LOFTMAG1
 40
0.0
  9
$LOFTMAG2
 40
0.0
  9
$LOFTPARAM
 70
     7
  9
$LOFTNORMALS
280
     1
  9
$LATITUDE
 40
37.795
  9
$LONGITUDE
 40
-122.394
  9
$NORTHDIRECTION
 40
0.0
  9
$TIMEZONE
 70
 -8000
  9
$LIGHTGLYPHDISPLAY
280
     1
  9
$TILEMODELIGHTSYNCH
280
     1
  9
$CMATERIAL
347
44
  9
$SOLIDHIST
280
     0
  9
$SHOWHIST
280
     1
  9
$DWFFRAME
280
     2
  9
$DGNFRAME
280
     0
  9
$REALWORLDSCALE
290
     1
  9
$INTERFERECOLOR
 62
     1
  9
$INTERFEREOBJVS
345
33
  9
$INTERFEREVPVS
346
30
  9
$CSHADOW
280
     0
  9
$SHADOWPLANELOCATION
 40
0.0
  0
ENDSEC
  0
SECTION
  2
CLASSES
  0
CLASS
  1
ACDBDICTIONARYWDFLT
  2
AcDbDictionaryWithDefault
  3
ObjectDBX Classes
 90
        0
 91
        1
280
     0
281
     0
  0
CLASS
  1
VISUALSTYLE
  2
AcDbVisualStyle
  3
ObjectDBX Classes
 90
     4095
 91
       24
280
     0
281
     0
  0
CLASS
  1
MATERIAL
  2
AcDbMaterial
  3
ObjectDBX Classes
 90
     1153
 91
        3
280
     0
281
     0
  0
CLASS
  1
SCALE
  2
AcDbScale
  3
ObjectDBX Classes
 90
     1153
 91
       17
280
     0
281
     0
  0
CLASS
  1
TABLESTYLE
  2
AcDbTableStyle
  3
ObjectDBX Classes
 90
     4095
 91
        1
280
     0
281
     0
  0
CLASS
  1
MLEADERSTYLE
  2
AcDbMLeaderStyle
  3
ACDB_MLEADERSTYLE_CLASS
 90
     4095
 91
        1
280
     0
281
     0
  0
CLASS
  1
SUN
  2
AcDbSun
  3
SCENEOE
 90
     1153
 91
        1
280
     0
281
     0
  0
CLASS
  1
DICTIONARYVAR
  2
AcDbDictionaryVar
  3
ObjectDBX Classes
 90
        0
 91
       16
280
     0
281
     0
  0
CLASS
  1
CELLSTYLEMAP
  2
AcDbCellStyleMap
  3
ObjectDBX Classes
 90
     1152
 91
        2
280
     0
281
     0
  0
CLASS
  1
ACDBSECTIONVIEWSTYLE
  2
AcDbSectionViewStyle
  3
ObjectDBX Classes
 90
     1025
 91
        1
280
     0
281
     0
  0
CLASS
  1
ACDBDETAILVIEWSTYLE
  2
AcDbDetailViewStyle
  3
ObjectDBX Classes
 90
     1025
 91
        1
280
     0
281
     0
  0
CLASS
  1
EXACXREFPANELOBJECT
  2
ExAcXREFPanelObject
  3
EXAC_ESW
 90
     1025
 91
        1
280
     0
281
     0
  0
CLASS
  1
NPOCOLLECTION
  2
AcDbImpNonPersistentObjectsCollection
  3
ObjectDBX Classes
 90
     1153
 91
        1
280
     0
281
     0
  0
ENDSEC
  0
SECTION
  2
TABLES
  0
TABLE
  2
VPORT
  5
8
102
{ACAD_XDICTIONARY
360
1AB
102
}
330
0
100
AcDbSymbolTable
 70
     1
  0
VPORT
  5
29
330
8
100
AcDbSymbolTableRecord
100
AcDbViewportTableRecord
  2
*Active
 70
     0
 10
0.0
 20
0.0
 11
1.0
 21
1.0
 12
873.0347748966623
 22
554.8249393740085
 13
0.0
 23
0.0
 14
0.5
 24
0.5
 15
0.5
 25
0.5
 16
0.0
 26
0.0
 36
1.0
 17
0.0
 27
0.0
 37
-1000.0
 40
1825.274559412964
 41
2.396178343949044
 42
50.0
 43
1571.889494309191
 44
1985.564494309192
 50
0.0
 51
0.0
 71
     0
 72
   100
 73
     1
 74
     3
 75
     0
 76
     0
 77
     0
 78
     0
281
     0
 65
     1
110
0.0
120
0.0
130
0.0
111
1.0
121
0.0
131
0.0
112
0.0
122
1.0
132
0.0
 79
     0
146
0.0
348
2F
 60
     3
 61
     5
292
     1
282
     1
141
0.0
142
0.0
 63
   250
421
  3355443
361
5D
1001
ACAD_NAV_VCDISPLAY
1070
     3
  0
ENDTAB
  0
TABLE
  2
LTYPE
  5
5
330
0
100
AcDbSymbolTable
 70
     1
  0
LTYPE
  5
14
330
5
100
AcDbSymbolTableRecord
100
AcDbLinetypeTableRecord
  2
ByBlock
 70
     0
  3

 72
    65
 73
     0
 40
0.0
  0
LTYPE
  5
15
330
5
100
AcDbSymbolTableRecord
100
AcDbLinetypeTableRecord
  2
ByLayer
 70
     0
  3

 72
    65
 73
     0
 40
0.0
  0
LTYPE
  5
16
330
5
100
AcDbSymbolTableRecord
100
AcDbLinetypeTableRecord
  2
Continuous
 70
     0
  3
Solid line
 72
    65
 73
     0
 40
0.0
  0
ENDTAB
  0
TABLE
  2
LAYER
  5
2
102
{ACAD_XDICTIONARY
360
C87
102
}
330
0
100
AcDbSymbolTable
 70
     3
  0
LAYER
  5
10
102
{ACAD_XDICTIONARY
360
C7E
102
}
330
2
100
AcDbSymbolTableRecord
100
AcDbLayerTableRecord
  2
0
 70
     0
 62
     7
  6
Continuous
370
    -3
390
1D5
347
46
348
0
  0
LAYER
  5
5E
102
{ACAD_XDICTIONARY
360
C80
102
}
330
2
100
AcDbSymbolTableRecord
100
AcDbLayerTableRecord
  2
ProfileEdges
 70
     0
 62
     7
  6
Continuous
370
    -3
390
1D5
347
46
348
0
  0
LAYER
  5
5F
102
{ACAD_XDICTIONARY
360
C82
102
}
330
2
100
AcDbSymbolTableRecord
100
AcDbLayerTableRecord
  2
SectionCutEdges
 70
     0
 62
     7
  6
Continuous
370
    -3
390
1D5
347
46
348
0
  0
ENDTAB
  0
TABLE
  2
STYLE
  5
3
330
0
100
AcDbSymbolTable
 70
     1
  0
STYLE
  5
11
330
3
100
AcDbSymbolTableRecord
100
AcDbTextStyleTableRecord
  2
Standard
 70
     0
 40
0.0
 41
1.0
 50
0.0
 71
     0
 42
0.2
  3
txt
  4

  0
ENDTAB
  0
TABLE
  2
VIEW
  5
6
330
0
100
AcDbSymbolTable
 70
     1
  0
ENDTAB
  0
TABLE
  2
UCS
  5
7
330
0
100
AcDbSymbolTable
 70
     0
  0
ENDTAB
  0
TABLE
  2
APPID
  5
9
330
0
100
AcDbSymbolTable
 70
     3
  0
APPID
  5
12
330
9
100
AcDbSymbolTableRecord
100
AcDbRegAppTableRecord
  2
ACAD
 70
     0
  0
APPID
  5
1C9
330
9
100
AcDbSymbolTableRecord
100
AcDbRegAppTableRecord
  2
ACAD_MLEADERVER
 70
     0
  0
APPID
  5
1DB
330
9
100
AcDbSymbolTableRecord
100
AcDbRegAppTableRecord
  2
ACAD_NAV_VCDISPLAY
 70
     0
  0
ENDTAB
  0
TABLE
  2
DIMSTYLE
  5
A
330
0
100
AcDbSymbolTable
 70
     1
100
AcDbDimStyleTable
 71
     0
  0
DIMSTYLE
105
27
330
A
100
AcDbSymbolTableRecord
100
AcDbDimStyleTableRecord
  2
Standard
 70
     0
340
11
  0
ENDTAB
  0
TABLE
  2
BLOCK_RECORD
  5
1
330
0
100
AcDbSymbolTable
 70
     3
  0
BLOCK_RECORD
  5
1F
102
{ACAD_XDICTIONARY
360
195
102
}
330
1
100
AcDbSymbolTableRecord
100
AcDbBlockTableRecord
  2
*Model_Space
340
22
 70
     0
280
     1
281
     0
  0
BLOCK_RECORD
  5
1B
102
{ACAD_XDICTIONARY
360
197
102
}
330
1
100
AcDbSymbolTableRecord
100
AcDbBlockTableRecord
  2
*Paper_Space
340
1E
 70
     0
280
     1
281
     0
  0
BLOCK_RECORD
  5
23
102
{ACAD_XDICTIONARY
360
199
102
}
330
1
100
AcDbSymbolTableRecord
100
AcDbBlockTableRecord
  2
*Paper_Space0
340
26
 70
     0
280
     1
281
     0
  0
ENDTAB
  0
ENDSEC
  0
SECTION
  2
BLOCKS
  0
BLOCK
  5
20
330
1F
100
AcDbEntity
  8
0
100
AcDbBlockBegin
  2
*Model_Space
 70
     0
 10
0.0
 20
0.0
 30
0.0
  3
*Model_Space
  1

  0
ENDBLK
  5
21
330
1F
100
AcDbEntity
  8
0
100
AcDbBlockEnd
  0
BLOCK
  5
1C
330
1B
100
AcDbEntity
 67
     1
  8
0
100
AcDbBlockBegin
  2
*Paper_Space
 70
     0
 10
0.0
 20
0.0
 30
0.0
  3
*Paper_Space
  1

  0
ENDBLK
  5
1D
330
1B
100
AcDbEntity
 67
     1
  8
0
100
AcDbBlockEnd
  0
BLOCK
  5
24
330
23
100
AcDbEntity
 67
     1
  8
0
100
AcDbBlockBegin
  2
*Paper_Space0
 70
     0
 10
0.0
 20
0.0
 30
0.0
  3
*Paper_Space0
  1

  0
ENDBLK
  5
25
330
23
100
AcDbEntity
 67
     1
  8
0
100
AcDbBlockEnd
  0
ENDSEC
  0
SECTION
  2
ENTITIES
  0
LINE
  5
60
330
1F
100
AcDbEntity
  8
0
100
AcDbLine
 10
185.9959753789232
 20
-5.978812109976874
 30
0.0
 11
185.5115133359334
 21
6.968708566304838
 31
0.0
  0
LINE
  5
61
330
1F
100
AcDbEntity
  8
0
100
AcDbLine
 10
185.5115133359334
 20
6.968708566304838
 30
0.0
 11
184.0608365152224
 21
19.84382145496488
 31
0.0
  0
LINE
  5
62
330
1F
100
AcDbEntity
  8
0
100
AcDbLine
 10
184.0608365152224
 20
19.84382145496488
 30
0.0
 11
181.6520576900208
 21
32.57452370209513
 31
0.0
  0
LINE
  5
63
330
1F
100
AcDbEntity
  8
0
100
AcDbLine
 10
181.6520576900208
 20
32.57452370209513
 30
0.0
 11
178.2986477286111
 21
45.08962005668331
 31
0.0
  0
LINE
  5
64
330
1F
100
AcDbEntity
  8
0
100
AcDbLine
 10
178.2986477286111
 20
45.08962005668331
 30
0.0
 11
174.0193602597682
 21
57.31912102331481
 31
0.0
  0
LINE
  5
65
330
1F
100
AcDbEntity
  8
0
100
AcDbLine
 10
-0.2086637473555907
 20
166.7938442970289
 30
0.0
 11
-13.08377663601428
 21
165.3431674763179
 31
0.0
  0
LINE
  5
66
330
1F
100
AcDbEntity
  8
0
100
AcDbLine
 10
-13.08377663601428
 20
165.3431674763179
 30
0.0
 11
-25.81447888314482
 21
162.9343886511161
 31
0.0
  0
LINE
  5
67
330
1F
100
AcDbEntity
  8
0
100
AcDbLine
 10
-25.81447888314482
 20
162.9343886511161
 30
0.0
 11
-38.32957523773247
 21
159.5809786897063
 31
0.0
  0
LINE
  5
68
330
1F
100
AcDbEntity
  8
0
100
AcDbLine
 10
-38.32957523773247
 20
159.5809786897063
 30
0.0
 11
-50.55907620436428
 21
155.301691220864
 31
0.0
  0
LINE
  5
69
330
1F
100
AcDbEntity
  8
0
100
AcDbLine
 10
38.56149049386878
 20
165.343167476318
 30
0.0
 11
25.6863776052084
 21
166.7938442970289
 31
0.0
  0
LINE
  5
6A
330
1F
100
AcDbEntity
  8
0
100
AcDbLine
 10
25.6863776052084
 20
166.7938442970289
 30
0.0
 11
12.73885692892673
 21
167.2783063400189
 31
0.0
  0
LINE
  5
6B
330
1F
100
AcDbEntity
  8
0
100
AcDbLine
 10
12.73885692892673
 20
167.2783063400189
 30
0.0
 11
-0.2086637473555907
 21
166.7938442970289
 31
0.0
  0
LINE
  5
6C
330
1F
100
AcDbEntity
  8
0
100
AcDbLine
 10
-122.7190128369736
 20
102.0452343430254
 30
0.0
 11
-130.4128922607195
 21
91.62039791521047
 31
0.0
  0
LINE
  5
6D
330
1F
100
AcDbEntity
  8
0
100
AcDbLine
 10
-130.4128922607195
 20
91.62039791521047
 30
0.0
 11
-137.3062090352604
 21
80.64974711502161
 31
0.0
  0
LINE
  5
6E
330
1F
100
AcDbEntity
  8
0
100
AcDbLine
 10
-137.3062090352604
 20
80.64974711502161
 30
0.0
 11
-143.3604129370026
 21
69.19463427184066
 31
0.0
  0
LINE
  5
6F
330
1F
100
AcDbEntity
  8
0
100
AcDbLine
 10
-143.3604129370026
 20
69.19463427184066
 30
0.0
 11
-148.5416464019147
 21
57.31912102331423
 31
0.0
  0
LINE
  5
70
330
1F
100
AcDbEntity
  8
0
100
AcDbLine
 10
-148.5416464019147
 20
57.31912102331423
 30
0.0
 11
-152.8209338707573
 21
45.08962005668142
 31
0.0
  0
LINE
  5
71
330
1F
100
AcDbEntity
  8
0
100
AcDbLine
 10
-152.8209338707573
 20
45.08962005668142
 30
0.0
 11
-156.1743438321664
 21
32.57452370209513
 31
0.0
  0
LINE
  5
72
330
1F
100
AcDbEntity
  8
0
100
AcDbLine
 10
-156.1743438321664
 20
32.57452370209513
 30
0.0
 11
-158.5831226573679
 21
19.84382145496362
 31
0.0
  0
LINE
  5
73
330
1F
100
AcDbEntity
  8
0
100
AcDbLine
 10
-73.88970229607185
 20
144.0662538542097
 30
0.0
 11
-84.86035309626069
 21
137.1729370796695
 31
0.0
  0
LINE
  5
74
330
1F
100
AcDbEntity
  8
0
100
AcDbLine
 10
-84.86035309626069
 20
137.1729370796695
 30
0.0
 11
-95.28518952407635
 21
129.479057655923
 31
0.0
  0
LINE
  5
75
330
1F
100
AcDbEntity
  8
0
100
AcDbLine
 10
-95.28518952407635
 20
129.479057655923
 30
0.0
 11
-105.105911665507
 21
121.0276428776358
 31
0.0
  0
LINE
  5
76
330
1F
100
AcDbEntity
  8
0
100
AcDbLine
 10
-105.105911665507
 20
121.0276428776358
 30
0.0
 11
-114.267598058685
 21
111.8659564844578
 31
0.0
  0
LINE
  5
77
330
1F
100
AcDbEntity
  8
0
100
AcDbLine
 10
-114.267598058685
 20
111.8659564844578
 30
0.0
 11
-122.7190128369736
 21
102.0452343430254
 31
0.0
  0
LINE
  5
78
330
1F
100
AcDbEntity
  8
0
100
AcDbLine
 10
-50.55907620436428
 20
155.301691220864
 30
0.0
 11
-62.43458945289153
 21
150.1204577559517
 31
0.0
  0
LINE
  5
79
330
1F
100
AcDbEntity
  8
0
100
AcDbLine
 10
-62.43458945289153
 20
150.1204577559517
 30
0.0
 11
-73.88970229607185
 21
144.0662538542097
 31
0.0
  0
LINE
  5
7A
330
1F
100
AcDbEntity
  8
0
100
AcDbLine
 10
162.7839228931142
 20
80.64974711502093
 30
0.0
 11
155.8906061185737
 21
91.62039791521051
 31
0.0
  0
LINE
  5
7B
330
1F
100
AcDbEntity
  8
0
100
AcDbLine
 10
155.8906061185737
 20
91.62039791521051
 30
0.0
 11
148.1967266948264
 21
102.045234343027
 31
0.0
  0
LINE
  5
7C
330
1F
100
AcDbEntity
  8
0
100
AcDbLine
 10
148.1967266948264
 20
102.045234343027
 30
0.0
 11
139.7453119165388
 21
111.8659564844578
 31
0.0
  0
LINE
  5
7D
330
1F
100
AcDbEntity
  8
0
100
AcDbLine
 10
139.7453119165388
 20
111.8659564844578
 30
0.0
 11
130.5836255233613
 21
121.0276428776348
 31
0.0
  0
LINE
  5
7E
330
1F
100
AcDbEntity
  8
0
100
AcDbLine
 10
130.5836255233613
 20
121.0276428776348
 30
0.0
 11
120.7629033819294
 21
129.4790576559228
 31
0.0
  0
LINE
  5
7F
330
1F
100
AcDbEntity
  8
0
100
AcDbLine
 10
174.0193602597682
 20
57.31912102331481
 30
0.0
 11
168.8381267948556
 21
69.19463427184183
 31
0.0
  0
LINE
  5
80
330
1F
100
AcDbEntity
  8
0
100
AcDbLine
 10
168.8381267948556
 20
69.19463427184183
 30
0.0
 11
162.7839228931142
 21
80.64974711502093
 31
0.0
  0
LINE
  5
81
330
1F
100
AcDbEntity
  8
0
100
AcDbLine
 10
51.29219274099934
 20
162.9343886511161
 30
0.0
 11
38.56149049386878
 21
165.343167476318
 31
0.0
  0
LINE
  5
82
330
1F
100
AcDbEntity
  8
0
100
AcDbLine
 10
110.3380669541151
 20
137.1729370796687
 30
0.0
 11
99.3674161539247
 21
144.0662538542097
 31
0.0
  0
LINE
  5
83
330
1F
100
AcDbEntity
  8
0
100
AcDbLine
 10
99.3674161539247
 20
144.0662538542097
 30
0.0
 11
87.91230331074414
 21
150.1204577559517
 31
0.0
  0
LINE
  5
84
330
1F
100
AcDbEntity
  8
0
100
AcDbLine
 10
76.0367900622178
 20
155.301691220864
 30
0.0
 11
63.80728909558563
 21
159.5809786897073
 31
0.0
  0
LINE
  5
85
330
1F
100
AcDbEntity
  8
0
100
AcDbLine
 10
63.80728909558563
 20
159.5809786897073
 30
0.0
 11
51.29219274099934
 21
162.9343886511161
 31
0.0
  0
LINE
  5
86
330
1F
100
AcDbEntity
  8
0
100
AcDbLine
 10
25.68637760520926
 20
-178.7514685169805
 30
0.0
 11
38.56149049386793
 21
-177.3007916962695
 31
0.0
  0
LINE
  5
87
330
1F
100
AcDbEntity
  8
0
100
AcDbLine
 10
38.56149049386793
 20
-177.3007916962695
 30
0.0
 11
51.29219274099817
 21
-174.8920128710679
 31
0.0
  0
LINE
  5
88
330
1F
100
AcDbEntity
  8
0
100
AcDbLine
 10
51.29219274099817
 20
-174.8920128710679
 30
0.0
 11
63.80728909558469
 21
-171.5386029096589
 31
0.0
  0
LINE
  5
89
330
1F
100
AcDbEntity
  8
0
100
AcDbLine
 10
63.80728909558469
 20
-171.5386029096589
 30
0.0
 11
76.03679006221776
 21
-167.2593154408156
 31
0.0
  0
LINE
  5
8A
330
1F
100
AcDbEntity
  8
0
100
AcDbLine
 10
76.03679006221776
 20
-167.2593154408156
 30
0.0
 11
87.9123033107437
 21
-162.0780819759034
 31
0.0
  0
LINE
  5
8B
330
1F
100
AcDbEntity
  8
0
100
AcDbLine
 10
-13.08377663601365
 20
-177.3007916962695
 30
0.0
 11
-0.2086637473549139
 21
-178.7514685169805
 31
0.0
  0
LINE
  5
8C
330
1F
100
AcDbEntity
  8
0
100
AcDbLine
 10
-0.2086637473549139
 20
-178.7514685169805
 30
0.0
 11
12.73885692892671
 21
-179.2359305599705
 31
0.0
  0
LINE
  5
8D
330
1F
100
AcDbEntity
  8
0
100
AcDbLine
 10
12.73885692892671
 20
-179.2359305599705
 30
0.0
 11
25.68637760520926
 21
-178.7514685169805
 31
0.0
  0
LINE
  5
8E
330
1F
100
AcDbEntity
  8
0
100
AcDbLine
 10
-156.1743438321664
 20
-44.53214792204923
 30
0.0
 11
-152.8209338707566
 21
-57.04724427663624
 31
0.0
  0
LINE
  5
8F
330
1F
100
AcDbEntity
  8
0
100
AcDbLine
 10
-152.8209338707566
 20
-57.04724427663624
 30
0.0
 11
-148.5416464019141
 21
-69.27674524326711
 31
0.0
  0
LINE
  5
90
330
1F
100
AcDbEntity
  8
0
100
AcDbLine
 10
-158.5831226573679
 20
19.84382145496362
 30
0.0
 11
-160.033799478079
 21
6.968708566306146
 31
0.0
  0
LINE
  5
91
330
1F
100
AcDbEntity
  8
0
100
AcDbLine
 10
-160.518261521069
 20
-5.978812109976874
 30
0.0
 11
-160.033799478079
 21
-18.92633278625854
 31
0.0
  0
LINE
  5
92
330
1F
100
AcDbEntity
  8
0
100
AcDbLine
 10
-158.5831226573679
 20
-31.80144567491812
 30
0.0
 11
-156.1743438321664
 21
-44.53214792204923
 31
0.0
  0
LINE
  5
93
330
1F
100
AcDbEntity
  8
0
100
AcDbLine
 10
-25.81447888314697
 20
-174.8920128710679
 30
0.0
 11
-13.08377663601365
 21
-177.3007916962695
 31
0.0
  0
LINE
  5
94
330
1F
100
AcDbEntity
  8
0
100
AcDbLine
 10
-95.2851895240742
 20
-141.4366818758759
 30
0.0
 11
-84.86035309625998
 21
-149.130561299621
 31
0.0
  0
LINE
  5
95
330
1F
100
AcDbEntity
  8
0
100
AcDbLine
 10
-84.86035309625998
 20
-149.130561299621
 30
0.0
 11
-73.88970229607039
 21
-156.0238780741612
 31
0.0
  0
LINE
  5
96
330
1F
100
AcDbEntity
  8
0
100
AcDbLine
 10
-73.88970229607039
 20
-156.0238780741612
 30
0.0
 11
-62.43458945289015
 21
-162.0780819759034
 31
0.0
  0
LINE
  5
97
330
1F
100
AcDbEntity
  8
0
100
AcDbLine
 10
-62.43458945289015
 20
-162.0780819759034
 30
0.0
 11
-50.55907620436426
 21
-167.2593154408156
 31
0.0
  0
LINE
  5
98
330
1F
100
AcDbEntity
  8
0
100
AcDbLine
 10
-50.55907620436426
 20
-167.2593154408156
 30
0.0
 11
-38.32957523773184
 21
-171.5386029096588
 31
0.0
  0
LINE
  5
99
330
1F
100
AcDbEntity
  8
0
100
AcDbLine
 10
-38.32957523773184
 20
-171.5386029096588
 30
0.0
 11
-25.81447888314697
 21
-174.8920128710679
 31
0.0
  0
LINE
  5
9A
330
1F
100
AcDbEntity
  8
0
100
AcDbLine
 10
185.5115133359298
 20
-18.92633278625854
 30
0.0
 11
185.9959753789232
 21
-5.978812109976874
 31
0.0
  0
LINE
  5
9B
330
1F
100
AcDbEntity
  8
0
100
AcDbLine
 10
184.0608365152188
 20
-31.80144567491812
 30
0.0
 11
185.5115133359298
 21
-18.92633278625854
 31
0.0
  0
LINE
  5
9C
330
1F
100
AcDbEntity
  8
0
100
AcDbLine
 10
155.8906061185709
 20
-103.5780221351629
 30
0.0
 11
162.7839228931111
 21
-92.60737133497411
 31
0.0
  0
LINE
  5
9D
330
1F
100
AcDbEntity
  8
0
100
AcDbLine
 10
162.7839228931111
 20
-92.60737133497411
 30
0.0
 11
168.8381267948532
 21
-81.15225849179301
 31
0.0
  0
LINE
  5
9E
330
1F
100
AcDbEntity
  8
0
100
AcDbLine
 10
168.8381267948532
 20
-81.15225849179301
 30
0.0
 11
174.0193602597656
 21
-69.27674524326715
 31
0.0
  0
LINE
  5
9F
330
1F
100
AcDbEntity
  8
0
100
AcDbLine
 10
174.0193602597656
 20
-69.27674524326715
 30
0.0
 11
178.2986477286079
 21
-57.04724427663474
 31
0.0
  0
LINE
  5
A0
330
1F
100
AcDbEntity
  8
0
100
AcDbLine
 10
178.2986477286079
 20
-57.04724427663474
 30
0.0
 11
181.6520576900174
 21
-44.53214792204923
 31
0.0
  0
LINE
  5
A1
330
1F
100
AcDbEntity
  8
0
100
AcDbLine
 10
181.6520576900174
 20
-44.53214792204923
 30
0.0
 11
184.0608365152188
 21
-31.80144567491812
 31
0.0
  0
LINE
  5
A2
330
1F
100
AcDbEntity
  8
0
100
AcDbLine
 10
-143.3604129370012
 20
-81.15225849179456
 30
0.0
 11
-137.306209035259
 21
-92.60737133497411
 31
0.0
  0
LINE
  5
A3
330
1F
100
AcDbEntity
  8
0
100
AcDbLine
 10
-137.306209035259
 20
-92.60737133497411
 30
0.0
 11
-130.4128922607181
 21
-103.5780221351644
 31
0.0
  0
LINE
  5
A4
330
1F
100
AcDbEntity
  8
0
100
AcDbLine
 10
-130.4128922607181
 20
-103.5780221351644
 30
0.0
 11
-122.7190128369715
 21
-114.0028585629792
 31
0.0
  0
LINE
  5
A5
330
1F
100
AcDbEntity
  8
0
100
AcDbLine
 10
-122.7190128369715
 20
-114.0028585629792
 30
0.0
 11
-114.2675980586836
 21
-123.82358070441
 31
0.0
  0
LINE
  5
A6
330
1F
100
AcDbEntity
  8
0
100
AcDbLine
 10
-114.2675980586836
 20
-123.82358070441
 30
0.0
 11
-105.1059116655064
 21
-132.9852670975872
 31
0.0
  0
LINE
  5
A7
330
1F
100
AcDbEntity
  8
0
100
AcDbLine
 10
-105.1059116655064
 20
-132.9852670975872
 30
0.0
 11
-95.2851895240742
 21
-141.4366818758759
 31
0.0
  0
LINE
  5
A8
330
1F
100
AcDbEntity
  8
0
100
AcDbLine
 10
-148.5416464019141
 20
-69.27674524326711
 30
0.0
 11
-143.3604129370012
 21
-81.15225849179456
 31
0.0
  0
LINE
  5
A9
330
1F
100
AcDbEntity
  8
0
100
AcDbLine
 10
99.36741615392392
 20
-156.0238780741613
 30
0.0
 11
110.3380669541128
 21
-149.130561299621
 31
0.0
  0
LINE
  5
AA
330
1F
100
AcDbEntity
  8
0
100
AcDbLine
 10
110.3380669541128
 20
-149.130561299621
 30
0.0
 11
120.7629033819286
 21
-141.4366818758744
 31
0.0
  0
LINE
  5
AB
330
1F
100
AcDbEntity
  8
0
100
AcDbLine
 10
120.7629033819286
 20
-141.4366818758744
 30
0.0
 11
130.5836255233592
 21
-132.9852670975872
 31
0.0
  0
LINE
  5
AC
330
1F
100
AcDbEntity
  8
0
100
AcDbLine
 10
130.5836255233592
 20
-132.9852670975872
 30
0.0
 11
139.7453119165364
 21
-123.82358070441
 31
0.0
  0
LINE
  5
AD
330
1F
100
AcDbEntity
  8
0
100
AcDbLine
 10
139.7453119165364
 20
-123.82358070441
 30
0.0
 11
148.1967266948252
 21
-114.0028585629779
 31
0.0
  0
LINE
  5
AE
330
1F
100
AcDbEntity
  8
0
100
AcDbLine
 10
148.1967266948252
 20
-114.0028585629779
 30
0.0
 11
155.8906061185709
 21
-103.5780221351629
 31
0.0
  0
LINE
  5
AF
330
1F
100
AcDbEntity
  8
0
100
AcDbLine
 10
87.9123033107437
 20
-162.0780819759034
 30
0.0
 11
99.36741615392392
 21
-156.0238780741613
 31
0.0
  0
LINE
  5
B0
330
1F
100
AcDbEntity
  8
0
100
AcDbLine
 10
67.85990621384664
 20
-101.1874629514096
 30
0.0
 11
64.78179506358117
 21
-98.82554519381212
 31
0.0
  0
LINE
  5
B1
330
1F
100
AcDbEntity
  8
0
100
AcDbLine
 10
83.7327667694935
 20
-66.00149934637165
 30
0.0
 11
87.4707866540678
 21
-67.54983787898268
 31
0.0
  0
LINE
  5
B2
330
1F
100
AcDbEntity
  8
0
100
AcDbLine
 10
78.65486920510935
 20
-65.33298144952758
 30
0.0
 11
83.7327667694935
 21
-66.00149934637165
 31
0.0
  0
LINE
  5
B3
330
1F
100
AcDbEntity
  8
0
100
AcDbLine
 10
73.57697164072506
 20
-66.00149934637165
 30
0.0
 11
78.65486920510935
 21
-65.33298144952758
 31
0.0
  0
LINE
  5
B4
330
1F
100
AcDbEntity
  8
0
100
AcDbLine
 10
68.84512440373099
 20
-67.96149464701231
 30
0.0
 11
73.57697164072506
 21
-66.00149934637165
 31
0.0
  0
LINE
  5
B5
330
1F
100
AcDbEntity
  8
0
100
AcDbLine
 10
64.78179506358117
 20
-71.07939691075583
 30
0.0
 11
68.84512440373099
 21
-67.96149464701231
 31
0.0
  0
LINE
  5
B6
330
1F
100
AcDbEntity
  8
0
100
AcDbLine
 10
61.66389279983745
 20
-75.14272625090573
 30
0.0
 11
64.78179506358117
 21
-71.07939691075583
 31
0.0
  0
LINE
  5
B7
330
1F
100
AcDbEntity
  8
0
100
AcDbLine
 10
59.70389749919696
 20
-79.87457348789958
 30
0.0
 11
61.66389279983745
 21
-75.14272625090573
 31
0.0
  0
LINE
  5
B8
330
1F
100
AcDbEntity
  8
0
100
AcDbLine
 10
59.03537960235278
 20
-84.95247105228399
 30
0.0
 11
59.70389749919696
 21
-79.87457348789958
 31
0.0
  0
LINE
  5
B9
330
1F
100
AcDbEntity
  8
0
100
AcDbLine
 10
59.70389749919696
 20
-90.03036861666819
 30
0.0
 11
59.03537960235278
 21
-84.95247105228399
 31
0.0
  0
LINE
  5
BA
330
1F
100
AcDbEntity
  8
0
100
AcDbLine
 10
61.66389279983745
 20
-94.76221585366223
 30
0.0
 11
59.70389749919696
 21
-90.03036861666819
 31
0.0
  0
LINE
  5
BB
330
1F
100
AcDbEntity
  8
0
100
AcDbLine
 10
64.78179506358117
 20
-98.82554519381212
 30
0.0
 11
61.66389279983745
 21
-94.76221585366223
 31
0.0
  0
LINE
  5
BC
330
1F
100
AcDbEntity
  8
0
100
AcDbLine
 10
87.4707866540678
 20
-67.54983787898268
 30
0.0
 11
88.46461400648767
 21
-67.96149464701231
 31
0.0
  0
LINE
  5
BD
330
1F
100
AcDbEntity
  8
0
100
AcDbLine
 10
68.84512440373109
 20
-101.9434474575557
 30
0.0
 11
67.85990621384664
 21
-101.1874629514096
 31
0.0
  0
LINE
  5
BE
330
1F
100
AcDbEntity
  8
0
100
AcDbLine
 10
68.84512440373109
 20
-101.9434474575557
 30
0.0
 11
88.46461400648767
 21
-67.96149464701231
 31
0.0
  0
LINE
  5
BF
330
1F
100
AcDbEntity
  8
0
100
AcDbLine
 10
88.46461400648767
 20
-67.96149464701231
 30
0.0
 11
92.52794334663754
 21
-71.07939691075583
 31
0.0
  0
LINE
  5
C0
330
1F
100
AcDbEntity
  8
0
100
AcDbLine
 10
73.57697164072506
 20
-103.9034427581964
 30
0.0
 11
68.84512440373109
 21
-101.9434474575557
 31
0.0
  0
LINE
  5
C1
330
1F
100
AcDbEntity
  8
0
100
AcDbLine
 10
78.65486920510935
 20
-104.5719606550405
 30
0.0
 11
73.57697164072506
 21
-103.9034427581964
 31
0.0
  0
LINE
  5
C2
330
1F
100
AcDbEntity
  8
0
100
AcDbLine
 10
83.7327667694935
 20
-103.9034427581964
 30
0.0
 11
78.65486920510935
 21
-104.5719606550405
 31
0.0
  0
LINE
  5
C3
330
1F
100
AcDbEntity
  8
0
100
AcDbLine
 10
88.46461400648767
 20
-101.9434474575557
 30
0.0
 11
83.7327667694935
 21
-103.9034427581964
 31
0.0
  0
LINE
  5
C4
330
1F
100
AcDbEntity
  8
0
100
AcDbLine
 10
92.52794334663754
 20
-98.82554519381212
 30
0.0
 11
88.46461400648767
 21
-101.9434474575557
 31
0.0
  0
LINE
  5
C5
330
1F
100
AcDbEntity
  8
0
100
AcDbLine
 10
95.64584561038122
 20
-94.76221585366223
 30
0.0
 11
92.52794334663754
 21
-98.82554519381212
 31
0.0
  0
LINE
  5
C6
330
1F
100
AcDbEntity
  8
0
100
AcDbLine
 10
97.60584091102179
 20
-90.03036861666819
 30
0.0
 11
95.64584561038122
 21
-94.76221585366223
 31
0.0
  0
LINE
  5
C7
330
1F
100
AcDbEntity
  8
0
100
AcDbLine
 10
98.27435880786579
 20
-84.95247105228399
 30
0.0
 11
97.60584091102179
 21
-90.03036861666819
 31
0.0
  0
LINE
  5
C8
330
1F
100
AcDbEntity
  8
0
100
AcDbLine
 10
97.60584091102179
 20
-79.87457348789952
 30
0.0
 11
98.27435880786579
 21
-84.95247105228399
 31
0.0
  0
LINE
  5
C9
330
1F
100
AcDbEntity
  8
0
100
AcDbLine
 10
95.64584561038122
 20
-75.14272625090573
 30
0.0
 11
97.60584091102179
 21
-79.87457348789952
 31
0.0
  0
LINE
  5
CA
330
1F
100
AcDbEntity
  8
0
100
AcDbLine
 10
92.52794334663754
 20
-71.07939691075583
 30
0.0
 11
95.64584561038122
 21
-75.14272625090573
 31
0.0
  0
LINE
  5
CB
330
1F
100
AcDbEntity
  8
0
100
AcDbLine
 10
36.09329508273601
 20
77.61691590540398
 30
0.0
 11
33.01518393247054
 21
79.97883366300171
 31
0.0
  0
LINE
  5
CC
330
1F
100
AcDbEntity
  8
0
100
AcDbLine
 10
55.70417552295733
 20
111.2545409778311
 30
0.0
 11
36.09329508273601
 21
77.61691590540398
 31
0.0
  0
LINE
  5
CD
330
1F
100
AcDbEntity
  8
0
100
AcDbLine
 10
51.96615563838268
 20
112.8028795104419
 30
0.0
 11
55.70417552295733
 21
111.2545409778311
 31
0.0
  0
LINE
  5
CE
330
1F
100
AcDbEntity
  8
0
100
AcDbLine
 10
46.88825807399851
 20
113.4713974072862
 30
0.0
 11
51.96615563838268
 21
112.8028795104419
 31
0.0
  0
LINE
  5
CF
330
1F
100
AcDbEntity
  8
0
100
AcDbLine
 10
41.81036050961437
 20
112.8028795104419
 30
0.0
 11
46.88825807399851
 21
113.4713974072862
 31
0.0
  0
LINE
  5
D0
330
1F
100
AcDbEntity
  8
0
100
AcDbLine
 10
37.0785132726203
 20
110.8428842098013
 30
0.0
 11
41.81036050961437
 21
112.8028795104419
 31
0.0
  0
LINE
  5
D1
330
1F
100
AcDbEntity
  8
0
100
AcDbLine
 10
33.01518393247054
 20
107.7249819460577
 30
0.0
 11
37.0785132726203
 21
110.8428842098013
 31
0.0
  0
LINE
  5
D2
330
1F
100
AcDbEntity
  8
0
100
AcDbLine
 10
29.89728166872686
 20
103.6616526059081
 30
0.0
 11
33.01518393247054
 21
107.7249819460577
 31
0.0
  0
LINE
  5
D3
330
1F
100
AcDbEntity
  8
0
100
AcDbLine
 10
27.93728636808638
 20
98.92980536891419
 30
0.0
 11
29.89728166872686
 21
103.6616526059081
 31
0.0
  0
LINE
  5
D4
330
1F
100
AcDbEntity
  8
0
100
AcDbLine
 10
27.26876847124203
 20
93.85190780452985
 30
0.0
 11
27.93728636808638
 21
98.92980536891419
 31
0.0
  0
LINE
  5
D5
330
1F
100
AcDbEntity
  8
0
100
AcDbLine
 10
27.93728636808638
 20
88.77401024014542
 30
0.0
 11
27.26876847124203
 21
93.85190780452985
 31
0.0
  0
LINE
  5
D6
330
1F
100
AcDbEntity
  8
0
100
AcDbLine
 10
29.89728166872686
 20
84.04216300315139
 30
0.0
 11
27.93728636808638
 21
88.77401024014542
 31
0.0
  0
LINE
  5
D7
330
1F
100
AcDbEntity
  8
0
100
AcDbLine
 10
33.01518393247054
 20
79.97883366300171
 30
0.0
 11
29.89728166872686
 21
84.04216300315139
 31
0.0
  0
LINE
  5
D8
330
1F
100
AcDbEntity
  8
0
100
AcDbLine
 10
55.70417552295733
 20
111.2545409778311
 30
0.0
 11
56.69800287537686
 21
110.8428842098013
 31
0.0
  0
LINE
  5
D9
330
1F
100
AcDbEntity
  8
0
100
AcDbLine
 10
37.07851327262039
 20
76.86093139925803
 30
0.0
 11
36.09329508273601
 21
77.61691590540398
 31
0.0
  0
LINE
  5
DA
330
1F
100
AcDbEntity
  8
0
100
AcDbLine
 10
37.07851327262039
 20
76.86093139925803
 30
0.0
 11
56.69800287537686
 21
110.8428842098013
 31
0.0
  0
LINE
  5
DB
330
1F
100
AcDbEntity
  8
0
100
AcDbLine
 10
56.69800287537686
 20
110.8428842098013
 30
0.0
 11
60.76133221552679
 21
107.7249819460577
 31
0.0
  0
LINE
  5
DC
330
1F
100
AcDbEntity
  8
0
100
AcDbLine
 10
41.81036050961437
 20
74.90093609861737
 30
0.0
 11
37.07851327262039
 21
76.86093139925803
 31
0.0
  0
LINE
  5
DD
330
1F
100
AcDbEntity
  8
0
100
AcDbLine
 10
46.88825807399851
 20
74.23241820177309
 30
0.0
 11
41.81036050961437
 21
74.90093609861737
 31
0.0
  0
LINE
  5
DE
330
1F
100
AcDbEntity
  8
0
100
AcDbLine
 10
51.96615563838268
 20
74.90093609861737
 30
0.0
 11
46.88825807399851
 21
74.23241820177309
 31
0.0
  0
LINE
  5
DF
330
1F
100
AcDbEntity
  8
0
100
AcDbLine
 10
56.69800287537686
 20
76.86093139925803
 30
0.0
 11
51.96615563838268
 21
74.90093609861737
 31
0.0
  0
LINE
  5
E0
330
1F
100
AcDbEntity
  8
0
100
AcDbLine
 10
60.76133221552679
 20
79.97883366300171
 30
0.0
 11
56.69800287537686
 21
76.86093139925803
 31
0.0
  0
LINE
  5
E1
330
1F
100
AcDbEntity
  8
0
100
AcDbLine
 10
63.87923447927041
 20
84.04216300315139
 30
0.0
 11
60.76133221552679
 21
79.97883366300171
 31
0.0
  0
LINE
  5
E2
330
1F
100
AcDbEntity
  8
0
100
AcDbLine
 10
65.83922977991112
 20
88.77401024014542
 30
0.0
 11
63.87923447927041
 21
84.04216300315139
 31
0.0
  0
LINE
  5
E3
330
1F
100
AcDbEntity
  8
0
100
AcDbLine
 10
66.50774767675518
 20
93.85190780452985
 30
0.0
 11
65.83922977991112
 21
88.77401024014542
 31
0.0
  0
LINE
  5
E4
330
1F
100
AcDbEntity
  8
0
100
AcDbLine
 10
65.83922977991112
 20
98.92980536891423
 30
0.0
 11
66.50774767675518
 21
93.85190780452985
 31
0.0
  0
LINE
  5
E5
330
1F
100
AcDbEntity
  8
0
100
AcDbLine
 10
63.87923447927041
 20
103.6616526059081
 30
0.0
 11
65.83922977991112
 21
98.92980536891423
 31
0.0
  0
LINE
  5
E6
330
1F
100
AcDbEntity
  8
0
100
AcDbLine
 10
60.76133221552679
 20
107.7249819460577
 30
0.0
 11
63.87923447927041
 21
103.6616526059081
 31
0.0
  0
LINE
  5
E7
330
1F
100
AcDbEntity
  8
0
100
AcDbLine
 10
-79.92381396471917
 20
1.554450541473359
 30
0.0
 11
-78.9299866122995
 21
1.14279377344378
 31
0.0
  0
LINE
  5
E8
330
1F
100
AcDbEntity
  8
0
100
AcDbLine
 10
-98.54947621505585
 20
-32.83915903709983
 30
0.0
 11
-99.53469440494036
 21
-32.08317453095363
 31
0.0
  0
LINE
  5
E9
330
1F
100
AcDbEntity
  8
0
100
AcDbLine
 10
87.4707866540678
 20
-67.54983787898268
 30
0.0
 11
67.85990621384664
 21
-101.1874629514096
 31
0.0
  0
LINE
  5
EA
330
1F
100
AcDbEntity
  8
0
100
AcDbLine
 10
-78.9299866122995
 20
1.14279377344378
 30
0.0
 11
-74.86665727214954
 21
-1.97510849029987
 31
0.0
  0
LINE
  5
EB
330
1F
100
AcDbEntity
  8
0
100
AcDbLine
 10
-98.54947621505585
 20
-32.83915903709983
 30
0.0
 11
-78.9299866122995
 21
1.14279377344378
 31
0.0
  0
LINE
  5
EC
330
1F
100
AcDbEntity
  8
0
100
AcDbLine
 10
-93.81762897806192
 20
-34.79915433774049
 30
0.0
 11
-98.54947621505585
 21
-32.83915903709983
 31
0.0
  0
LINE
  5
ED
330
1F
100
AcDbEntity
  8
0
100
AcDbLine
 10
-88.73973141367766
 20
-35.46767223458449
 30
0.0
 11
-93.81762897806192
 21
-34.79915433774049
 31
0.0
  0
LINE
  5
EE
330
1F
100
AcDbEntity
  8
0
100
AcDbLine
 10
-83.66183384929348
 20
-34.79915433774049
 30
0.0
 11
-88.73973141367766
 21
-35.46767223458449
 31
0.0
  0
LINE
  5
EF
330
1F
100
AcDbEntity
  8
0
100
AcDbLine
 10
-78.9299866122995
 20
-32.83915903709983
 30
0.0
 11
-83.66183384929348
 21
-34.79915433774049
 31
0.0
  0
LINE
  5
F0
330
1F
100
AcDbEntity
  8
0
100
AcDbLine
 10
-74.86665727214954
 20
-29.72125677335606
 30
0.0
 11
-78.9299866122995
 21
-32.83915903709983
 31
0.0
  0
LINE
  5
F1
330
1F
100
AcDbEntity
  8
0
100
AcDbLine
 10
-71.74875500840577
 20
-25.65792743320627
 30
0.0
 11
-74.86665727214954
 21
-29.72125677335606
 31
0.0
  0
LINE
  5
F2
330
1F
100
AcDbEntity
  8
0
100
AcDbLine
 10
-69.78875970776524
 20
-20.92608019621219
 30
0.0
 11
-71.74875500840577
 21
-25.65792743320627
 31
0.0
  0
LINE
  5
F3
330
1F
100
AcDbEntity
  8
0
100
AcDbLine
 10
-69.12024181092114
 20
-15.84818263182796
 30
0.0
 11
-69.78875970776524
 21
-20.92608019621219
 31
0.0
  0
LINE
  5
F4
330
1F
100
AcDbEntity
  8
0
100
AcDbLine
 10
-69.78875970776524
 20
-10.77028506744363
 30
0.0
 11
-69.12024181092114
 21
-15.84818263182796
 31
0.0
  0
LINE
  5
F5
330
1F
100
AcDbEntity
  8
0
100
AcDbLine
 10
-71.74875500840577
 20
-6.038437830449702
 30
0.0
 11
-69.78875970776524
 21
-10.77028506744363
 31
0.0
  0
LINE
  5
F6
330
1F
100
AcDbEntity
  8
0
100
AcDbLine
 10
-74.86665727214954
 20
-1.97510849029987
 30
0.0
 11
-71.74875500840577
 21
-6.038437830449702
 31
0.0
  0
LINE
  5
F7
330
1F
100
AcDbEntity
  8
0
100
AcDbLine
 10
-99.53469440494036
 20
-32.08317453095363
 30
0.0
 11
-102.6128055552057
 21
-29.72125677335606
 31
0.0
  0
LINE
  5
F8
330
1F
100
AcDbEntity
  8
0
100
AcDbLine
 10
-79.92381396471917
 20
1.554450541473359
 30
0.0
 11
-99.53469440494036
 21
-32.08317453095363
 31
0.0
  0
LINE
  5
F9
330
1F
100
AcDbEntity
  8
0
100
AcDbLine
 10
-83.66183384929348
 20
3.102789074084444
 30
0.0
 11
-79.92381396471917
 21
1.554450541473359
 31
0.0
  0
LINE
  5
FA
330
1F
100
AcDbEntity
  8
0
100
AcDbLine
 10
-88.73973141367766
 20
3.771306970928378
 30
0.0
 11
-83.66183384929348
 21
3.102789074084444
 31
0.0
  0
LINE
  5
FB
330
1F
100
AcDbEntity
  8
0
100
AcDbLine
 10
-93.81762897806192
 20
3.102789074084444
 30
0.0
 11
-88.73973141367766
 21
3.771306970928378
 31
0.0
  0
LINE
  5
FC
330
1F
100
AcDbEntity
  8
0
100
AcDbLine
 10
-98.54947621505598
 20
1.14279377344378
 30
0.0
 11
-93.81762897806192
 21
3.102789074084444
 31
0.0
  0
LINE
  5
FD
330
1F
100
AcDbEntity
  8
0
100
AcDbLine
 10
-102.6128055552057
 20
-1.97510849029987
 30
0.0
 11
-98.54947621505598
 21
1.14279377344378
 31
0.0
  0
LINE
  5
FE
330
1F
100
AcDbEntity
  8
0
100
AcDbLine
 10
-105.7307078189495
 20
-6.038437830449702
 30
0.0
 11
-102.6128055552057
 21
-1.97510849029987
 31
0.0
  0
LINE
  5
FF
330
1F
100
AcDbEntity
  8
0
100
AcDbLine
 10
-107.6907031195901
 20
-10.77028506744367
 30
0.0
 11
-105.7307078189495
 21
-6.038437830449702
 31
0.0
  0
LINE
  5
100
330
1F
100
AcDbEntity
  8
0
100
AcDbLine
 10
-108.3592210164342
 20
-15.84818263182796
 30
0.0
 11
-107.6907031195901
 21
-10.77028506744367
 31
0.0
  0
LINE
  5
101
330
1F
100
AcDbEntity
  8
0
100
AcDbLine
 10
-107.6907031195901
 20
-20.92608019621219
 30
0.0
 11
-108.3592210164342
 21
-15.84818263182796
 31
0.0
  0
LINE
  5
102
330
1F
100
AcDbEntity
  8
0
100
AcDbLine
 10
-105.7307078189495
 20
-25.65792743320627
 30
0.0
 11
-107.6907031195901
 21
-20.92608019621219
 31
0.0
  0
LINE
  5
103
330
1F
100
AcDbEntity
  8
0
100
AcDbLine
 10
-102.6128055552057
 20
-29.72125677335606
 30
0.0
 11
-105.7307078189495
 21
-25.65792743320627
 31
0.0
  0
LINE
  5
162
330
1F
100
AcDbEntity
  8
0
100
AcDbLine
 10
120.7629033819294
 20
129.4790576559228
 30
0.0
 11
112.0327118547932
 21
135.9222322247612
 31
0.0
  0
LINE
  5
163
330
1F
100
AcDbEntity
  8
0
100
AcDbLine
 10
112.0327118547932
 20
135.9222322247612
 30
0.0
 11
110.3380669541151
 21
137.1729370796687
 31
0.0
  0
LINE
  5
164
330
1F
100
AcDbEntity
  8
0
100
AcDbLine
 10
87.91230331074414
 20
150.1204577559517
 30
0.0
 11
76.29434379068498
 21
155.1893216778371
 31
0.0
  0
LINE
  5
165
330
1F
100
AcDbEntity
  8
0
100
AcDbLine
 10
76.29434379068498
 20
155.1893216778371
 30
0.0
 11
76.0367900622178
 21
155.301691220864
 31
0.0
  0
LINE
  5
166
330
1F
100
AcDbEntity
  8
0
100
AcDbLine
 10
-160.033799478079
 20
6.968708566306146
 30
0.0
 11
-160.2266909457297
 21
1.813575565023539
 31
0.0
  0
LINE
  5
167
330
1F
100
AcDbEntity
  8
0
100
AcDbLine
 10
-160.2266909457297
 20
1.813575565023539
 30
0.0
 11
-160.518261521069
 21
-5.978812109976874
 31
0.0
  0
LINE
  5
168
330
1F
100
AcDbEntity
  8
0
100
AcDbLine
 10
-160.033799478079
 20
-18.92633278625854
 30
0.0
 11
-159.7244855508222
 21
-21.67156981949015
 31
0.0
  0
LINE
  5
169
330
1F
100
AcDbEntity
  8
0
100
AcDbLine
 10
-159.7244855508222
 20
-21.67156981949015
 30
0.0
 11
-159.4620275506478
 21
-24.00094899790772
 31
0.0
  0
LINE
  5
16A
330
1F
100
AcDbEntity
  8
0
100
AcDbLine
 10
-159.4620275506478
 20
-24.00094899790772
 30
0.0
 11
-158.5831226573679
 21
-31.80144567491812
 31
0.0
  0
LINE
  5
487
330
1F
100
AcDbEntity
  8
0
100
AcDbLine
 10
-85.75569850937029
 20
381.160045089933
 30
0.0
 11
-85.75435856011734
 21
381.1999200569562
 31
0.0
  0
LINE
  5
488
330
1F
100
AcDbEntity
  8
0
100
AcDbLine
 10
-136.0600445214892
 20
386.3760072636949
 30
0.0
 11
-136.0289293956911
 21
386.4688672394992
 31
0.0
  0
LINE
  5
489
330
1F
100
AcDbEntity
  8
0
100
AcDbLine
 10
6.056310132455138
 20
385.4890593329266
 30
0.0
 11
6.08548238464931
 21
385.6163477640426
 31
0.0
  0
LINE
  5
48A
330
1F
100
AcDbEntity
  8
0
100
AcDbLine
 10
-138.4949173843344
 20
750.0187243215592
 30
0.0
 11
-139.4215696157934
 21
749.7265519952677
 31
0.0
  0
LINE
  5
48B
330
1F
100
AcDbEntity
  8
0
100
AcDbLine
 10
-135.6123202695047
 20
750.3982254312647
 30
0.0
 11
-136.5830173543576
 21
750.3558438812616
 31
0.0
  0
LINE
  5
48C
330
1F
100
AcDbEntity
  8
0
100
AcDbLine
 10
-136.5830173543576
 20
750.3558438812616
 30
0.0
 11
-137.5463268482708
 21
750.2290217804381
 31
0.0
  0
LINE
  5
48D
330
1F
100
AcDbEntity
  8
0
100
AcDbLine
 10
-137.5463268482708
 20
750.2290217804381
 30
0.0
 11
-138.4949173843344
 21
750.0187243215592
 31
0.0
  0
LINE
  5
48E
330
1F
100
AcDbEntity
  8
0
100
AcDbLine
 10
-136.5830173543552
 20
728.165606981268
 30
0.0
 11
-135.6123202695047
 21
728.1232254312649
 31
0.0
  0
LINE
  5
48F
330
1F
100
AcDbEntity
  8
0
100
AcDbLine
 10
-137.5463268482708
 20
728.2924290820913
 30
0.0
 11
-136.5830173543552
 21
728.165606981268
 31
0.0
  0
LINE
  5
490
330
1F
100
AcDbEntity
  8
0
100
AcDbLine
 10
-138.4949173843344
 20
728.5027265409706
 30
0.0
 11
-137.5463268482708
 21
728.2924290820913
 31
0.0
  0
LINE
  5
491
330
1F
100
AcDbEntity
  8
0
100
AcDbLine
 10
-139.4215696157934
 20
728.7948988672619
 30
0.0
 11
-138.4949173843344
 21
728.5027265409706
 31
0.0
  0
LINE
  5
492
330
1F
100
AcDbEntity
  8
0
100
AcDbLine
 10
-140.3192311596418
 20
729.166722453144
 30
0.0
 11
-139.4215696157934
 21
728.7948988672619
 31
0.0
  0
LINE
  5
493
330
1F
100
AcDbEntity
  8
0
100
AcDbLine
 10
-144.1441402547411
 20
732.1016784283809
 30
0.0
 11
-143.4877220449701
 21
731.3853236557996
 31
0.0
  0
LINE
  5
494
330
1F
100
AcDbEntity
  8
0
100
AcDbLine
 10
-143.4877220449701
 20
731.3853236557996
 30
0.0
 11
-142.7713672723888
 21
730.7289054460271
 31
0.0
  0
LINE
  5
495
330
1F
100
AcDbEntity
  8
0
100
AcDbLine
 10
-141.181070269506
 20
729.6153674966157
 30
0.0
 11
-140.3192311596418
 21
729.166722453144
 31
0.0
  0
LINE
  5
496
330
1F
100
AcDbEntity
  8
0
100
AcDbLine
 10
-146.0781468335082
 20
735.4514760849752
 30
0.0
 11
-145.7063232476271
 21
734.5538145411278
 31
0.0
  0
LINE
  5
497
330
1F
100
AcDbEntity
  8
0
100
AcDbLine
 10
-146.5806166186784
 20
737.3267188524993
 30
0.0
 11
-146.3703191597989
 21
736.3781283164358
 31
0.0
  0
LINE
  5
498
330
1F
100
AcDbEntity
  8
0
100
AcDbLine
 10
-142.0005278293668
 20
730.1374195379962
 30
0.0
 11
-141.181070269506
 21
729.6153674966157
 31
0.0
  0
LINE
  5
499
330
1F
100
AcDbEntity
  8
0
100
AcDbLine
 10
-146.707438719501
 20
738.2900283464128
 30
0.0
 11
-146.5806166186784
 21
737.3267188524993
 31
0.0
  0
LINE
  5
49A
330
1F
100
AcDbEntity
  8
0
100
AcDbLine
 10
-145.7063232476271
 20
734.5538145411278
 30
0.0
 11
-145.2576782041545
 21
733.6919754312646
 31
0.0
  0
LINE
  5
49B
330
1F
100
AcDbEntity
  8
0
100
AcDbLine
 10
-146.3703191597989
 20
736.3781283164358
 30
0.0
 11
-146.0781468335082
 21
735.4514760849752
 31
0.0
  0
LINE
  5
49C
330
1F
100
AcDbEntity
  8
0
100
AcDbLine
 10
-146.707438719501
 20
740.2314225161168
 30
0.0
 11
-146.707438719501
 21
738.2900283464128
 31
0.0
  0
LINE
  5
49D
330
1F
100
AcDbEntity
  8
0
100
AcDbLine
 10
-146.5806166186784
 20
741.1947320100302
 30
0.0
 11
-146.707438719501
 21
740.2314225161168
 31
0.0
  0
LINE
  5
49E
330
1F
100
AcDbEntity
  8
0
100
AcDbLine
 10
-146.3703191597989
 20
742.1433225460939
 30
0.0
 11
-146.5806166186784
 21
741.1947320100302
 31
0.0
  0
LINE
  5
49F
330
1F
100
AcDbEntity
  8
0
100
AcDbLine
 10
-146.0781468335082
 20
743.0699747775545
 30
0.0
 11
-146.3703191597989
 21
742.1433225460939
 31
0.0
  0
LINE
  5
4A0
330
1F
100
AcDbEntity
  8
0
100
AcDbLine
 10
-145.7063232476245
 20
743.9676363214017
 30
0.0
 11
-146.0781468335082
 21
743.0699747775545
 31
0.0
  0
LINE
  5
4A1
330
1F
100
AcDbEntity
  8
0
100
AcDbLine
 10
-144.7356261627743
 20
732.8725178714051
 30
0.0
 11
-144.1441402547411
 21
732.1016784283809
 31
0.0
  0
LINE
  5
4A2
330
1F
100
AcDbEntity
  8
0
100
AcDbLine
 10
-145.2576782041545
 20
733.6919754312646
 30
0.0
 11
-144.7356261627743
 21
732.8725178714051
 31
0.0
  0
LINE
  5
4A3
330
1F
100
AcDbEntity
  8
0
100
AcDbLine
 10
-145.2576782041545
 20
744.8294754312646
 30
0.0
 11
-145.7063232476245
 21
743.9676363214017
 31
0.0
  0
LINE
  5
4A4
330
1F
100
AcDbEntity
  8
0
100
AcDbLine
 10
-144.7356261627734
 20
745.6489329911245
 30
0.0
 11
-145.2576782041545
 21
744.8294754312646
 31
0.0
  0
LINE
  5
4A5
330
1F
100
AcDbEntity
  8
0
100
AcDbLine
 10
-142.7713672723888
 20
730.7289054460271
 30
0.0
 11
-142.0005278293668
 21
730.1374195379962
 31
0.0
  0
LINE
  5
4A6
330
1F
100
AcDbEntity
  8
0
100
AcDbLine
 10
-144.1441402547411
 20
746.4197724341487
 30
0.0
 11
-144.7356261627734
 21
745.6489329911245
 31
0.0
  0
LINE
  5
4A7
330
1F
100
AcDbEntity
  8
0
100
AcDbLine
 10
-143.4877220449701
 20
747.1361272067298
 30
0.0
 11
-144.1441402547411
 21
746.4197724341487
 31
0.0
  0
LINE
  5
4A8
330
1F
100
AcDbEntity
  8
0
100
AcDbLine
 10
-142.7713672723888
 20
747.7925454165025
 30
0.0
 11
-143.4877220449701
 21
747.1361272067298
 31
0.0
  0
LINE
  5
4A9
330
1F
100
AcDbEntity
  8
0
100
AcDbLine
 10
-140.3192311596418
 20
749.3547284093854
 30
0.0
 11
-141.181070269506
 21
748.9060833659138
 31
0.0
  0
LINE
  5
4AA
330
1F
100
AcDbEntity
  8
0
100
AcDbLine
 10
-142.0005278293668
 20
748.3840313245333
 30
0.0
 11
-142.7713672723888
 21
747.7925454165025
 31
0.0
  0
LINE
  5
4AB
330
1F
100
AcDbEntity
  8
0
100
AcDbLine
 10
-141.181070269506
 20
748.9060833659138
 30
0.0
 11
-142.0005278293668
 21
748.3840313245333
 31
0.0
  0
LINE
  5
4AC
330
1F
100
AcDbEntity
  8
0
100
AcDbLine
 10
-139.4215696157934
 20
749.7265519952677
 30
0.0
 11
-140.3192311596418
 21
749.3547284093854
 31
0.0
  0
LINE
  5
4AD
330
1F
100
AcDbEntity
  8
0
100
AcDbLine
 10
192.5209290767822
 20
749.7265519952678
 30
0.0
 11
193.4185906206314
 21
749.3547284093854
 31
0.0
  0
LINE
  5
4AE
330
1F
100
AcDbEntity
  8
0
100
AcDbLine
 10
189.6823768153501
 20
750.3558438812619
 30
0.0
 11
190.645686309261
 21
750.2290217804381
 31
0.0
  0
LINE
  5
4AF
330
1F
100
AcDbEntity
  8
0
100
AcDbLine
 10
191.5942768453226
 20
750.0187243215592
 30
0.0
 11
192.5209290767822
 21
749.7265519952678
 31
0.0
  0
LINE
  5
4B0
330
1F
100
AcDbEntity
  8
0
100
AcDbLine
 10
188.7116797304932
 20
750.3982254312647
 30
0.0
 11
189.6823768153501
 21
750.3558438812619
 31
0.0
  0
LINE
  5
4B1
330
1F
100
AcDbEntity
  8
0
100
AcDbLine
 10
190.645686309261
 20
750.2290217804381
 30
0.0
 11
191.5942768453226
 21
750.0187243215592
 31
0.0
  0
LINE
  5
4B2
330
1F
100
AcDbEntity
  8
0
100
AcDbLine
 10
189.6823768153486
 20
728.165606981268
 30
0.0
 11
188.7116797304917
 21
728.1232254312649
 31
0.0
  0
LINE
  5
4B3
330
1F
100
AcDbEntity
  8
0
100
AcDbLine
 10
191.594276845324
 20
728.5027265409706
 30
0.0
 11
190.6456863092624
 21
728.2924290820914
 31
0.0
  0
LINE
  5
4B4
330
1F
100
AcDbEntity
  8
0
100
AcDbLine
 10
190.6456863092624
 20
728.2924290820914
 30
0.0
 11
189.6823768153486
 21
728.165606981268
 31
0.0
  0
LINE
  5
4B5
330
1F
100
AcDbEntity
  8
0
100
AcDbLine
 10
199.4696786207866
 20
736.3781283164358
 30
0.0
 11
199.1775062944985
 21
735.4514760849752
 31
0.0
  0
LINE
  5
4B6
330
1F
100
AcDbEntity
  8
0
100
AcDbLine
 10
197.2434997157314
 20
732.1016784283811
 30
0.0
 11
196.5870815059614
 21
731.3853236557998
 31
0.0
  0
LINE
  5
4B7
330
1F
100
AcDbEntity
  8
0
100
AcDbLine
 10
195.8707267333765
 20
730.7289054460272
 30
0.0
 11
195.0998872903574
 21
730.1374195379962
 31
0.0
  0
LINE
  5
4B8
330
1F
100
AcDbEntity
  8
0
100
AcDbLine
 10
199.8067981804885
 20
740.2314225161169
 30
0.0
 11
199.8067981804885
 21
738.2900283464131
 31
0.0
  0
LINE
  5
4B9
330
1F
100
AcDbEntity
  8
0
100
AcDbLine
 10
199.679976079667
 20
741.1947320100303
 30
0.0
 11
199.8067981804885
 21
740.2314225161169
 31
0.0
  0
LINE
  5
4BA
330
1F
100
AcDbEntity
  8
0
100
AcDbLine
 10
193.4185906206314
 20
729.1667224531441
 30
0.0
 11
192.5209290767829
 21
728.7948988672619
 31
0.0
  0
LINE
  5
4BB
330
1F
100
AcDbEntity
  8
0
100
AcDbLine
 10
198.3570376651448
 20
733.6919754312652
 30
0.0
 11
197.8349856237652
 21
732.8725178714051
 31
0.0
  0
LINE
  5
4BC
330
1F
100
AcDbEntity
  8
0
100
AcDbLine
 10
195.0998872903574
 20
730.1374195379962
 30
0.0
 11
194.2804297304962
 21
729.6153674966157
 31
0.0
  0
LINE
  5
4BD
330
1F
100
AcDbEntity
  8
0
100
AcDbLine
 10
199.4696786207866
 20
742.1433225460941
 30
0.0
 11
199.679976079667
 21
741.1947320100303
 31
0.0
  0
LINE
  5
4BE
330
1F
100
AcDbEntity
  8
0
100
AcDbLine
 10
199.1775062944985
 20
743.0699747775547
 30
0.0
 11
199.4696786207866
 21
742.1433225460941
 31
0.0
  0
LINE
  5
4BF
330
1F
100
AcDbEntity
  8
0
100
AcDbLine
 10
194.2804297304962
 20
729.6153674966157
 30
0.0
 11
193.4185906206314
 21
729.1667224531441
 31
0.0
  0
LINE
  5
4C0
330
1F
100
AcDbEntity
  8
0
100
AcDbLine
 10
198.3570376651448
 20
744.8294754312648
 30
0.0
 11
198.8056827086156
 21
743.9676363214019
 31
0.0
  0
LINE
  5
4C1
330
1F
100
AcDbEntity
  8
0
100
AcDbLine
 10
196.5870815059614
 20
731.3853236557998
 30
0.0
 11
195.8707267333765
 21
730.7289054460272
 31
0.0
  0
LINE
  5
4C2
330
1F
100
AcDbEntity
  8
0
100
AcDbLine
 10
199.6799760796692
 20
737.3267188524994
 30
0.0
 11
199.4696786207866
 21
736.3781283164358
 31
0.0
  0
LINE
  5
4C3
330
1F
100
AcDbEntity
  8
0
100
AcDbLine
 10
198.8056827086184
 20
734.5538145411278
 30
0.0
 11
198.3570376651448
 21
733.6919754312652
 31
0.0
  0
LINE
  5
4C4
330
1F
100
AcDbEntity
  8
0
100
AcDbLine
 10
197.8349856237623
 20
745.6489329911246
 30
0.0
 11
198.3570376651448
 21
744.8294754312648
 31
0.0
  0
LINE
  5
4C5
330
1F
100
AcDbEntity
  8
0
100
AcDbLine
 10
199.8067981804885
 20
738.2900283464131
 30
0.0
 11
199.6799760796692
 21
737.3267188524994
 31
0.0
  0
LINE
  5
4C6
330
1F
100
AcDbEntity
  8
0
100
AcDbLine
 10
197.8349856237652
 20
732.8725178714051
 30
0.0
 11
197.2434997157314
 21
732.1016784283811
 31
0.0
  0
LINE
  5
4C7
330
1F
100
AcDbEntity
  8
0
100
AcDbLine
 10
198.8056827086156
 20
743.9676363214019
 30
0.0
 11
199.1775062944985
 21
743.0699747775547
 31
0.0
  0
LINE
  5
4C8
330
1F
100
AcDbEntity
  8
0
100
AcDbLine
 10
192.5209290767829
 20
728.7948988672619
 30
0.0
 11
191.594276845324
 21
728.5027265409706
 31
0.0
  0
LINE
  5
4C9
330
1F
100
AcDbEntity
  8
0
100
AcDbLine
 10
199.1775062944985
 20
735.4514760849752
 30
0.0
 11
198.8056827086184
 21
734.5538145411278
 31
0.0
  0
LINE
  5
4CA
330
1F
100
AcDbEntity
  8
0
100
AcDbLine
 10
194.2804297304962
 20
748.906083365914
 30
0.0
 11
195.0998872903574
 21
748.3840313245334
 31
0.0
  0
LINE
  5
4CB
330
1F
100
AcDbEntity
  8
0
100
AcDbLine
 10
195.8707267333787
 20
747.7925454165026
 30
0.0
 11
196.5870815059614
 21
747.1361272067299
 31
0.0
  0
LINE
  5
4CC
330
1F
100
AcDbEntity
  8
0
100
AcDbLine
 10
193.4185906206314
 20
749.3547284093854
 30
0.0
 11
194.2804297304962
 21
748.906083365914
 31
0.0
  0
LINE
  5
4CD
330
1F
100
AcDbEntity
  8
0
100
AcDbLine
 10
196.5870815059614
 20
747.1361272067299
 30
0.0
 11
197.2434997157299
 21
746.4197724341488
 31
0.0
  0
LINE
  5
4CE
330
1F
100
AcDbEntity
  8
0
100
AcDbLine
 10
195.0998872903574
 20
748.3840313245334
 30
0.0
 11
195.8707267333787
 21
747.7925454165026
 31
0.0
  0
LINE
  5
4CF
330
1F
100
AcDbEntity
  8
0
100
AcDbLine
 10
197.2434997157299
 20
746.4197724341488
 30
0.0
 11
197.8349856237623
 21
745.6489329911246
 31
0.0
  0
LINE
  5
4D0
330
1F
100
AcDbEntity
  8
0
100
AcDbLine
 10
86.5723669668896
 20
750.3982254312646
 30
0.0
 11
85.90384907004553
 21
750.3982254312646
 31
0.0
  0
LINE
  5
4D1
330
1F
100
AcDbEntity
  8
0
100
AcDbLine
 10
91.6502645312738
 20
750.3982254312646
 30
0.0
 11
88.53236226753029
 21
750.3982254312646
 31
0.0
  0
LINE
  5
4D2
330
1F
100
AcDbEntity
  8
0
100
AcDbLine
 10
125.1428282755585
 20
750.3982254312646
 30
0.0
 11
124.4743103787144
 21
750.3982254312646
 31
0.0
  0
LINE
  5
4D3
330
1F
100
AcDbEntity
  8
0
100
AcDbLine
 10
-87.15411432553976
 20
750.3982254312646
 30
0.0
 11
-90.27201658928333
 21
750.3982254312646
 31
0.0
  0
LINE
  5
4D4
330
1F
100
AcDbEntity
  8
0
100
AcDbLine
 10
-53.66155058125513
 20
750.3982254312646
 30
0.0
 11
-54.33006847809941
 21
750.3982254312646
 31
0.0
  0
LINE
  5
4D5
330
1F
100
AcDbEntity
  8
0
100
AcDbLine
 10
53.41002665761777
 20
750.3982254312648
 30
0.0
 11
52.6540421514716
 21
750.3982254312648
 31
0.0
  0
LINE
  5
4D6
330
1F
100
AcDbEntity
  8
0
100
AcDbLine
 10
88.53236226753029
 20
750.3558438812619
 30
0.0
 11
88.53236226753029
 21
750.2290217804381
 31
0.0
  0
LINE
  5
4DA
330
1F
100
AcDbEntity
  8
0
100
AcDbLine
 10
88.12070549950064
 20
750.3558438812619
 30
0.0
 11
88.12070549950064
 21
750.2290217804381
 31
0.0
  0
LINE
  5
4DB
330
1F
100
AcDbEntity
  8
0
100
AcDbLine
 10
85.90384907004553
 20
750.3558438812619
 30
0.0
 11
85.90384907004553
 21
750.2290217804381
 31
0.0
  0
LINE
  5
4DC
330
1F
100
AcDbEntity
  8
0
100
AcDbLine
 10
-90.27201658928333
 20
750.3558438812618
 30
0.0
 11
-90.27201658928333
 21
750.2290217804381
 31
0.0
  0
LINE
  5
4DD
330
1F
100
AcDbEntity
  8
0
100
AcDbLine
 10
-56.29006377874008
 20
750.3558438812619
 30
0.0
 11
-56.29006377874008
 21
750.2290217804381
 31
0.0
  0
LINE
  5
4DE
330
1F
100
AcDbEntity
  8
0
100
AcDbLine
 10
-53.66155058125513
 20
750.3558438812619
 30
0.0
 11
-53.66155058125513
 21
750.2290217804381
 31
0.0
  0
LINE
  5
4DF
330
1F
100
AcDbEntity
  8
0
100
AcDbLine
 10
-57.04604828488602
 20
750.3558438812619
 30
0.0
 11
-57.04604828488602
 21
750.2290217804381
 31
0.0
  0
LINE
  5
4E0
330
1F
100
AcDbEntity
  8
0
100
AcDbLine
 10
-90.68367335731313
 20
750.3558438812618
 30
0.0
 11
-90.68367335731313
 21
750.2290217804381
 31
0.0
  0
LINE
  5
4E1
330
1F
100
AcDbEntity
  8
0
100
AcDbLine
 10
-92.90052978676827
 20
750.3558438812616
 30
0.0
 11
-92.90052978676827
 21
750.2290217804381
 31
0.0
  0
LINE
  5
4EB
330
1F
100
AcDbEntity
  8
0
100
AcDbLine
 10
-72.53747419394004
 20
455.5654874262974
 30
0.0
 11
-75.23487733448738
 21
439.7900258396171
 31
0.0
  0
LINE
  5
4EC
330
1F
100
AcDbEntity
  8
0
100
AcDbLine
 10
-75.23487733448738
 20
439.7900258396171
 30
0.0
 11
-80.41198723355945
 21
410.4605292625851
 31
0.0
  0
LINE
  5
4ED
330
1F
100
AcDbEntity
  8
0
100
AcDbLine
 10
-70.21748294225524
 20
469.133697651249
 30
0.0
 11
-71.37561533353284
 21
462.3604894584286
 31
0.0
  0
LINE
  5
4EE
330
1F
100
AcDbEntity
  8
0
100
AcDbLine
 10
-65.35987961311957
 20
498.4911028151437
 30
0.0
 11
-70.21748294225524
 21
469.133697651249
 31
0.0
  0
LINE
  5
4EF
330
1F
100
AcDbEntity
  8
0
100
AcDbLine
 10
-60.66214049706364
 20
527.8617992421552
 30
0.0
 11
-65.35987961311957
 21
498.4911028151437
 31
0.0
  0
LINE
  5
4F0
330
1F
100
AcDbEntity
  8
0
100
AcDbLine
 10
-51.74653546619073
 20
586.64129653485
 30
0.0
 11
-56.12433633669543
 21
557.2453446429867
 31
0.0
  0
LINE
  5
4F1
330
1F
100
AcDbEntity
  8
0
100
AcDbLine
 10
-47.52880381024737
 20
616.0492122481291
 30
0.0
 11
-51.74653546619073
 21
586.64129653485
 31
0.0
  0
LINE
  5
4F2
330
1F
100
AcDbEntity
  8
0
100
AcDbLine
 10
-43.47120488311591
 20
645.4686489330474
 30
0.0
 11
-47.52880381024737
 21
616.0492122481291
 31
0.0
  0
LINE
  5
4F3
330
1F
100
AcDbEntity
  8
0
100
AcDbLine
 10
-39.57379978762057
 20
674.8991635663347
 30
0.0
 11
-43.47120488311591
 21
645.4686489330474
 31
0.0
  0
LINE
  5
4F4
330
1F
100
AcDbEntity
  8
0
100
AcDbLine
 10
-35.83664721425007
 20
704.3403129578995
 30
0.0
 11
-39.57379978762057
 21
674.8991635663347
 31
0.0
  0
LINE
  5
4FA
330
1F
100
AcDbEntity
  8
0
100
AcDbLine
 10
-71.53945664858399
 20
461.7336548444741
 30
0.0
 11
-71.99731290608093
 21
459.5393959565869
 31
0.0
  0
LINE
  5
4FB
330
1F
100
AcDbEntity
  8
0
100
AcDbLine
 10
-71.37561533353284
 20
462.3604894584286
 30
0.0
 11
-71.53945664858399
 21
461.7336548444741
 31
0.0
  0
LINE
  5
514
330
1F
100
AcDbEntity
  8
0
100
AcDbLine
 10
-76.46654141971026
 20
707.865149847101
 30
0.0
 11
-82.69198213619622
 21
678.6398713065271
 31
0.0
  0
LINE
  5
515
330
1F
100
AcDbEntity
  8
0
100
AcDbLine
 10
-82.69198213619622
 20
678.6398713065271
 30
0.0
 11
-88.75826411431594
 21
649.3975170756609
 31
0.0
  0
LINE
  5
516
330
1F
100
AcDbEntity
  8
0
100
AcDbLine
 10
-88.75826411431594
 20
649.3975170756609
 30
0.0
 11
-94.66529600275942
 21
620.138527511111
 31
0.0
  0
LINE
  5
517
330
1F
100
AcDbEntity
  8
0
100
AcDbLine
 10
-94.66529600275942
 20
620.138527511111
 30
0.0
 11
-100.4129888483384
 21
590.8633432199961
 31
0.0
  0
LINE
  5
518
330
1F
100
AcDbEntity
  8
0
100
AcDbLine
 10
-100.4129888483384
 20
590.8633432199961
 30
0.0
 11
-106.0012560973406
 21
561.5724050533097
 31
0.0
  0
LINE
  5
519
330
1F
100
AcDbEntity
  8
0
100
AcDbLine
 10
-111.4300135968086
 20
532.2661540992799
 30
0.0
 11
-116.6991795958295
 21
502.9450316767284
 31
0.0
  0
LINE
  5
51A
330
1F
100
AcDbEntity
  8
0
100
AcDbLine
 10
-116.6991795958295
 20
502.9450316767284
 30
0.0
 11
-121.8086747467519
 21
473.609479328424
 31
0.0
  0
LINE
  5
51B
330
1F
100
AcDbEntity
  8
0
100
AcDbLine
 10
-121.8086747467519
 20
473.609479328424
 30
0.0
 11
-126.7584221063874
 21
444.259938814434
 31
0.0
  0
LINE
  5
51C
330
1F
100
AcDbEntity
  8
0
100
AcDbLine
 10
-126.7584221063874
 20
444.259938814434
 30
0.0
 11
-131.5483471371694
 21
414.8968521054713
 31
0.0
  0
LINE
  5
51D
330
1F
100
AcDbEntity
  8
0
100
AcDbLine
 10
-131.5483471371694
 20
414.8968521054713
 30
0.0
 11
-136.0289293956911
 21
386.4688672394992
 31
0.0
  0
LINE
  5
52D
330
1F
100
AcDbEntity
  8
0
100
AcDbLine
 10
-110.5037784392361
 20
363.1324141371883
 30
0.0
 11
-111.3058575133732
 21
363.1232254312646
 31
0.0
  0
LINE
  5
52E
330
1F
100
AcDbEntity
  8
0
100
AcDbLine
 10
-109.7008172590062
 20
363.1599711868162
 30
0.0
 11
-110.5037784392361
 21
363.1324141371883
 31
0.0
  0
LINE
  5
52F
330
1F
100
AcDbEntity
  8
0
100
AcDbLine
 10
-108.9002773035092
 20
363.2058693846672
 30
0.0
 11
-109.7008172590062
 21
363.1599711868162
 31
0.0
  0
LINE
  5
530
330
1F
100
AcDbEntity
  8
0
100
AcDbLine
 10
-108.1021113652502
 20
363.2700634347614
 30
0.0
 11
-108.9002773035092
 21
363.2058693846672
 31
0.0
  0
LINE
  5
531
330
1F
100
AcDbEntity
  8
0
100
AcDbLine
 10
-107.3071071376464
 20
363.3524899853217
 30
0.0
 11
-108.1021113652502
 21
363.2700634347614
 31
0.0
  0
LINE
  5
532
330
1F
100
AcDbEntity
  8
0
100
AcDbLine
 10
-106.5160491938884
 20
363.453067691294
 30
0.0
 11
-107.3071071376464
 21
363.3524899853217
 31
0.0
  0
LINE
  5
533
330
1F
100
AcDbEntity
  8
0
100
AcDbLine
 10
-105.7297182126612
 20
363.5716972946255
 30
0.0
 11
-106.5160491938884
 21
363.453067691294
 31
0.0
  0
LINE
  5
534
330
1F
100
AcDbEntity
  8
0
100
AcDbLine
 10
-104.9488902077084
 20
363.7082617222201
 30
0.0
 11
-105.7297182126612
 21
363.5716972946255
 31
0.0
  0
LINE
  5
535
330
1F
100
AcDbEntity
  8
0
100
AcDbLine
 10
-104.1743357620003
 20
363.8626262014752
 30
0.0
 11
-104.9488902077084
 21
363.7082617222201
 31
0.0
  0
LINE
  5
536
330
1F
100
AcDbEntity
  8
0
100
AcDbLine
 10
-103.4068192672617
 20
364.0346383932866
 30
0.0
 11
-104.1743357620003
 21
363.8626262014752
 31
0.0
  0
LINE
  5
537
330
1F
100
AcDbEntity
  8
0
100
AcDbLine
 10
-102.6470981696096
 20
364.2241285423883
 30
0.0
 11
-103.4068192672617
 21
364.0346383932866
 31
0.0
  0
LINE
  5
538
330
1F
100
AcDbEntity
  8
0
100
AcDbLine
 10
-101.8959222220451
 20
364.4309096448803
 30
0.0
 11
-102.6470981696096
 21
364.2241285423883
 31
0.0
  0
LINE
  5
539
330
1F
100
AcDbEntity
  8
0
100
AcDbLine
 10
-101.154032744538
 20
364.6547776327797
 30
0.0
 11
-101.8959222220451
 21
364.4309096448803
 31
0.0
  0
LINE
  5
53A
330
1F
100
AcDbEntity
  8
0
100
AcDbLine
 10
-100.4221618924329
 20
364.8955115754102
 30
0.0
 11
-101.154032744538
 21
364.6547776327797
 31
0.0
  0
LINE
  5
53B
330
1F
100
AcDbEntity
  8
0
100
AcDbLine
 10
-99.7010319339013
 20
365.1528738974346
 30
0.0
 11
-100.4221618924329
 21
364.8955115754102
 31
0.0
  0
LINE
  5
53C
330
1F
100
AcDbEntity
  8
0
100
AcDbLine
 10
-98.99135453714903
 20
365.4266106133129
 30
0.0
 11
-99.7010319339013
 21
365.1528738974346
 31
0.0
  0
LINE
  5
53D
330
1F
100
AcDbEntity
  8
0
100
AcDbLine
 10
-98.29383006808633
 20
365.716451577955
 30
0.0
 11
-98.99135453714903
 21
365.4266106133129
 31
0.0
  0
LINE
  5
53E
330
1F
100
AcDbEntity
  8
0
100
AcDbLine
 10
-97.60914689915097
 20
366.0221107533218
 30
0.0
 11
-98.29383006808633
 21
365.716451577955
 31
0.0
  0
LINE
  5
53F
330
1F
100
AcDbEntity
  8
0
100
AcDbLine
 10
-96.937980729968
 20
366.3432864907099
 30
0.0
 11
-97.60914689915097
 21
366.0221107533218
 31
0.0
  0
LINE
  5
540
330
1F
100
AcDbEntity
  8
0
100
AcDbLine
 10
-96.28015441818243
 20
366.6796618284426
 30
0.0
 11
-96.937980729968
 21
366.3432864907099
 31
0.0
  0
LINE
  5
541
330
1F
100
AcDbEntity
  8
0
100
AcDbLine
 10
-95.63795945499295
 20
367.0309048046724
 30
0.0
 11
-96.28015441818243
 21
366.6796618284426
 31
0.0
  0
LINE
  5
542
330
1F
100
AcDbEntity
  8
0
100
AcDbLine
 10
-95.01122681557884
 20
367.3966687849882
 30
0.0
 11
-95.63795945499295
 21
367.0309048046724
 31
0.0
  0
LINE
  5
543
330
1F
100
AcDbEntity
  8
0
100
AcDbLine
 10
-94.40057500938888
 20
367.7765928045003
 30
0.0
 11
-95.01122681557884
 21
367.3966687849882
 31
0.0
  0
LINE
  5
544
330
1F
100
AcDbEntity
  8
0
100
AcDbLine
 10
-93.80660667603081
 20
368.1703019240704
 30
0.0
 11
-94.40057500938888
 21
367.7765928045003
 31
0.0
  0
LINE
  5
545
330
1F
100
AcDbEntity
  8
0
100
AcDbLine
 10
-93.22990799053906
 20
368.5774076003305
 30
0.0
 11
-93.80660667603081
 21
368.1703019240704
 31
0.0
  0
LINE
  5
546
330
1F
100
AcDbEntity
  8
0
100
AcDbLine
 10
-92.67104808489051
 20
368.9975080691287
 30
0.0
 11
-93.22990799053906
 21
368.5774076003305
 31
0.0
  0
LINE
  5
547
330
1F
100
AcDbEntity
  8
0
100
AcDbLine
 10
-92.1305784863401
 20
369.4301887420215
 30
0.0
 11
-92.67104808489051
 21
368.9975080691287
 31
0.0
  0
LINE
  5
548
330
1F
100
AcDbEntity
  8
0
100
AcDbLine
 10
-91.60903257312982
 20
369.875022615423
 30
0.0
 11
-92.1305784863401
 21
369.4301887420215
 31
0.0
  0
LINE
  5
549
330
1F
100
AcDbEntity
  8
0
100
AcDbLine
 10
-91.10692504810911
 20
370.3315706920056
 30
0.0
 11
-91.60903257312982
 21
369.875022615423
 31
0.0
  0
LINE
  5
54A
330
1F
100
AcDbEntity
  8
0
100
AcDbLine
 10
-90.62475143078492
 20
370.7993824139374
 30
0.0
 11
-91.10692504810911
 21
370.3315706920056
 31
0.0
  0
LINE
  5
54B
330
1F
100
AcDbEntity
  8
0
100
AcDbLine
 10
-90.16298756830405
 20
371.2779961075284
 30
0.0
 11
-90.62475143078492
 21
370.7993824139374
 31
0.0
  0
LINE
  5
54C
330
1F
100
AcDbEntity
  8
0
100
AcDbLine
 10
-89.72208916584937
 20
371.766939438847
 30
0.0
 11
-90.16298756830405
 21
371.2779961075284
 31
0.0
  0
LINE
  5
54D
330
1F
100
AcDbEntity
  8
0
100
AcDbLine
 10
-89.30249133691374
 20
372.2657298798558
 30
0.0
 11
-89.72208916584937
 21
371.766939438847
 31
0.0
  0
LINE
  5
54E
330
1F
100
AcDbEntity
  8
0
100
AcDbLine
 10
-88.9046081738957
 20
372.7738751846092
 30
0.0
 11
-89.30249133691374
 21
372.2657298798558
 31
0.0
  0
LINE
  5
54F
330
1F
100
AcDbEntity
  8
0
100
AcDbLine
 10
-88.52883233944011
 20
373.2908738750407
 30
0.0
 11
-88.9046081738957
 21
372.7738751846092
 31
0.0
  0
LINE
  5
550
330
1F
100
AcDbEntity
  8
0
100
AcDbLine
 10
-88.17553467892757
 20
373.8162157358606
 30
0.0
 11
-88.52883233944011
 21
373.2908738750407
 31
0.0
  0
LINE
  5
551
330
1F
100
AcDbEntity
  8
0
100
AcDbLine
 10
-87.84506385449498
 20
374.3493823180779
 30
0.0
 11
-88.17553467892757
 21
373.8162157358606
 31
0.0
  0
LINE
  5
552
330
1F
100
AcDbEntity
  8
0
100
AcDbLine
 10
-87.53774600094775
 20
374.8898474506457
 30
0.0
 11
-87.84506385449498
 21
374.3493823180779
 31
0.0
  0
LINE
  5
553
330
1F
100
AcDbEntity
  8
0
100
AcDbLine
 10
-87.25388440390437
 20
375.4370777597294
 30
0.0
 11
-87.53774600094775
 21
374.8898474506457
 31
0.0
  0
LINE
  5
554
330
1F
100
AcDbEntity
  8
0
100
AcDbLine
 10
-86.99375920049014
 20
375.9905331950818
 30
0.0
 11
-87.25388440390437
 21
375.4370777597294
 31
0.0
  0
LINE
  5
555
330
1F
100
AcDbEntity
  8
0
100
AcDbLine
 10
-86.75762710287555
 20
376.5496675630077
 30
0.0
 11
-86.99375920049014
 21
375.9905331950818
 31
0.0
  0
LINE
  5
556
330
1F
100
AcDbEntity
  8
0
100
AcDbLine
 10
-86.54572114493229
 20
377.113929065391
 30
0.0
 11
-86.75762710287555
 21
376.5496675630077
 31
0.0
  0
LINE
  5
557
330
1F
100
AcDbEntity
  8
0
100
AcDbLine
 10
-86.35825045225724
 20
377.6827608442531
 30
0.0
 11
-86.54572114493229
 21
377.113929065391
 31
0.0
  0
LINE
  5
558
330
1F
100
AcDbEntity
  8
0
100
AcDbLine
 10
-86.19540003579043
 20
378.2556015313041
 30
0.0
 11
-86.35825045225724
 21
377.6827608442531
 31
0.0
  0
LINE
  5
559
330
1F
100
AcDbEntity
  8
0
100
AcDbLine
 10
-86.05733060923164
 20
378.8318858019458
 30
0.0
 11
-86.19540003579043
 21
378.2556015313041
 31
0.0
  0
LINE
  5
55A
330
1F
100
AcDbEntity
  8
0
100
AcDbLine
 10
-85.9441784304357
 20
379.4110449331786
 30
0.0
 11
-86.05733060923164
 21
378.8318858019458
 31
0.0
  0
LINE
  5
55B
330
1F
100
AcDbEntity
  8
0
100
AcDbLine
 10
-85.85605516694203
 20
379.9925073648628
 30
0.0
 11
-85.9441784304357
 21
379.4110449331786
 31
0.0
  0
LINE
  5
55C
330
1F
100
AcDbEntity
  8
0
100
AcDbLine
 10
-85.79304778577236
 20
380.5756992637792
 30
0.0
 11
-85.85605516694203
 21
379.9925073648628
 31
0.0
  0
LINE
  5
55D
330
1F
100
AcDbEntity
  8
0
100
AcDbLine
 10
-85.75569850937029
 20
381.160045089933
 30
0.0
 11
-85.79304778577236
 21
380.5756992637792
 31
0.0
  0
LINE
  5
55E
330
1F
100
AcDbEntity
  8
0
100
AcDbLine
 10
-112.1079365875102
 20
363.1324141371883
 30
0.0
 11
-111.3058575133732
 21
363.1232254312646
 31
0.0
  0
LINE
  5
55F
330
1F
100
AcDbEntity
  8
0
100
AcDbLine
 10
-112.9108977677402
 20
363.1599711868162
 30
0.0
 11
-112.1079365875102
 21
363.1324141371883
 31
0.0
  0
LINE
  5
560
330
1F
100
AcDbEntity
  8
0
100
AcDbLine
 10
-113.7114377232371
 20
363.2058693846672
 30
0.0
 11
-112.9108977677402
 21
363.1599711868162
 31
0.0
  0
LINE
  5
561
330
1F
100
AcDbEntity
  8
0
100
AcDbLine
 10
-114.5096036614962
 20
363.2700634347614
 30
0.0
 11
-113.7114377232371
 21
363.2058693846672
 31
0.0
  0
LINE
  5
562
330
1F
100
AcDbEntity
  8
0
100
AcDbLine
 10
-115.3046078891
 20
363.3524899853217
 30
0.0
 11
-114.5096036614962
 21
363.2700634347614
 31
0.0
  0
LINE
  5
563
330
1F
100
AcDbEntity
  8
0
100
AcDbLine
 10
-116.0956658328579
 20
363.453067691294
 30
0.0
 11
-115.3046078891
 21
363.3524899853217
 31
0.0
  0
LINE
  5
564
330
1F
100
AcDbEntity
  8
0
100
AcDbLine
 10
-116.8819968140851
 20
363.5716972946255
 30
0.0
 11
-116.0956658328579
 21
363.453067691294
 31
0.0
  0
LINE
  5
565
330
1F
100
AcDbEntity
  8
0
100
AcDbLine
 10
-117.662824819038
 20
363.7082617222201
 30
0.0
 11
-116.8819968140851
 21
363.5716972946255
 31
0.0
  0
LINE
  5
566
330
1F
100
AcDbEntity
  8
0
100
AcDbLine
 10
-118.4373792647461
 20
363.8626262014752
 30
0.0
 11
-117.662824819038
 21
363.7082617222201
 31
0.0
  0
LINE
  5
567
330
1F
100
AcDbEntity
  8
0
100
AcDbLine
 10
-119.2048957594846
 20
364.0346383932866
 30
0.0
 11
-118.4373792647461
 21
363.8626262014752
 31
0.0
  0
LINE
  5
568
330
1F
100
AcDbEntity
  8
0
100
AcDbLine
 10
-119.9646168571367
 20
364.2241285423883
 30
0.0
 11
-119.2048957594846
 21
364.0346383932866
 31
0.0
  0
LINE
  5
569
330
1F
100
AcDbEntity
  8
0
100
AcDbLine
 10
-120.7157928047012
 20
364.4309096448803
 30
0.0
 11
-119.9646168571367
 21
364.2241285423883
 31
0.0
  0
LINE
  5
56A
330
1F
100
AcDbEntity
  8
0
100
AcDbLine
 10
-121.4576822822084
 20
364.6547776327797
 30
0.0
 11
-120.7157928047012
 21
364.4309096448803
 31
0.0
  0
LINE
  5
56B
330
1F
100
AcDbEntity
  8
0
100
AcDbLine
 10
-122.1895531343134
 20
364.8955115754102
 30
0.0
 11
-121.4576822822084
 21
364.6547776327797
 31
0.0
  0
LINE
  5
56C
330
1F
100
AcDbEntity
  8
0
100
AcDbLine
 10
-122.910683092845
 20
365.1528738974346
 30
0.0
 11
-122.1895531343134
 21
364.8955115754102
 31
0.0
  0
LINE
  5
56D
330
1F
100
AcDbEntity
  8
0
100
AcDbLine
 10
-123.6203604895973
 20
365.4266106133129
 30
0.0
 11
-122.910683092845
 21
365.1528738974346
 31
0.0
  0
LINE
  5
56E
330
1F
100
AcDbEntity
  8
0
100
AcDbLine
 10
-124.31788495866
 20
365.716451577955
 30
0.0
 11
-123.6203604895973
 21
365.4266106133129
 31
0.0
  0
LINE
  5
56F
330
1F
100
AcDbEntity
  8
0
100
AcDbLine
 10
-125.0025681275953
 20
366.0221107533218
 30
0.0
 11
-124.31788495866
 21
365.716451577955
 31
0.0
  0
LINE
  5
570
330
1F
100
AcDbEntity
  8
0
100
AcDbLine
 10
-125.6737342967783
 20
366.3432864907099
 30
0.0
 11
-125.0025681275953
 21
366.0221107533218
 31
0.0
  0
LINE
  5
571
330
1F
100
AcDbEntity
  8
0
100
AcDbLine
 10
-126.3315606085639
 20
366.6796618284426
 30
0.0
 11
-125.6737342967783
 21
366.3432864907099
 31
0.0
  0
LINE
  5
572
330
1F
100
AcDbEntity
  8
0
100
AcDbLine
 10
-126.9737555717534
 20
367.0309048046724
 30
0.0
 11
-126.3315606085639
 21
366.6796618284426
 31
0.0
  0
LINE
  5
573
330
1F
100
AcDbEntity
  8
0
100
AcDbLine
 10
-127.6004882111675
 20
367.3966687849882
 30
0.0
 11
-126.9737555717534
 21
367.0309048046724
 31
0.0
  0
LINE
  5
574
330
1F
100
AcDbEntity
  8
0
100
AcDbLine
 10
-128.2111400173574
 20
367.7765928045003
 30
0.0
 11
-127.6004882111675
 21
367.3966687849882
 31
0.0
  0
LINE
  5
575
330
1F
100
AcDbEntity
  8
0
100
AcDbLine
 10
-128.8051083507155
 20
368.1703019240704
 30
0.0
 11
-128.2111400173574
 21
367.7765928045003
 31
0.0
  0
LINE
  5
576
330
1F
100
AcDbEntity
  8
0
100
AcDbLine
 10
-129.3818070362073
 20
368.5774076003305
 30
0.0
 11
-128.8051083507155
 21
368.1703019240704
 31
0.0
  0
LINE
  5
577
330
1F
100
AcDbEntity
  8
0
100
AcDbLine
 10
-129.9406669418558
 20
368.9975080691287
 30
0.0
 11
-129.3818070362073
 21
368.5774076003305
 31
0.0
  0
LINE
  5
578
330
1F
100
AcDbEntity
  8
0
100
AcDbLine
 10
-130.4811365404062
 20
369.4301887420215
 30
0.0
 11
-129.9406669418558
 21
368.9975080691287
 31
0.0
  0
LINE
  5
579
330
1F
100
AcDbEntity
  8
0
100
AcDbLine
 10
-131.0026824536165
 20
369.875022615423
 30
0.0
 11
-130.4811365404062
 21
369.4301887420215
 31
0.0
  0
LINE
  5
57A
330
1F
100
AcDbEntity
  8
0
100
AcDbLine
 10
-131.5047899786372
 20
370.3315706920056
 30
0.0
 11
-131.0026824536165
 21
369.875022615423
 31
0.0
  0
LINE
  5
57B
330
1F
100
AcDbEntity
  8
0
100
AcDbLine
 10
-131.9869635959614
 20
370.7993824139374
 30
0.0
 11
-131.5047899786372
 21
370.3315706920056
 31
0.0
  0
LINE
  5
57C
330
1F
100
AcDbEntity
  8
0
100
AcDbLine
 10
-132.4487274584422
 20
371.2779961075284
 30
0.0
 11
-131.9869635959614
 21
370.7993824139374
 31
0.0
  0
LINE
  5
57D
330
1F
100
AcDbEntity
  8
0
100
AcDbLine
 10
-132.8896258608969
 20
371.766939438847
 30
0.0
 11
-132.4487274584422
 21
371.2779961075284
 31
0.0
  0
LINE
  5
57E
330
1F
100
AcDbEntity
  8
0
100
AcDbLine
 10
-133.3092236898325
 20
372.2657298798558
 30
0.0
 11
-132.8896258608969
 21
371.766939438847
 31
0.0
  0
LINE
  5
57F
330
1F
100
AcDbEntity
  8
0
100
AcDbLine
 10
-133.7071068528506
 20
372.7738751846092
 30
0.0
 11
-133.3092236898325
 21
372.2657298798558
 31
0.0
  0
LINE
  5
580
330
1F
100
AcDbEntity
  8
0
100
AcDbLine
 10
-134.0828826873062
 20
373.2908738750407
 30
0.0
 11
-133.7071068528506
 21
372.7738751846092
 31
0.0
  0
LINE
  5
581
330
1F
100
AcDbEntity
  8
0
100
AcDbLine
 10
-134.4361803478187
 20
373.8162157358606
 30
0.0
 11
-134.0828826873062
 21
373.2908738750407
 31
0.0
  0
LINE
  5
582
330
1F
100
AcDbEntity
  8
0
100
AcDbLine
 10
-134.7666511722513
 20
374.3493823180779
 30
0.0
 11
-134.4361803478187
 21
373.8162157358606
 31
0.0
  0
LINE
  5
583
330
1F
100
AcDbEntity
  8
0
100
AcDbLine
 10
-135.0739690257986
 20
374.8898474506457
 30
0.0
 11
-134.7666511722513
 21
374.3493823180779
 31
0.0
  0
LINE
  5
584
330
1F
100
AcDbEntity
  8
0
100
AcDbLine
 10
-135.3578306228419
 20
375.4370777597294
 30
0.0
 11
-135.0739690257986
 21
374.8898474506457
 31
0.0
  0
LINE
  5
585
330
1F
100
AcDbEntity
  8
0
100
AcDbLine
 10
-135.6179558262561
 20
375.9905331950818
 30
0.0
 11
-135.3578306228419
 21
375.4370777597294
 31
0.0
  0
LINE
  5
586
330
1F
100
AcDbEntity
  8
0
100
AcDbLine
 10
-135.8540879238708
 20
376.5496675630077
 30
0.0
 11
-135.6179558262561
 21
375.9905331950818
 31
0.0
  0
LINE
  5
587
330
1F
100
AcDbEntity
  8
0
100
AcDbLine
 10
-136.065993881814
 20
377.113929065391
 30
0.0
 11
-135.8540879238708
 21
376.5496675630077
 31
0.0
  0
LINE
  5
588
330
1F
100
AcDbEntity
  8
0
100
AcDbLine
 10
-136.2534645744891
 20
377.6827608442531
 30
0.0
 11
-136.065993881814
 21
377.113929065391
 31
0.0
  0
LINE
  5
589
330
1F
100
AcDbEntity
  8
0
100
AcDbLine
 10
-136.4163149909559
 20
378.2556015313041
 30
0.0
 11
-136.2534645744891
 21
377.6827608442531
 31
0.0
  0
LINE
  5
58A
330
1F
100
AcDbEntity
  8
0
100
AcDbLine
 10
-136.5543844175147
 20
378.8318858019458
 30
0.0
 11
-136.4163149909559
 21
378.2556015313041
 31
0.0
  0
LINE
  5
58B
330
1F
100
AcDbEntity
  8
0
100
AcDbLine
 10
-136.6675365963106
 20
379.4110449331786
 30
0.0
 11
-136.5543844175147
 21
378.8318858019458
 31
0.0
  0
LINE
  5
58C
330
1F
100
AcDbEntity
  8
0
100
AcDbLine
 10
-136.7556598598043
 20
379.9925073648628
 30
0.0
 11
-136.6675365963106
 21
379.4110449331786
 31
0.0
  0
LINE
  5
58D
330
1F
100
AcDbEntity
  8
0
100
AcDbLine
 10
-136.818667240974
 20
380.5756992637792
 30
0.0
 11
-136.7556598598043
 21
379.9925073648628
 31
0.0
  0
LINE
  5
58E
330
1F
100
AcDbEntity
  8
0
100
AcDbLine
 10
-136.8564965591413
 20
381.160045089933
 30
0.0
 11
-136.818667240974
 21
380.5756992637792
 31
0.0
  0
LINE
  5
58F
330
1F
100
AcDbEntity
  8
0
100
AcDbLine
 10
-136.8691104813365
 20
381.744968164543
 30
0.0
 11
-136.8564965591413
 21
381.160045089933
 31
0.0
  0
LINE
  5
590
330
1F
100
AcDbEntity
  8
0
100
AcDbLine
 10
-136.8564965591413
 20
382.3298912391529
 30
0.0
 11
-136.8691104813365
 21
381.744968164543
 31
0.0
  0
LINE
  5
591
330
1F
100
AcDbEntity
  8
0
100
AcDbLine
 10
-136.818667240974
 20
382.9142370653068
 30
0.0
 11
-136.8564965591413
 21
382.3298912391529
 31
0.0
  0
LINE
  5
592
330
1F
100
AcDbEntity
  8
0
100
AcDbLine
 10
-136.7556598598043
 20
383.4974289642231
 30
0.0
 11
-136.818667240974
 21
382.9142370653068
 31
0.0
  0
LINE
  5
593
330
1F
100
AcDbEntity
  8
0
100
AcDbLine
 10
-136.6675365963106
 20
384.0788913959073
 30
0.0
 11
-136.7556598598043
 21
383.4974289642231
 31
0.0
  0
LINE
  5
594
330
1F
100
AcDbEntity
  8
0
100
AcDbLine
 10
-136.5543844175146
 20
384.6580505271402
 30
0.0
 11
-136.6675365963106
 21
384.0788913959073
 31
0.0
  0
LINE
  5
595
330
1F
100
AcDbEntity
  8
0
100
AcDbLine
 10
-136.4163149909559
 20
385.2343347977819
 30
0.0
 11
-136.5543844175146
 21
384.6580505271402
 31
0.0
  0
LINE
  5
596
330
1F
100
AcDbEntity
  8
0
100
AcDbLine
 10
-136.2534645744891
 20
385.8071754848328
 30
0.0
 11
-136.4163149909559
 21
385.2343347977819
 31
0.0
  0
LINE
  5
597
330
1F
100
AcDbEntity
  8
0
100
AcDbLine
 10
-136.0600445214892
 20
386.3760072636949
 30
0.0
 11
-136.2534645744891
 21
385.8071754848328
 31
0.0
  0
LINE
  5
5A4
330
1F
100
AcDbEntity
  8
0
100
AcDbLine
 10
93.0942833270241
 20
527.8617992421555
 30
0.0
 11
97.80720418688071
 21
498.4911028151438
 31
0.0
  0
LINE
  5
5A5
330
1F
100
AcDbEntity
  8
0
100
AcDbLine
 10
105.0069982341257
 20
455.5654874262972
 30
0.0
 11
107.712561967525
 21
439.7900258396173
 31
0.0
  0
LINE
  5
5A6
330
1F
100
AcDbEntity
  8
0
100
AcDbLine
 10
79.91539729562347
 20
616.0492122481294
 30
0.0
 11
84.14831252332215
 21
586.6412965348501
 31
0.0
  0
LINE
  5
5A7
330
1F
100
AcDbEntity
  8
0
100
AcDbLine
 10
107.712561967525
 20
439.7900258396173
 30
0.0
 11
112.9048497248853
 21
410.4605292625853
 31
0.0
  0
LINE
  5
5A8
330
1F
100
AcDbEntity
  8
0
100
AcDbLine
 10
84.14831252332215
 20
586.6412965348501
 30
0.0
 11
88.54129658490199
 21
557.245344642987
 31
0.0
  0
LINE
  5
5A9
330
1F
100
AcDbEntity
  8
0
100
AcDbLine
 10
97.80720418688071
 20
498.4911028151438
 30
0.0
 11
102.6799881932431
 21
469.1336976512492
 31
0.0
  0
LINE
  5
5AA
330
1F
100
AcDbEntity
  8
0
100
AcDbLine
 10
68.17768998676434
 20
704.3403129578997
 30
0.0
 11
71.93002590203909
 21
674.8991635663348
 31
0.0
  0
LINE
  5
5AB
330
1F
100
AcDbEntity
  8
0
100
AcDbLine
 10
71.93002590203909
 20
674.8991635663348
 30
0.0
 11
75.84261464470495
 21
645.4686489330477
 31
0.0
  0
LINE
  5
5AC
330
1F
100
AcDbEntity
  8
0
100
AcDbLine
 10
75.84261464470495
 20
645.4686489330477
 30
0.0
 11
79.91539729562347
 21
616.0492122481294
 31
0.0
  0
LINE
  5
5C4
330
1F
100
AcDbEntity
  8
0
100
AcDbLine
 10
102.6799881932431
 20
469.1336976512492
 30
0.0
 11
103.84162434218
 21
462.3604894584291
 31
0.0
  0
LINE
  5
5C5
330
1F
100
AcDbEntity
  8
0
100
AcDbLine
 10
104.0035652908728
 20
461.7336548444743
 30
0.0
 11
103.84162434218
 21
462.3604894584291
 31
0.0
  0
LINE
  5
5C6
330
1F
100
AcDbEntity
  8
0
100
AcDbLine
 10
104.4593109751463
 20
459.5393959565871
 30
0.0
 11
104.0035652908728
 21
461.7336548444743
 31
0.0
  0
LINE
  5
5C7
330
1F
100
AcDbEntity
  8
0
100
AcDbLine
 10
104.8114954284412
 20
457.3451370686999
 30
0.0
 11
104.4593109751463
 21
459.5393959565871
 31
0.0
  0
LINE
  5
5C8
330
1F
100
AcDbEntity
  8
0
100
AcDbLine
 10
108.8072380653416
 20
707.8651498471012
 30
0.0
 11
115.0478409259554
 21
678.6398713065274
 31
0.0
  0
LINE
  5
5C9
330
1F
100
AcDbEntity
  8
0
100
AcDbLine
 10
115.0478409259554
 20
678.6398713065274
 30
0.0
 11
121.1292880745397
 21
649.3975170756611
 31
0.0
  0
LINE
  5
5CA
330
1F
100
AcDbEntity
  8
0
100
AcDbLine
 10
121.1292880745397
 20
649.3975170756611
 30
0.0
 11
127.0514879314138
 21
620.1385275111113
 31
0.0
  0
LINE
  5
5CB
330
1F
100
AcDbEntity
  8
0
100
AcDbLine
 10
127.0514879314138
 20
620.1385275111113
 30
0.0
 11
132.8143513149779
 21
590.8633432199962
 31
0.0
  0
LINE
  5
5CC
330
1F
100
AcDbEntity
  8
0
100
AcDbLine
 10
132.8143513149779
 20
590.8633432199962
 30
0.0
 11
138.4177914430684
 21
561.57240505331
 31
0.0
  0
LINE
  5
5CD
330
1F
100
AcDbEntity
  8
0
100
AcDbLine
 10
143.8617239342411
 20
532.2661540992802
 30
0.0
 11
149.1460668090652
 21
502.9450316767287
 31
0.0
  0
LINE
  5
5CE
330
1F
100
AcDbEntity
  8
0
100
AcDbLine
 10
149.1460668090652
 20
502.9450316767287
 30
0.0
 11
154.2707404913433
 21
473.6094793284242
 31
0.0
  0
LINE
  5
5CF
330
1F
100
AcDbEntity
  8
0
100
AcDbLine
 10
154.2707404913433
 20
473.6094793284242
 30
0.0
 11
159.2356678093147
 21
444.2599388144342
 31
0.0
  0
LINE
  5
5D0
330
1F
100
AcDbEntity
  8
0
100
AcDbLine
 10
159.2356678093147
 20
444.2599388144342
 30
0.0
 11
164.0407739968204
 21
414.8968521054715
 31
0.0
  0
LINE
  5
5D1
330
1F
100
AcDbEntity
  8
0
100
AcDbLine
 10
103.84162434218
 20
462.3604894584291
 30
0.0
 11
104.4557524931382
 21
458.8304513781335
 31
0.0
  0
LINE
  5
5D2
330
1F
100
AcDbEntity
  8
0
100
AcDbLine
 10
104.4557524931382
 20
458.8304513781335
 30
0.0
 11
104.4593109751463
 21
459.5393959565871
 31
0.0
  0
LINE
  5
5D3
330
1F
100
AcDbEntity
  8
0
100
AcDbLine
 10
104.4557524931382
 20
458.8304513781335
 30
0.0
 11
104.8114954284412
 21
457.3451370686999
 31
0.0
  0
LINE
  5
5D4
330
1F
100
AcDbEntity
  8
0
100
AcDbLine
 10
104.9092468312833
 20
456.4553122474986
 30
0.0
 11
104.8114954284412
 21
457.3451370686999
 31
0.0
  0
LINE
  5
5D5
330
1F
100
AcDbEntity
  8
0
100
AcDbLine
 10
104.4557524931382
 20
458.8304513781335
 30
0.0
 11
104.9092468312833
 21
456.4553122474986
 31
0.0
  0
LINE
  5
5F6
330
1F
100
AcDbEntity
  8
0
100
AcDbLine
 10
169.0933234335076
 20
385.234334797782
 30
0.0
 11
168.9299496980499
 21
385.807175484833
 31
0.0
  0
LINE
  5
5F7
330
1F
100
AcDbEntity
  8
0
100
AcDbLine
 10
168.9299496980499
 20
385.807175484833
 30
0.0
 11
168.7418765692508
 21
386.3760072636952
 31
0.0
  0
LINE
  5
5F8
330
1F
100
AcDbEntity
  8
0
100
AcDbLine
 10
169.2318365454713
 20
384.6580505271404
 30
0.0
 11
169.0933234335076
 21
385.234334797782
 31
0.0
  0
LINE
  5
5F9
330
1F
100
AcDbEntity
  8
0
100
AcDbLine
 10
169.3453523382223
 20
384.0788913959075
 30
0.0
 11
169.2318365454713
 21
384.6580505271404
 31
0.0
  0
LINE
  5
5FA
330
1F
100
AcDbEntity
  8
0
100
AcDbLine
 10
168.5292896525819
 20
386.9402687660785
 30
0.0
 11
168.4250647838295
 21
387.1707239912517
 31
0.0
  0
LINE
  5
5FB
330
1F
100
AcDbEntity
  8
0
100
AcDbLine
 10
168.7418765692508
 20
386.3760072636952
 30
0.0
 11
168.5292896525819
 21
386.9402687660785
 31
0.0
  0
LINE
  5
5FC
330
1F
100
AcDbEntity
  8
0
100
AcDbLine
 10
143.9021736276406
 20
363.1232254312648
 30
0.0
 11
144.7077151195679
 21
363.1324141371885
 31
0.0
  0
LINE
  5
5FD
330
1F
100
AcDbEntity
  8
0
100
AcDbLine
 10
144.7077151195679
 20
363.1324141371885
 30
0.0
 11
145.5124616392969
 21
363.1599711868164
 31
0.0
  0
LINE
  5
5FE
330
1F
100
AcDbEntity
  8
0
100
AcDbLine
 10
145.5124616392969
 20
363.1599711868164
 30
0.0
 11
146.3156189991707
 21
363.2058693846674
 31
0.0
  0
LINE
  5
5FF
330
1F
100
AcDbEntity
  8
0
100
AcDbLine
 10
146.3156189991707
 20
363.2058693846674
 30
0.0
 11
147.1163945798417
 21
363.2700634347616
 31
0.0
  0
LINE
  5
600
330
1F
100
AcDbEntity
  8
0
100
AcDbLine
 10
147.1163945798417
 20
363.2700634347616
 30
0.0
 11
147.9139981124904
 21
363.3524899853219
 31
0.0
  0
LINE
  5
601
330
1F
100
AcDbEntity
  8
0
100
AcDbLine
 10
147.9139981124904
 20
363.3524899853219
 30
0.0
 11
148.707642458726
 21
363.4530676912942
 31
0.0
  0
LINE
  5
602
330
1F
100
AcDbEntity
  8
0
100
AcDbLine
 10
148.707642458726
 20
363.4530676912942
 30
0.0
 11
149.4965443873967
 21
363.5716972946257
 31
0.0
  0
LINE
  5
603
330
1F
100
AcDbEntity
  8
0
100
AcDbLine
 10
149.4965443873967
 20
363.5716972946257
 30
0.0
 11
150.2799253475439
 21
363.7082617222203
 31
0.0
  0
LINE
  5
604
330
1F
100
AcDbEntity
  8
0
100
AcDbLine
 10
150.2799253475439
 20
363.7082617222203
 30
0.0
 11
151.057012236739
 21
363.8626262014755
 31
0.0
  0
LINE
  5
605
330
1F
100
AcDbEntity
  8
0
100
AcDbLine
 10
151.057012236739
 20
363.8626262014755
 30
0.0
 11
151.8270381640411
 21
364.0346383932869
 31
0.0
  0
LINE
  5
606
330
1F
100
AcDbEntity
  8
0
100
AcDbLine
 10
151.8270381640411
 20
364.0346383932869
 30
0.0
 11
152.5892432068261
 21
364.2241285423885
 31
0.0
  0
LINE
  5
607
330
1F
100
AcDbEntity
  8
0
100
AcDbLine
 10
152.5892432068261
 20
364.2241285423885
 30
0.0
 11
153.3428751607392
 21
364.4309096448806
 31
0.0
  0
LINE
  5
608
330
1F
100
AcDbEntity
  8
0
100
AcDbLine
 10
153.3428751607392
 20
364.4309096448806
 30
0.0
 11
154.0871902820288
 21
364.6547776327799
 31
0.0
  0
LINE
  5
609
330
1F
100
AcDbEntity
  8
0
100
AcDbLine
 10
154.0871902820288
 20
364.6547776327799
 30
0.0
 11
154.8214540215324
 21
364.8955115754104
 31
0.0
  0
LINE
  5
60A
330
1F
100
AcDbEntity
  8
0
100
AcDbLine
 10
154.8214540215324
 20
364.8955115754104
 30
0.0
 11
155.5449417495881
 21
365.1528738974348
 31
0.0
  0
LINE
  5
60B
330
1F
100
AcDbEntity
  8
0
100
AcDbLine
 10
155.5449417495881
 20
365.1528738974348
 30
0.0
 11
156.2569394711557
 21
365.4266106133131
 31
0.0
  0
LINE
  5
60C
330
1F
100
AcDbEntity
  8
0
100
AcDbLine
 10
156.2569394711557
 20
365.4266106133131
 30
0.0
 11
156.9567445304448
 21
365.7164515779552
 31
0.0
  0
LINE
  5
60D
330
1F
100
AcDbEntity
  8
0
100
AcDbLine
 10
156.9567445304448
 20
365.7164515779552
 30
0.0
 11
157.6436663043502
 21
366.022110753322
 31
0.0
  0
LINE
  5
60E
330
1F
100
AcDbEntity
  8
0
100
AcDbLine
 10
157.6436663043502
 20
366.022110753322
 30
0.0
 11
158.3170268840143
 21
366.3432864907102
 31
0.0
  0
LINE
  5
60F
330
1F
100
AcDbEntity
  8
0
100
AcDbLine
 10
158.3170268840143
 20
366.3432864907102
 30
0.0
 11
158.9761617438406
 21
366.6796618284428
 31
0.0
  0
LINE
  5
610
330
1F
100
AcDbEntity
  8
0
100
AcDbLine
 10
158.9761617438406
 20
366.6796618284428
 30
0.0
 11
159.6204203973009
 21
367.0309048046727
 31
0.0
  0
LINE
  5
611
330
1F
100
AcDbEntity
  8
0
100
AcDbLine
 10
159.6204203973009
 20
367.0309048046727
 30
0.0
 11
160.2491670388864
 21
367.3966687849884
 31
0.0
  0
LINE
  5
612
330
1F
100
AcDbEntity
  8
0
100
AcDbLine
 10
160.2491670388864
 20
367.3966687849884
 30
0.0
 11
160.8617811715716
 21
367.7765928045005
 31
0.0
  0
LINE
  5
613
330
1F
100
AcDbEntity
  8
0
100
AcDbLine
 10
160.8617811715716
 20
367.7765928045005
 30
0.0
 11
161.4576582191691
 21
368.1703019240706
 31
0.0
  0
LINE
  5
614
330
1F
100
AcDbEntity
  8
0
100
AcDbLine
 10
161.4576582191691
 20
368.1703019240706
 30
0.0
 11
162.036210122974
 21
368.5774076003307
 31
0.0
  0
LINE
  5
615
330
1F
100
AcDbEntity
  8
0
100
AcDbLine
 10
162.036210122974
 20
368.5774076003307
 30
0.0
 11
162.5968659221068
 21
368.9975080691289
 31
0.0
  0
LINE
  5
616
330
1F
100
AcDbEntity
  8
0
100
AcDbLine
 10
162.5968659221068
 20
368.9975080691289
 30
0.0
 11
163.1390723169826
 21
369.4301887420217
 31
0.0
  0
LINE
  5
617
330
1F
100
AcDbEntity
  8
0
100
AcDbLine
 10
163.1390723169826
 20
369.4301887420217
 30
0.0
 11
163.6622942153509
 21
369.8750226154232
 31
0.0
  0
LINE
  5
618
330
1F
100
AcDbEntity
  8
0
100
AcDbLine
 10
163.6622942153509
 20
369.8750226154232
 30
0.0
 11
164.1660152603674
 21
370.3315706920058
 31
0.0
  0
LINE
  5
619
330
1F
100
AcDbEntity
  8
0
100
AcDbLine
 10
164.1660152603674
 20
370.3315706920058
 30
0.0
 11
164.6497383401757
 21
370.7993824139376
 31
0.0
  0
LINE
  5
61A
330
1F
100
AcDbEntity
  8
0
100
AcDbLine
 10
164.6497383401757
 20
370.7993824139376
 30
0.0
 11
165.1129860784964
 21
371.2779961075287
 31
0.0
  0
LINE
  5
61B
330
1F
100
AcDbEntity
  8
0
100
AcDbLine
 10
165.1129860784964
 20
371.2779961075287
 30
0.0
 11
165.5553013057407
 21
371.7669394388472
 31
0.0
  0
LINE
  5
61C
330
1F
100
AcDbEntity
  8
0
100
AcDbLine
 10
165.5553013057407
 20
371.7669394388472
 30
0.0
 11
165.9762475101805
 21
372.2657298798559
 31
0.0
  0
LINE
  5
61D
330
1F
100
AcDbEntity
  8
0
100
AcDbLine
 10
165.9762475101805
 20
372.2657298798559
 30
0.0
 11
166.3754092687333
 21
372.7738751846094
 31
0.0
  0
LINE
  5
61E
330
1F
100
AcDbEntity
  8
0
100
AcDbLine
 10
166.3754092687333
 20
372.7738751846094
 30
0.0
 11
166.7523926569351
 21
373.2908738750408
 31
0.0
  0
LINE
  5
61F
330
1F
100
AcDbEntity
  8
0
100
AcDbLine
 10
166.7523926569351
 20
373.2908738750408
 30
0.0
 11
167.1068256376954
 21
373.8162157358609
 31
0.0
  0
LINE
  5
620
330
1F
100
AcDbEntity
  8
0
100
AcDbLine
 10
167.1068256376954
 20
373.8162157358609
 30
0.0
 11
167.4383584284532
 21
374.3493823180781
 31
0.0
  0
LINE
  5
621
330
1F
100
AcDbEntity
  8
0
100
AcDbLine
 10
167.4383584284532
 20
374.3493823180781
 30
0.0
 11
167.7466638463708
 21
374.8898474506459
 31
0.0
  0
LINE
  5
622
330
1F
100
AcDbEntity
  8
0
100
AcDbLine
 10
167.7466638463708
 20
374.8898474506459
 30
0.0
 11
168.0314376312226
 21
375.4370777597296
 31
0.0
  0
LINE
  5
623
330
1F
100
AcDbEntity
  8
0
100
AcDbLine
 10
168.0314376312226
 20
375.4370777597296
 30
0.0
 11
168.2923987456642
 21
375.990533195082
 31
0.0
  0
LINE
  5
624
330
1F
100
AcDbEntity
  8
0
100
AcDbLine
 10
168.2923987456642
 20
375.990533195082
 30
0.0
 11
168.529289652582
 21
376.5496675630079
 31
0.0
  0
LINE
  5
625
330
1F
100
AcDbEntity
  8
0
100
AcDbLine
 10
168.529289652582
 20
376.5496675630079
 30
0.0
 11
168.7418765692508
 21
377.1139290653912
 31
0.0
  0
LINE
  5
626
330
1F
100
AcDbEntity
  8
0
100
AcDbLine
 10
168.7418765692508
 20
377.1139290653912
 30
0.0
 11
168.9299496980499
 21
377.6827608442533
 31
0.0
  0
LINE
  5
627
330
1F
100
AcDbEntity
  8
0
100
AcDbLine
 10
168.9299496980499
 20
377.6827608442533
 30
0.0
 11
169.0933234335077
 21
378.2556015313043
 31
0.0
  0
LINE
  5
628
330
1F
100
AcDbEntity
  8
0
100
AcDbLine
 10
169.0933234335077
 20
378.2556015313043
 30
0.0
 11
169.2318365454713
 21
378.831885801946
 31
0.0
  0
LINE
  5
629
330
1F
100
AcDbEntity
  8
0
100
AcDbLine
 10
169.2318365454713
 20
378.831885801946
 30
0.0
 11
169.3453523382223
 21
379.4110449331788
 31
0.0
  0
LINE
  5
62A
330
1F
100
AcDbEntity
  8
0
100
AcDbLine
 10
169.3453523382223
 20
379.4110449331788
 30
0.0
 11
169.4337587853782
 21
379.9925073648631
 31
0.0
  0
LINE
  5
62B
330
1F
100
AcDbEntity
  8
0
100
AcDbLine
 10
169.4337587853782
 20
379.9925073648631
 30
0.0
 11
169.4969686404491
 21
380.5756992637794
 31
0.0
  0
LINE
  5
62C
330
1F
100
AcDbEntity
  8
0
100
AcDbLine
 10
169.4969686404491
 20
380.5756992637794
 30
0.0
 11
169.5349195229393
 21
381.1600450899333
 31
0.0
  0
LINE
  5
62D
330
1F
100
AcDbEntity
  8
0
100
AcDbLine
 10
169.5349195229393
 20
381.1600450899333
 30
0.0
 11
169.5475739799098
 21
381.7449681645432
 31
0.0
  0
LINE
  5
62E
330
1F
100
AcDbEntity
  8
0
100
AcDbLine
 10
169.5475739799098
 20
381.7449681645432
 30
0.0
 11
169.5349195229393
 21
382.3298912391531
 31
0.0
  0
LINE
  5
62F
330
1F
100
AcDbEntity
  8
0
100
AcDbLine
 10
169.5349195229393
 20
382.3298912391531
 30
0.0
 11
169.4969686404491
 21
382.914237065307
 31
0.0
  0
LINE
  5
630
330
1F
100
AcDbEntity
  8
0
100
AcDbLine
 10
169.4969686404491
 20
382.914237065307
 30
0.0
 11
169.4337587853782
 21
383.4974289642233
 31
0.0
  0
LINE
  5
631
330
1F
100
AcDbEntity
  8
0
100
AcDbLine
 10
169.4337587853782
 20
383.4974289642233
 30
0.0
 11
169.3453523382223
 21
384.0788913959075
 31
0.0
  0
LINE
  5
632
330
1F
100
AcDbEntity
  8
0
100
AcDbLine
 10
143.0982216878391
 20
363.1324141371885
 30
0.0
 11
143.9021736276406
 21
363.1232254312648
 31
0.0
  0
LINE
  5
633
330
1F
100
AcDbEntity
  8
0
100
AcDbLine
 10
142.2926801959118
 20
363.1599711868164
 30
0.0
 11
143.0982216878391
 21
363.1324141371885
 31
0.0
  0
LINE
  5
634
330
1F
100
AcDbEntity
  8
0
100
AcDbLine
 10
141.4887282561104
 20
363.2058693846674
 30
0.0
 11
142.2926801959118
 21
363.1599711868164
 31
0.0
  0
LINE
  5
635
330
1F
100
AcDbEntity
  8
0
100
AcDbLine
 10
140.6879526754394
 20
363.2700634347616
 30
0.0
 11
141.4887282561104
 21
363.2058693846674
 31
0.0
  0
LINE
  5
636
330
1F
100
AcDbEntity
  8
0
100
AcDbLine
 10
139.8903491427907
 20
363.3524899853219
 30
0.0
 11
140.6879526754394
 21
363.2700634347616
 31
0.0
  0
LINE
  5
637
330
1F
100
AcDbEntity
  8
0
100
AcDbLine
 10
139.0967047965551
 20
363.4530676912942
 30
0.0
 11
139.8903491427907
 21
363.3524899853219
 31
0.0
  0
LINE
  5
638
330
1F
100
AcDbEntity
  8
0
100
AcDbLine
 10
138.3078028678844
 20
363.5716972946257
 30
0.0
 11
139.0967047965551
 21
363.4530676912942
 31
0.0
  0
LINE
  5
639
330
1F
100
AcDbEntity
  8
0
100
AcDbLine
 10
137.5244219077371
 20
363.7082617222203
 30
0.0
 11
138.3078028678844
 21
363.5716972946257
 31
0.0
  0
LINE
  5
63A
330
1F
100
AcDbEntity
  8
0
100
AcDbLine
 10
136.747335018542
 20
363.8626262014755
 30
0.0
 11
137.5244219077371
 21
363.7082617222203
 31
0.0
  0
LINE
  5
63B
330
1F
100
AcDbEntity
  8
0
100
AcDbLine
 10
135.97730909124
 20
364.0346383932869
 30
0.0
 11
136.747335018542
 21
363.8626262014755
 31
0.0
  0
LINE
  5
63C
330
1F
100
AcDbEntity
  8
0
100
AcDbLine
 10
135.215104048455
 20
364.2241285423885
 30
0.0
 11
135.97730909124
 21
364.0346383932869
 31
0.0
  0
LINE
  5
63D
330
1F
100
AcDbEntity
  8
0
100
AcDbLine
 10
134.4614720945419
 20
364.4309096448806
 30
0.0
 11
135.215104048455
 21
364.2241285423885
 31
0.0
  0
LINE
  5
63E
330
1F
100
AcDbEntity
  8
0
100
AcDbLine
 10
133.7171569732523
 20
364.6547776327799
 30
0.0
 11
134.4614720945419
 21
364.4309096448806
 31
0.0
  0
LINE
  5
63F
330
1F
100
AcDbEntity
  8
0
100
AcDbLine
 10
132.9828932337486
 20
364.8955115754104
 30
0.0
 11
133.7171569732523
 21
364.6547776327799
 31
0.0
  0
LINE
  5
640
330
1F
100
AcDbEntity
  8
0
100
AcDbLine
 10
132.259405505693
 20
365.1528738974348
 30
0.0
 11
132.9828932337486
 21
364.8955115754104
 31
0.0
  0
LINE
  5
641
330
1F
100
AcDbEntity
  8
0
100
AcDbLine
 10
131.5474077841253
 20
365.4266106133131
 30
0.0
 11
132.259405505693
 21
365.1528738974348
 31
0.0
  0
LINE
  5
642
330
1F
100
AcDbEntity
  8
0
100
AcDbLine
 10
130.8476027248363
 20
365.7164515779552
 30
0.0
 11
131.5474077841253
 21
365.4266106133131
 31
0.0
  0
LINE
  5
643
330
1F
100
AcDbEntity
  8
0
100
AcDbLine
 10
130.1606809509309
 20
366.022110753322
 30
0.0
 11
130.8476027248363
 21
365.7164515779552
 31
0.0
  0
LINE
  5
644
330
1F
100
AcDbEntity
  8
0
100
AcDbLine
 10
129.4873203712668
 20
366.3432864907102
 30
0.0
 11
130.1606809509309
 21
366.022110753322
 31
0.0
  0
LINE
  5
645
330
1F
100
AcDbEntity
  8
0
100
AcDbLine
 10
128.8281855114405
 20
366.6796618284428
 30
0.0
 11
129.4873203712668
 21
366.3432864907102
 31
0.0
  0
LINE
  5
646
330
1F
100
AcDbEntity
  8
0
100
AcDbLine
 10
128.1839268579802
 20
367.0309048046727
 30
0.0
 11
128.8281855114405
 21
366.6796618284428
 31
0.0
  0
LINE
  5
647
330
1F
100
AcDbEntity
  8
0
100
AcDbLine
 10
127.5551802163946
 20
367.3966687849884
 30
0.0
 11
128.1839268579802
 21
367.0309048046727
 31
0.0
  0
LINE
  5
648
330
1F
100
AcDbEntity
  8
0
100
AcDbLine
 10
126.9425660837095
 20
367.7765928045005
 30
0.0
 11
127.5551802163946
 21
367.3966687849884
 31
0.0
  0
LINE
  5
649
330
1F
100
AcDbEntity
  8
0
100
AcDbLine
 10
126.3466890361121
 20
368.1703019240706
 30
0.0
 11
126.9425660837095
 21
367.7765928045005
 31
0.0
  0
LINE
  5
64A
330
1F
100
AcDbEntity
  8
0
100
AcDbLine
 10
125.7681371323071
 20
368.5774076003307
 30
0.0
 11
126.3466890361121
 21
368.1703019240706
 31
0.0
  0
LINE
  5
64B
330
1F
100
AcDbEntity
  8
0
100
AcDbLine
 10
125.2074813331742
 20
368.9975080691289
 30
0.0
 11
125.7681371323071
 21
368.5774076003307
 31
0.0
  0
LINE
  5
64C
330
1F
100
AcDbEntity
  8
0
100
AcDbLine
 10
124.6652749382985
 20
369.4301887420217
 30
0.0
 11
125.2074813331742
 21
368.9975080691289
 31
0.0
  0
LINE
  5
64D
330
1F
100
AcDbEntity
  8
0
100
AcDbLine
 10
124.1420530399302
 20
369.8750226154232
 30
0.0
 11
124.6652749382985
 21
369.4301887420217
 31
0.0
  0
LINE
  5
64E
330
1F
100
AcDbEntity
  8
0
100
AcDbLine
 10
123.6383319949137
 20
370.3315706920058
 30
0.0
 11
124.1420530399302
 21
369.8750226154232
 31
0.0
  0
LINE
  5
64F
330
1F
100
AcDbEntity
  8
0
100
AcDbLine
 10
123.1546089151055
 20
370.7993824139376
 30
0.0
 11
123.6383319949137
 21
370.3315706920058
 31
0.0
  0
LINE
  5
650
330
1F
100
AcDbEntity
  8
0
100
AcDbLine
 10
122.6913611767847
 20
371.2779961075287
 30
0.0
 11
123.1546089151055
 21
370.7993824139376
 31
0.0
  0
LINE
  5
651
330
1F
100
AcDbEntity
  8
0
100
AcDbLine
 10
122.2490459495404
 20
371.7669394388472
 30
0.0
 11
122.6913611767847
 21
371.2779961075287
 31
0.0
  0
LINE
  5
652
330
1F
100
AcDbEntity
  8
0
100
AcDbLine
 10
121.8280997451007
 20
372.2657298798559
 30
0.0
 11
122.2490459495404
 21
371.7669394388472
 31
0.0
  0
LINE
  5
653
330
1F
100
AcDbEntity
  8
0
100
AcDbLine
 10
121.4289379865478
 20
372.7738751846094
 30
0.0
 11
121.8280997451007
 21
372.2657298798559
 31
0.0
  0
LINE
  5
654
330
1F
100
AcDbEntity
  8
0
100
AcDbLine
 10
121.051954598346
 20
373.2908738750408
 30
0.0
 11
121.4289379865478
 21
372.7738751846094
 31
0.0
  0
LINE
  5
655
330
1F
100
AcDbEntity
  8
0
100
AcDbLine
 10
120.6975216175858
 20
373.8162157358609
 30
0.0
 11
121.051954598346
 21
373.2908738750408
 31
0.0
  0
LINE
  5
656
330
1F
100
AcDbEntity
  8
0
100
AcDbLine
 10
120.3659888268279
 20
374.3493823180781
 30
0.0
 11
120.6975216175858
 21
373.8162157358609
 31
0.0
  0
LINE
  5
657
330
1F
100
AcDbEntity
  8
0
100
AcDbLine
 10
120.0576834089104
 20
374.8898474506459
 30
0.0
 11
120.3659888268279
 21
374.3493823180781
 31
0.0
  0
LINE
  5
658
330
1F
100
AcDbEntity
  8
0
100
AcDbLine
 10
119.7729096240585
 20
375.4370777597296
 30
0.0
 11
120.0576834089104
 21
374.8898474506459
 31
0.0
  0
LINE
  5
659
330
1F
100
AcDbEntity
  8
0
100
AcDbLine
 10
119.5119485096169
 20
375.990533195082
 30
0.0
 11
119.7729096240585
 21
375.4370777597296
 31
0.0
  0
LINE
  5
65A
330
1F
100
AcDbEntity
  8
0
100
AcDbLine
 10
119.2750576026992
 20
376.5496675630079
 30
0.0
 11
119.5119485096169
 21
375.990533195082
 31
0.0
  0
LINE
  5
65B
330
1F
100
AcDbEntity
  8
0
100
AcDbLine
 10
119.0624706860304
 20
377.1139290653912
 30
0.0
 11
119.2750576026992
 21
376.5496675630079
 31
0.0
  0
LINE
  5
65C
330
1F
100
AcDbEntity
  8
0
100
AcDbLine
 10
118.8743975572312
 20
377.6827608442533
 30
0.0
 11
119.0624706860304
 21
377.1139290653912
 31
0.0
  0
LINE
  5
65D
330
1F
100
AcDbEntity
  8
0
100
AcDbLine
 10
118.7110238217735
 20
378.2556015313043
 30
0.0
 11
118.8743975572312
 21
377.6827608442533
 31
0.0
  0
LINE
  5
65E
330
1F
100
AcDbEntity
  8
0
100
AcDbLine
 10
118.5725107098098
 20
378.831885801946
 30
0.0
 11
118.7110238217735
 21
378.2556015313043
 31
0.0
  0
LINE
  5
65F
330
1F
100
AcDbEntity
  8
0
100
AcDbLine
 10
118.4589949170588
 20
379.4110449331788
 30
0.0
 11
118.5725107098098
 21
378.831885801946
 31
0.0
  0
LINE
  5
660
330
1F
100
AcDbEntity
  8
0
100
AcDbLine
 10
118.370588469903
 20
379.9925073648631
 30
0.0
 11
118.4589949170588
 21
379.4110449331788
 31
0.0
  0
LINE
  5
661
330
1F
100
AcDbEntity
  8
0
100
AcDbLine
 10
118.3073786148321
 20
380.5756992637794
 30
0.0
 11
118.370588469903
 21
379.9925073648631
 31
0.0
  0
LINE
  5
662
330
1F
100
AcDbEntity
  8
0
100
AcDbLine
 10
16.94282849034027
 20
706.1027314025003
 30
0.0
 11
15.1423422748397
 21
676.7695174364311
 31
0.0
  0
LINE
  5
663
330
1F
100
AcDbEntity
  8
0
100
AcDbLine
 10
15.1423422748397
 20
676.7695174364311
 30
0.0
 11
13.50193320965985
 21
647.4330830043541
 31
0.0
  0
LINE
  5
664
330
1F
100
AcDbEntity
  8
0
100
AcDbLine
 10
13.50193320965985
 20
647.4330830043541
 30
0.0
 11
12.02162599749781
 21
618.0938698796201
 31
0.0
  0
LINE
  5
665
330
1F
100
AcDbEntity
  8
0
100
AcDbLine
 10
12.02162599749781
 20
618.0938698796201
 30
0.0
 11
10.70144293009917
 21
588.752319877423
 31
0.0
  0
LINE
  5
666
330
1F
100
AcDbEntity
  8
0
100
AcDbLine
 10
10.70144293009917
 20
588.752319877423
 30
0.0
 11
9.541403887913759
 21
559.4088748481483
 31
0.0
  0
LINE
  5
667
330
1F
100
AcDbEntity
  8
0
100
AcDbLine
 10
8.5415263398163
 20
530.0639766707177
 30
0.0
 11
7.701825342822871
 21
500.7180672459361
 31
0.0
  0
LINE
  5
668
330
1F
100
AcDbEntity
  8
0
100
AcDbLine
 10
7.701825342822871
 20
500.7180672459361
 30
0.0
 11
7.022313541877565
 21
471.3715884898366
 31
0.0
  0
LINE
  5
669
330
1F
100
AcDbEntity
  8
0
100
AcDbLine
 10
7.022313541877565
 20
471.3715884898366
 30
0.0
 11
6.503001169655505
 21
442.0249823270256
 31
0.0
  0
LINE
  5
66A
330
1F
100
AcDbEntity
  8
0
100
AcDbLine
 10
6.503001169655505
 20
442.0249823270256
 30
0.0
 11
6.143896046409821
 21
412.6786906840282
 31
0.0
  0
LINE
  5
66B
330
1F
100
AcDbEntity
  8
0
100
AcDbLine
 10
57.68268429626886
 20
706.1027314025003
 30
0.0
 11
58.37722057926413
 21
676.7695174364311
 31
0.0
  0
LINE
  5
66C
330
1F
100
AcDbEntity
  8
0
100
AcDbLine
 10
58.37722057926413
 20
676.7695174364311
 30
0.0
 11
58.91155829073366
 21
647.4330830043541
 31
0.0
  0
LINE
  5
66D
330
1F
100
AcDbEntity
  8
0
100
AcDbLine
 10
58.91155829073366
 20
647.4330830043541
 30
0.0
 11
59.28568938415918
 21
618.0938698796201
 31
0.0
  0
LINE
  5
66E
330
1F
100
AcDbEntity
  8
0
100
AcDbLine
 10
59.28568938415918
 20
618.0938698796201
 30
0.0
 11
59.4996082255478
 21
588.752319877423
 31
0.0
  0
LINE
  5
66F
330
1F
100
AcDbEntity
  8
0
100
AcDbLine
 10
59.4996082255478
 20
588.752319877423
 30
0.0
 11
59.55331159353312
 21
559.4088748481483
 31
0.0
  0
LINE
  5
670
330
1F
100
AcDbEntity
  8
0
100
AcDbLine
 10
59.44679867939709
 20
530.0639766707177
 30
0.0
 11
59.18007108710617
 21
500.7180672459361
 31
0.0
  0
LINE
  5
671
330
1F
100
AcDbEntity
  8
0
100
AcDbLine
 10
59.18007108710617
 20
500.7180672459361
 30
0.0
 11
58.75313283327329
 21
471.3715884898366
 31
0.0
  0
LINE
  5
672
330
1F
100
AcDbEntity
  8
0
100
AcDbLine
 10
58.75313283327329
 20
471.3715884898366
 30
0.0
 11
58.1659903471024
 21
442.0249823270256
 31
0.0
  0
LINE
  5
673
330
1F
100
AcDbEntity
  8
0
100
AcDbLine
 10
58.1659903471024
 20
442.0249823270256
 30
0.0
 11
57.41865247029318
 21
412.6786906840282
 31
0.0
  0
LINE
  5
674
330
1F
100
AcDbEntity
  8
0
100
AcDbLine
 10
30.29727888870164
 20
363.1324141371885
 30
0.0
 11
31.09867734257074
 21
363.1232254312647
 31
0.0
  0
LINE
  5
675
330
1F
100
AcDbEntity
  8
0
100
AcDbLine
 10
29.49281948384311
 20
363.1599711868163
 30
0.0
 11
30.29727888870164
 21
363.1324141371885
 31
0.0
  0
LINE
  5
676
330
1F
100
AcDbEntity
  8
0
100
AcDbLine
 10
28.69187173486134
 20
363.2058693846673
 30
0.0
 11
29.49281948384311
 21
363.1599711868163
 31
0.0
  0
LINE
  5
677
330
1F
100
AcDbEntity
  8
0
100
AcDbLine
 10
27.89329921243723
 20
363.2700634347616
 30
0.0
 11
28.69187173486134
 21
363.2058693846673
 31
0.0
  0
LINE
  5
678
330
1F
100
AcDbEntity
  8
0
100
AcDbLine
 10
27.09789001123758
 20
363.3524899853218
 30
0.0
 11
27.89329921243723
 21
363.2700634347616
 31
0.0
  0
LINE
  5
679
330
1F
100
AcDbEntity
  8
0
100
AcDbLine
 10
26.30642910411305
 20
363.4530676912941
 30
0.0
 11
27.09789001123758
 21
363.3524899853218
 31
0.0
  0
LINE
  5
67A
330
1F
100
AcDbEntity
  8
0
100
AcDbLine
 10
25.51969756742475
 20
363.5716972946256
 30
0.0
 11
26.30642910411305
 21
363.4530676912941
 31
0.0
  0
LINE
  5
67B
330
1F
100
AcDbEntity
  8
0
100
AcDbLine
 10
24.73847181021608
 20
363.7082617222202
 30
0.0
 11
25.51969756742475
 21
363.5716972946256
 31
0.0
  0
LINE
  5
67C
330
1F
100
AcDbEntity
  8
0
100
AcDbLine
 10
23.96352280799098
 20
363.8626262014753
 30
0.0
 11
24.73847181021608
 21
363.7082617222202
 31
0.0
  0
LINE
  5
67D
330
1F
100
AcDbEntity
  8
0
100
AcDbLine
 10
23.19561534185382
 20
364.0346383932867
 30
0.0
 11
23.96352280799098
 21
363.8626262014753
 31
0.0
  0
LINE
  5
67E
330
1F
100
AcDbEntity
  8
0
100
AcDbLine
 10
22.43550724376317
 20
364.2241285423884
 30
0.0
 11
23.19561534185382
 21
364.0346383932867
 31
0.0
  0
LINE
  5
67F
330
1F
100
AcDbEntity
  8
0
100
AcDbLine
 10
21.68394864864283
 20
364.4309096448804
 30
0.0
 11
22.43550724376317
 21
364.2241285423884
 31
0.0
  0
LINE
  5
680
330
1F
100
AcDbEntity
  8
0
100
AcDbLine
 10
20.94168125408939
 20
364.6547776327798
 30
0.0
 11
21.68394864864283
 21
364.4309096448804
 31
0.0
  0
LINE
  5
681
330
1F
100
AcDbEntity
  8
0
100
AcDbLine
 10
20.20943758840633
 20
364.8955115754103
 30
0.0
 11
20.94168125408939
 21
364.6547776327798
 31
0.0
  0
LINE
  5
682
330
1F
100
AcDbEntity
  8
0
100
AcDbLine
 10
19.48794028768674
 20
365.1528738974347
 30
0.0
 11
20.20943758840633
 21
364.8955115754103
 31
0.0
  0
LINE
  5
683
330
1F
100
AcDbEntity
  8
0
100
AcDbLine
 10
18.77790138265908
 20
365.426610613313
 30
0.0
 11
19.48794028768674
 21
365.1528738974347
 31
0.0
  0
LINE
  5
684
330
1F
100
AcDbEntity
  8
0
100
AcDbLine
 10
18.08002159599854
 20
365.7164515779551
 30
0.0
 11
18.77790138265908
 21
365.426610613313
 31
0.0
  0
LINE
  5
685
330
1F
100
AcDbEntity
  8
0
100
AcDbLine
 10
17.39498965079849
 20
366.0221107533219
 30
0.0
 11
18.08002159599854
 21
365.7164515779551
 31
0.0
  0
LINE
  5
686
330
1F
100
AcDbEntity
  8
0
100
AcDbLine
 10
16.72348159088398
 20
366.3432864907101
 30
0.0
 11
17.39498965079849
 21
366.0221107533219
 31
0.0
  0
LINE
  5
687
330
1F
100
AcDbEntity
  8
0
100
AcDbLine
 10
16.06616011363795
 20
366.6796618284427
 30
0.0
 11
16.72348159088398
 21
366.3432864907101
 31
0.0
  0
LINE
  5
688
330
1F
100
AcDbEntity
  8
0
100
AcDbLine
 10
15.42367391599907
 20
367.0309048046726
 30
0.0
 11
16.06616011363795
 21
366.6796618284427
 31
0.0
  0
LINE
  5
689
330
1F
100
AcDbEntity
  8
0
100
AcDbLine
 10
14.79665705427615
 20
367.3966687849883
 30
0.0
 11
15.42367391599907
 21
367.0309048046726
 31
0.0
  0
LINE
  5
68A
330
1F
100
AcDbEntity
  8
0
100
AcDbLine
 10
14.18572831841101
 20
367.7765928045004
 30
0.0
 11
14.79665705427615
 21
367.3966687849883
 31
0.0
  0
LINE
  5
68B
330
1F
100
AcDbEntity
  8
0
100
AcDbLine
 10
13.59149062130763
 20
368.1703019240705
 30
0.0
 11
14.18572831841101
 21
367.7765928045004
 31
0.0
  0
LINE
  5
68C
330
1F
100
AcDbEntity
  8
0
100
AcDbLine
 10
13.01453040382984
 20
368.5774076003306
 30
0.0
 11
13.59149062130763
 21
368.1703019240705
 31
0.0
  0
LINE
  5
68D
330
1F
100
AcDbEntity
  8
0
100
AcDbLine
 10
12.4554170560551
 20
368.9975080691288
 30
0.0
 11
13.01453040382984
 21
368.5774076003306
 31
0.0
  0
LINE
  5
68E
330
1F
100
AcDbEntity
  8
0
100
AcDbLine
 10
11.91470235535504
 20
369.4301887420216
 30
0.0
 11
12.4554170560551
 21
368.9975080691288
 31
0.0
  0
LINE
  5
68F
330
1F
100
AcDbEntity
  8
0
100
AcDbLine
 10
11.39291992185801
 20
369.8750226154231
 30
0.0
 11
11.91470235535504
 21
369.4301887420216
 31
0.0
  0
LINE
  5
690
330
1F
100
AcDbEntity
  8
0
100
AcDbLine
 10
10.8905846918303
 20
370.3315706920057
 30
0.0
 11
11.39291992185801
 21
369.8750226154231
 31
0.0
  0
LINE
  5
691
330
1F
100
AcDbEntity
  8
0
100
AcDbLine
 10
10.40819240949628
 20
370.7993824139375
 30
0.0
 11
10.8905846918303
 21
370.3315706920057
 31
0.0
  0
LINE
  5
692
330
1F
100
AcDbEntity
  8
0
100
AcDbLine
 10
9.946219137798664
 20
371.2779961075286
 30
0.0
 11
10.40819240949628
 21
370.7993824139375
 31
0.0
  0
LINE
  5
693
330
1F
100
AcDbEntity
  8
0
100
AcDbLine
 10
9.505120788581933
 20
371.7669394388471
 30
0.0
 11
9.946219137798664
 21
371.2779961075286
 31
0.0
  0
LINE
  5
694
330
1F
100
AcDbEntity
  8
0
100
AcDbLine
 10
9.085332672662332
 20
372.2657298798558
 30
0.0
 11
9.505120788581933
 21
371.7669394388471
 31
0.0
  0
LINE
  5
695
330
1F
100
AcDbEntity
  8
0
100
AcDbLine
 10
8.687269070228609
 20
372.7738751846093
 30
0.0
 11
9.085332672662332
 21
372.2657298798558
 31
0.0
  0
LINE
  5
696
330
1F
100
AcDbEntity
  8
0
100
AcDbLine
 10
8.311322821997578
 20
373.2908738750408
 30
0.0
 11
8.687269070228609
 21
372.7738751846093
 31
0.0
  0
LINE
  5
697
330
1F
100
AcDbEntity
  8
0
100
AcDbLine
 10
7.957864941527702
 20
373.8162157358607
 30
0.0
 11
8.311322821997578
 21
373.2908738750408
 31
0.0
  0
LINE
  5
698
330
1F
100
AcDbEntity
  8
0
100
AcDbLine
 10
7.627244249073527
 20
374.349382318078
 30
0.0
 11
7.957864941527702
 21
373.8162157358607
 31
0.0
  0
LINE
  5
699
330
1F
100
AcDbEntity
  8
0
100
AcDbLine
 10
7.319787027342158
 20
374.8898474506458
 30
0.0
 11
7.627244249073527
 21
374.349382318078
 31
0.0
  0
LINE
  5
69A
330
1F
100
AcDbEntity
  8
0
100
AcDbLine
 10
7.035796699491697
 20
375.4370777597295
 30
0.0
 11
7.319787027342158
 21
374.8898474506458
 31
0.0
  0
LINE
  5
69B
330
1F
100
AcDbEntity
  8
0
100
AcDbLine
 10
6.775553529689176
 20
375.9905331950819
 30
0.0
 11
7.035796699491697
 21
375.4370777597295
 31
0.0
  0
LINE
  5
69C
330
1F
100
AcDbEntity
  8
0
100
AcDbLine
 10
6.539314346523639
 20
376.5496675630078
 30
0.0
 11
6.775553529689176
 21
375.9905331950819
 31
0.0
  0
LINE
  5
69D
330
1F
100
AcDbEntity
  8
0
100
AcDbLine
 10
6.327312289547364
 20
377.1139290653911
 30
0.0
 11
6.539314346523639
 21
376.5496675630078
 31
0.0
  0
LINE
  5
69E
330
1F
100
AcDbEntity
  8
0
100
AcDbLine
 10
6.139756579195307
 20
377.6827608442533
 30
0.0
 11
6.327312289547364
 21
377.1139290653911
 31
0.0
  0
LINE
  5
69F
330
1F
100
AcDbEntity
  8
0
100
AcDbLine
 10
5.976832310309674
 20
378.2556015313042
 30
0.0
 11
6.139756579195307
 21
377.6827608442533
 31
0.0
  0
LINE
  5
6A0
330
1F
100
AcDbEntity
  8
0
100
AcDbLine
 10
5.838700269473747
 20
378.8318858019459
 30
0.0
 11
5.976832310309674
 21
378.2556015313042
 31
0.0
  0
LINE
  5
6A1
330
1F
100
AcDbEntity
  8
0
100
AcDbLine
 10
5.725496776334978
 20
379.4110449331787
 30
0.0
 11
5.838700269473747
 21
378.8318858019459
 31
0.0
  0
LINE
  5
6A2
330
1F
100
AcDbEntity
  8
0
100
AcDbLine
 10
5.637333549073929
 20
379.9925073648629
 30
0.0
 11
5.725496776334978
 21
379.4110449331787
 31
0.0
  0
LINE
  5
6A3
330
1F
100
AcDbEntity
  8
0
100
AcDbLine
 10
5.574297594151715
 20
380.5756992637793
 30
0.0
 11
5.637333549073929
 21
379.9925073648629
 31
0.0
  0
LINE
  5
6A4
330
1F
100
AcDbEntity
  8
0
100
AcDbLine
 10
5.536451120445519
 20
381.1600450899332
 30
0.0
 11
5.574297594151715
 21
380.5756992637793
 31
0.0
  0
LINE
  5
6A5
330
1F
100
AcDbEntity
  8
0
100
AcDbLine
 10
5.523831477855537
 20
381.7449681645431
 30
0.0
 11
5.536451120445519
 21
381.1600450899332
 31
0.0
  0
LINE
  5
6A6
330
1F
100
AcDbEntity
  8
0
100
AcDbLine
 10
5.536451120445519
 20
382.329891239153
 30
0.0
 11
5.523831477855537
 21
381.7449681645431
 31
0.0
  0
LINE
  5
6A7
330
1F
100
AcDbEntity
  8
0
100
AcDbLine
 10
5.574297594151715
 20
382.9142370653069
 30
0.0
 11
5.536451120445519
 21
382.329891239153
 31
0.0
  0
LINE
  5
6A8
330
1F
100
AcDbEntity
  8
0
100
AcDbLine
 10
5.637333549073929
 20
383.4974289642232
 30
0.0
 11
5.574297594151715
 21
382.9142370653069
 31
0.0
  0
LINE
  5
6A9
330
1F
100
AcDbEntity
  8
0
100
AcDbLine
 10
5.725496776335006
 20
384.0788913959075
 30
0.0
 11
5.637333549073929
 21
383.4974289642232
 31
0.0
  0
LINE
  5
6AA
330
1F
100
AcDbEntity
  8
0
100
AcDbLine
 10
5.838700269473747
 20
384.6580505271403
 30
0.0
 11
5.725496776335006
 21
384.0788913959075
 31
0.0
  0
LINE
  5
6AB
330
1F
100
AcDbEntity
  8
0
100
AcDbLine
 10
31.90007579643989
 20
363.1324141371885
 30
0.0
 11
31.09867734257074
 21
363.1232254312647
 31
0.0
  0
LINE
  5
6AC
330
1F
100
AcDbEntity
  8
0
100
AcDbLine
 10
32.70453520129846
 20
363.1599711868163
 30
0.0
 11
31.90007579643989
 21
363.1324141371885
 31
0.0
  0
LINE
  5
6AD
330
1F
100
AcDbEntity
  8
0
100
AcDbLine
 10
33.5054829502802
 20
363.2058693846673
 30
0.0
 11
32.70453520129846
 21
363.1599711868163
 31
0.0
  0
LINE
  5
6AE
330
1F
100
AcDbEntity
  8
0
100
AcDbLine
 10
34.30405547270431
 20
363.2700634347616
 30
0.0
 11
33.5054829502802
 21
363.2058693846673
 31
0.0
  0
LINE
  5
6AF
330
1F
100
AcDbEntity
  8
0
100
AcDbLine
 10
35.09946467390395
 20
363.3524899853218
 30
0.0
 11
34.30405547270431
 21
363.2700634347616
 31
0.0
  0
LINE
  5
6B0
330
1F
100
AcDbEntity
  8
0
100
AcDbLine
 10
35.89092558102848
 20
363.4530676912941
 30
0.0
 11
35.09946467390395
 21
363.3524899853218
 31
0.0
  0
LINE
  5
6B1
330
1F
100
AcDbEntity
  8
0
100
AcDbLine
 10
36.67765711771679
 20
363.5716972946256
 30
0.0
 11
35.89092558102848
 21
363.4530676912941
 31
0.0
  0
LINE
  5
6B2
330
1F
100
AcDbEntity
  8
0
100
AcDbLine
 10
37.45888287492542
 20
363.7082617222202
 30
0.0
 11
36.67765711771679
 21
363.5716972946256
 31
0.0
  0
LINE
  5
6B3
330
1F
100
AcDbEntity
  8
0
100
AcDbLine
 10
38.23383187715055
 20
363.8626262014753
 30
0.0
 11
37.45888287492542
 21
363.7082617222202
 31
0.0
  0
LINE
  5
6B4
330
1F
100
AcDbEntity
  8
0
100
AcDbLine
 10
39.00173934328768
 20
364.0346383932867
 30
0.0
 11
38.23383187715055
 21
363.8626262014753
 31
0.0
  0
LINE
  5
6B5
330
1F
100
AcDbEntity
  8
0
100
AcDbLine
 10
39.76184744137837
 20
364.2241285423884
 30
0.0
 11
39.00173934328768
 21
364.0346383932867
 31
0.0
  0
LINE
  5
6B6
330
1F
100
AcDbEntity
  8
0
100
AcDbLine
 10
40.51340603649871
 20
364.4309096448804
 30
0.0
 11
39.76184744137837
 21
364.2241285423884
 31
0.0
  0
LINE
  5
6B7
330
1F
100
AcDbEntity
  8
0
100
AcDbLine
 10
41.25567343105212
 20
364.6547776327798
 30
0.0
 11
40.51340603649871
 21
364.4309096448804
 31
0.0
  0
LINE
  5
6B8
330
1F
100
AcDbEntity
  8
0
100
AcDbLine
 10
41.9879170967352
 20
364.8955115754103
 30
0.0
 11
41.25567343105212
 21
364.6547776327798
 31
0.0
  0
LINE
  5
6B9
330
1F
100
AcDbEntity
  8
0
100
AcDbLine
 10
42.70941439745477
 20
365.1528738974347
 30
0.0
 11
41.9879170967352
 21
364.8955115754103
 31
0.0
  0
LINE
  5
6BA
330
1F
100
AcDbEntity
  8
0
100
AcDbLine
 10
43.41945330248242
 20
365.426610613313
 30
0.0
 11
42.70941439745477
 21
365.1528738974347
 31
0.0
  0
LINE
  5
6BB
330
1F
100
AcDbEntity
  8
0
100
AcDbLine
 10
44.11733308914295
 20
365.7164515779551
 30
0.0
 11
43.41945330248242
 21
365.426610613313
 31
0.0
  0
LINE
  5
6BC
330
1F
100
AcDbEntity
  8
0
100
AcDbLine
 10
44.80236503434304
 20
366.0221107533219
 30
0.0
 11
44.11733308914295
 21
365.7164515779551
 31
0.0
  0
LINE
  5
6BD
330
1F
100
AcDbEntity
  8
0
100
AcDbLine
 10
45.47387309425753
 20
366.3432864907101
 30
0.0
 11
44.80236503434304
 21
366.0221107533219
 31
0.0
  0
LINE
  5
6BE
330
1F
100
AcDbEntity
  8
0
100
AcDbLine
 10
46.13119457150353
 20
366.6796618284427
 30
0.0
 11
45.47387309425753
 21
366.3432864907101
 31
0.0
  0
LINE
  5
6BF
330
1F
100
AcDbEntity
  8
0
100
AcDbLine
 10
46.7736807691424
 20
367.0309048046726
 30
0.0
 11
46.13119457150353
 21
366.6796618284427
 31
0.0
  0
LINE
  5
6C0
330
1F
100
AcDbEntity
  8
0
100
AcDbLine
 10
47.40069763086535
 20
367.3966687849883
 30
0.0
 11
46.7736807691424
 21
367.0309048046726
 31
0.0
  0
LINE
  5
6C1
330
1F
100
AcDbEntity
  8
0
100
AcDbLine
 10
48.01162636673049
 20
367.7765928045004
 30
0.0
 11
47.40069763086535
 21
367.3966687849883
 31
0.0
  0
LINE
  5
6C2
330
1F
100
AcDbEntity
  8
0
100
AcDbLine
 10
48.60586406383387
 20
368.1703019240705
 30
0.0
 11
48.01162636673049
 21
367.7765928045004
 31
0.0
  0
LINE
  5
6C3
330
1F
100
AcDbEntity
  8
0
100
AcDbLine
 10
49.18282428131163
 20
368.5774076003306
 30
0.0
 11
48.60586406383387
 21
368.1703019240705
 31
0.0
  0
LINE
  5
6C4
330
1F
100
AcDbEntity
  8
0
100
AcDbLine
 10
49.7419376290864
 20
368.9975080691288
 30
0.0
 11
49.18282428131163
 21
368.5774076003306
 31
0.0
  0
LINE
  5
6C5
330
1F
100
AcDbEntity
  8
0
100
AcDbLine
 10
50.28265232978643
 20
369.4301887420216
 30
0.0
 11
49.7419376290864
 21
368.9975080691288
 31
0.0
  0
LINE
  5
6C6
330
1F
100
AcDbEntity
  8
0
100
AcDbLine
 10
50.80443476328349
 20
369.8750226154231
 30
0.0
 11
50.28265232978643
 21
369.4301887420216
 31
0.0
  0
LINE
  5
6C7
330
1F
100
AcDbEntity
  8
0
100
AcDbLine
 10
51.30676999331118
 20
370.3315706920057
 30
0.0
 11
50.80443476328349
 21
369.8750226154231
 31
0.0
  0
LINE
  5
6C8
330
1F
100
AcDbEntity
  8
0
100
AcDbLine
 10
51.78916227564522
 20
370.7993824139375
 30
0.0
 11
51.30676999331118
 21
370.3315706920057
 31
0.0
  0
LINE
  5
6C9
330
1F
100
AcDbEntity
  8
0
100
AcDbLine
 10
52.25113554734281
 20
371.2779961075286
 30
0.0
 11
51.78916227564522
 21
370.7993824139375
 31
0.0
  0
LINE
  5
6CA
330
1F
100
AcDbEntity
  8
0
100
AcDbLine
 10
52.69223389655952
 20
371.7669394388471
 30
0.0
 11
52.25113554734281
 21
371.2779961075286
 31
0.0
  0
LINE
  5
6CB
330
1F
100
AcDbEntity
  8
0
100
AcDbLine
 10
53.11202201247914
 20
372.2657298798558
 30
0.0
 11
52.69223389655952
 21
371.7669394388471
 31
0.0
  0
LINE
  5
6CC
330
1F
100
AcDbEntity
  8
0
100
AcDbLine
 10
53.51008561491287
 20
372.7738751846093
 30
0.0
 11
53.11202201247914
 21
372.2657298798558
 31
0.0
  0
LINE
  5
6CD
330
1F
100
AcDbEntity
  8
0
100
AcDbLine
 10
53.8860318631439
 20
373.2908738750408
 30
0.0
 11
53.51008561491287
 21
372.7738751846093
 31
0.0
  0
LINE
  5
6CE
330
1F
100
AcDbEntity
  8
0
100
AcDbLine
 10
54.23948974361377
 20
373.8162157358607
 30
0.0
 11
53.8860318631439
 21
373.2908738750408
 31
0.0
  0
LINE
  5
6CF
330
1F
100
AcDbEntity
  8
0
100
AcDbLine
 10
54.57011043606797
 20
374.349382318078
 30
0.0
 11
54.23948974361377
 21
373.8162157358607
 31
0.0
  0
LINE
  5
6D0
330
1F
100
AcDbEntity
  8
0
100
AcDbLine
 10
54.87756765779931
 20
374.8898474506458
 30
0.0
 11
54.57011043606797
 21
374.349382318078
 31
0.0
  0
LINE
  5
6D1
330
1F
100
AcDbEntity
  8
0
100
AcDbLine
 10
55.16155798564978
 20
375.4370777597295
 30
0.0
 11
54.87756765779931
 21
374.8898474506458
 31
0.0
  0
LINE
  5
6D2
330
1F
100
AcDbEntity
  8
0
100
AcDbLine
 10
55.42180115545227
 20
375.9905331950819
 30
0.0
 11
55.16155798564978
 21
375.4370777597295
 31
0.0
  0
LINE
  5
6D3
330
1F
100
AcDbEntity
  8
0
100
AcDbLine
 10
55.6580403386178
 20
376.5496675630078
 30
0.0
 11
55.42180115545227
 21
375.9905331950819
 31
0.0
  0
LINE
  5
6D4
330
1F
100
AcDbEntity
  8
0
100
AcDbLine
 10
55.87004239559409
 20
377.1139290653911
 30
0.0
 11
55.6580403386178
 21
376.5496675630078
 31
0.0
  0
LINE
  5
6D5
330
1F
100
AcDbEntity
  8
0
100
AcDbLine
 10
56.05759810594617
 20
377.6827608442533
 30
0.0
 11
55.87004239559409
 21
377.1139290653911
 31
0.0
  0
LINE
  5
6D6
330
1F
100
AcDbEntity
  8
0
100
AcDbLine
 10
56.22052237483178
 20
378.2556015313042
 30
0.0
 11
56.05759810594617
 21
377.6827608442533
 31
0.0
  0
LINE
  5
6D7
330
1F
100
AcDbEntity
  8
0
100
AcDbLine
 10
56.35865441566773
 20
378.8318858019459
 30
0.0
 11
56.22052237483178
 21
378.2556015313042
 31
0.0
  0
LINE
  5
6D8
330
1F
100
AcDbEntity
  8
0
100
AcDbLine
 10
56.4718579088065
 20
379.4110449331787
 30
0.0
 11
56.35865441566773
 21
378.8318858019459
 31
0.0
  0
LINE
  5
6D9
330
1F
100
AcDbEntity
  8
0
100
AcDbLine
 10
56.56002113606752
 20
379.9925073648629
 30
0.0
 11
56.4718579088065
 21
379.4110449331787
 31
0.0
  0
LINE
  5
6DA
330
1F
100
AcDbEntity
  8
0
100
AcDbLine
 10
56.62305709098976
 20
380.5756992637793
 30
0.0
 11
56.56002113606752
 21
379.9925073648629
 31
0.0
  0
LINE
  5
6DB
330
1F
100
AcDbEntity
  8
0
100
AcDbLine
 10
56.66090356469599
 20
381.1600450899332
 30
0.0
 11
56.62305709098976
 21
380.5756992637793
 31
0.0
  0
LINE
  5
6DC
330
1F
100
AcDbEntity
  8
0
100
AcDbLine
 10
56.67352320728594
 20
381.7449681645431
 30
0.0
 11
56.66090356469599
 21
381.1600450899332
 31
0.0
  0
LINE
  5
6DD
330
1F
100
AcDbEntity
  8
0
100
AcDbLine
 10
56.66090356469599
 20
382.329891239153
 30
0.0
 11
56.67352320728594
 21
381.7449681645431
 31
0.0
  0
LINE
  5
6DE
330
1F
100
AcDbEntity
  8
0
100
AcDbLine
 10
56.62305709098976
 20
382.9142370653069
 30
0.0
 11
56.66090356469599
 21
382.329891239153
 31
0.0
  0
LINE
  5
6DF
330
1F
100
AcDbEntity
  8
0
100
AcDbLine
 10
56.56002113606752
 20
383.4974289642232
 30
0.0
 11
56.62305709098976
 21
382.9142370653069
 31
0.0
  0
LINE
  5
6E0
330
1F
100
AcDbEntity
  8
0
100
AcDbLine
 10
56.52363256452028
 20
383.7374223033364
 30
0.0
 11
56.56002113606752
 21
383.4974289642232
 31
0.0
  0
LINE
  5
6E1
330
1F
100
AcDbEntity
  8
0
100
AcDbLine
 10
168.4250647838295
 20
387.1707239912517
 30
0.0
 11
168.4186110995865
 21
387.2115369037214
 31
0.0
  0
LINE
  5
6E2
330
1F
100
AcDbEntity
  8
0
100
AcDbLine
 10
-54.53132026950441
 20
750.3982254312647
 30
0.0
 11
-54.33006847809941
 21
750.3982254312646
 31
0.0
  0
LINE
  5
6E3
330
1F
100
AcDbEntity
  8
0
100
AcDbLine
 10
88.53236226753029
 20
750.3982254312646
 30
0.0
 11
88.12070549950064
 21
750.3558438812619
 31
0.0
  0
LINE
  5
6E4
330
1F
100
AcDbEntity
  8
0
100
AcDbLine
 10
88.12070549950064
 20
750.3558438812619
 30
0.0
 11
86.5723669668896
 21
750.3982254312646
 31
0.0
  0
LINE
  5
6E5
330
1F
100
AcDbEntity
  8
0
100
AcDbLine
 10
-90.27201658928333
 20
750.3982254312646
 30
0.0
 11
-90.68367335731313
 21
750.3558438812618
 31
0.0
  0
LINE
  5
6E6
330
1F
100
AcDbEntity
  8
0
100
AcDbLine
 10
-90.68367335731313
 20
750.3558438812618
 30
0.0
 11
-92.23201188992399
 21
750.3982254312646
 31
0.0
  0
LINE
  5
6E7
330
1F
100
AcDbEntity
  8
0
100
AcDbLine
 10
-80.41198723355945
 20
410.4605292625851
 30
0.0
 11
-85.75435856011734
 21
381.1999200569562
 31
0.0
  0
LINE
  5
6E8
330
1F
100
AcDbEntity
  8
0
100
AcDbLine
 10
-32.94308270149986
 20
728.165606981268
 30
0.0
 11
-32.94822990971329
 21
728.1232254312649
 31
0.0
  0
LINE
  5
6E9
330
1F
100
AcDbEntity
  8
0
100
AcDbLine
 10
-32.94822990971329
 20
728.1232254312649
 30
0.0
 11
-35.83664721425007
 21
704.3403129578995
 31
0.0
  0
LINE
  5
6EA
330
1F
100
AcDbEntity
  8
0
100
AcDbLine
 10
-72.02907780672027
 20
728.165606981268
 30
0.0
 11
-72.0383419619439
 21
728.1232254312648
 31
0.0
  0
LINE
  5
6EB
330
1F
100
AcDbEntity
  8
0
100
AcDbLine
 10
-72.0383419619439
 20
728.1232254312648
 30
0.0
 11
-76.46654141971026
 21
707.865149847101
 31
0.0
  0
LINE
  5
6EC
330
1F
100
AcDbEntity
  8
0
100
AcDbLine
 10
112.9048497248853
 20
410.4605292625853
 30
0.0
 11
118.2694277323418
 21
381.208456162569
 31
0.0
  0
LINE
  5
6ED
330
1F
100
AcDbEntity
  8
0
100
AcDbLine
 10
65.27184301573703
 20
728.165606981268
 30
0.0
 11
65.27701207256308
 21
728.1232254312649
 31
0.0
  0
LINE
  5
6EE
330
1F
100
AcDbEntity
  8
0
100
AcDbLine
 10
65.27701207256308
 20
728.1232254312649
 30
0.0
 11
68.17768998676434
 21
704.3403129578997
 31
0.0
  0
LINE
  5
6EF
330
1F
100
AcDbEntity
  8
0
100
AcDbLine
 10
104.3592384729807
 20
728.165606981268
 30
0.0
 11
104.3685246243167
 21
728.1232254312649
 31
0.0
  0
LINE
  5
6F0
330
1F
100
AcDbEntity
  8
0
100
AcDbLine
 10
104.3685246243167
 20
728.1232254312649
 30
0.0
 11
108.8072380653416
 21
707.8651498471012
 31
0.0
  0
LINE
  5
6F1
330
1F
100
AcDbEntity
  8
0
100
AcDbLine
 10
164.0407739968204
 20
414.8968521054715
 30
0.0
 11
168.4186110995865
 21
387.2115369037214
 31
0.0
  0
LINE
  5
6F2
330
1F
100
AcDbEntity
  8
0
100
AcDbLine
 10
18.41762318679875
 20
728.165606981268
 30
0.0
 11
18.41479018867258
 21
728.1232254312648
 31
0.0
  0
LINE
  5
6F3
330
1F
100
AcDbEntity
  8
0
100
AcDbLine
 10
18.41479018867258
 20
728.1232254312648
 30
0.0
 11
16.94282849034027
 21
706.1027314025003
 31
0.0
  0
LINE
  5
6F4
330
1F
100
AcDbEntity
  8
0
100
AcDbLine
 10
6.143896046409821
 20
412.6786906840282
 30
0.0
 11
5.976832310309703
 21
385.2343347977819
 31
0.0
  0
LINE
  5
6F5
330
1F
100
AcDbEntity
  8
0
100
AcDbLine
 10
57.0397260220121
 20
728.165606981268
 30
0.0
 11
57.04096110889608
 21
728.1232254312649
 31
0.0
  0
LINE
  5
6F6
330
1F
100
AcDbEntity
  8
0
100
AcDbLine
 10
57.04096110889608
 20
728.1232254312649
 30
0.0
 11
57.68268429626886
 21
706.1027314025003
 31
0.0
  0
LINE
  5
6F7
330
1F
100
AcDbEntity
  8
0
100
AcDbLine
 10
56.56002113606752
 20
383.4974289642232
 30
0.0
 11
56.51113045690658
 21
383.3331554826334
 31
0.0
  0
LINE
  5
6F8
330
1F
100
AcDbEntity
  8
0
100
AcDbLine
 10
6.056310132455138
 20
385.4890593329266
 30
0.0
 11
5.976832310309703
 21
385.2343347977819
 31
0.0
  0
LINE
  5
6F9
330
1F
100
AcDbEntity
  8
0
100
AcDbLine
 10
-54.53132026950441
 20
750.3982254312647
 30
0.0
 11
-56.29006377874008
 21
750.3558438812619
 31
0.0
  0
LINE
  5
6FA
330
1F
100
AcDbEntity
  8
0
100
AcDbLine
 10
-56.29006377874008
 20
750.3558438812619
 30
0.0
 11
-57.04604828488602
 21
750.3982254312646
 31
0.0
  0
LINE
  5
6FB
330
1F
100
AcDbEntity
  8
0
100
AcDbLine
 10
-54.33006847809941
 20
750.3982254312646
 30
0.0
 11
-53.66155058125513
 21
750.3558438812619
 31
0.0
  0
LINE
  5
6FC
330
1F
100
AcDbEntity
  8
0
100
AcDbLine
 10
-53.66155058125513
 20
750.3558438812619
 30
0.0
 11
-43.80977517228578
 21
750.3982254312647
 31
0.0
  0
LINE
  5
6FD
330
1F
100
AcDbEntity
  8
0
100
AcDbLine
 10
85.79411092379734
 20
750.3982254312647
 30
0.0
 11
85.90384907004553
 21
750.3558438812619
 31
0.0
  0
LINE
  5
6FE
330
1F
100
AcDbEntity
  8
0
100
AcDbLine
 10
85.90384907004553
 20
750.3558438812619
 30
0.0
 11
86.5723669668896
 21
750.3982254312646
 31
0.0
  0
LINE
  5
6FF
330
1F
100
AcDbEntity
  8
0
100
AcDbLine
 10
121.7583305719276
 20
750.3982254312646
 30
0.0
 11
122.5143150780737
 21
750.3558438812619
 31
0.0
  0
LINE
  5
700
330
1F
100
AcDbEntity
  8
0
100
AcDbLine
 10
57.41865247029318
 20
412.6786906840282
 30
0.0
 11
56.52363256452028
 21
383.7374223033364
 31
0.0
  0
LINE
  5
701
330
1F
100
AcDbEntity
  8
0
100
AcDbLine
 10
-87.15411432553976
 20
750.3982254312646
 30
0.0
 11
-90.27201658928333
 21
750.3558438812618
 31
0.0
  0
LINE
  5
702
330
1F
100
AcDbEntity
  8
0
100
AcDbLine
 10
-90.27201658928333
 20
750.3558438812618
 30
0.0
 11
-90.68367335731313
 21
750.3558438812618
 31
0.0
  0
LINE
  5
703
330
1F
100
AcDbEntity
  8
0
100
AcDbLine
 10
88.12070549950064
 20
750.3558438812619
 30
0.0
 11
88.53236226753029
 21
750.3558438812619
 31
0.0
  0
LINE
  5
704
330
1F
100
AcDbEntity
  8
0
100
AcDbLine
 10
88.53236226753029
 20
750.3558438812619
 30
0.0
 11
91.6502645312738
 21
750.3982254312646
 31
0.0
  0
LINE
  5
705
330
1F
100
AcDbEntity
  8
0
100
AcDbLine
 10
125.1428282755585
 20
750.3558438812619
 30
0.0
 11
127.6560329795105
 21
750.3982254312647
 31
0.0
  0
LINE
  5
706
330
1F
100
AcDbEntity
  8
0
100
AcDbLine
 10
122.5143150780737
 20
750.3558438812619
 30
0.0
 11
124.4743103787144
 21
750.3982254312646
 31
0.0
  0
LINE
  5
707
330
1F
100
AcDbEntity
  8
0
100
AcDbLine
 10
124.4743103787144
 20
750.3982254312646
 30
0.0
 11
125.1428282755585
 21
750.3558438812619
 31
0.0
  0
LINE
  5
709
330
1F
100
AcDbEntity
  8
0
100
AcDbLine
 10
118.3073786148321
 20
380.5756992637794
 30
0.0
 11
118.2694277323418
 21
381.208456162569
 31
0.0
  0
LINE
  5
70A
330
1F
100
AcDbEntity
  8
0
100
AcDbLine
 10
-32.94822990971329
 20
728.1232254312649
 30
0.0
 11
18.41479018867258
 21
728.1232254312648
 31
0.0
  0
LINE
  5
70B
330
1F
100
AcDbEntity
  8
0
100
AcDbLine
 10
-32.94822990971329
 20
728.1232254312649
 30
0.0
 11
-72.0383419619439
 21
728.1232254312648
 31
0.0
  0
LINE
  5
70C
330
1F
100
AcDbEntity
  8
0
100
AcDbLine
 10
-135.6123202695047
 20
728.1232254312649
 30
0.0
 11
-72.0383419619439
 21
728.1232254312648
 31
0.0
  0
LINE
  5
70D
330
1F
100
AcDbEntity
  8
0
100
AcDbLine
 10
57.04096110889608
 20
728.1232254312649
 30
0.0
 11
18.41479018867258
 21
728.1232254312648
 31
0.0
  0
LINE
  5
70E
330
1F
100
AcDbEntity
  8
0
100
AcDbLine
 10
65.27701207256308
 20
728.1232254312649
 30
0.0
 11
57.04096110889608
 21
728.1232254312649
 31
0.0
  0
LINE
  5
70F
330
1F
100
AcDbEntity
  8
0
100
AcDbLine
 10
104.3685246243167
 20
728.1232254312649
 30
0.0
 11
65.27701207256308
 21
728.1232254312649
 31
0.0
  0
LINE
  5
710
330
1F
100
AcDbEntity
  8
0
100
AcDbLine
 10
188.7116797304917
 20
728.1232254312649
 30
0.0
 11
104.3685246243167
 21
728.1232254312649
 31
0.0
  0
LINE
  5
711
330
1F
100
AcDbEntity
  8
0
100
AcDbLine
 10
16.79956064958958
 20
750.3982254312648
 30
0.0
 11
-43.80977517228578
 21
750.3982254312647
 31
0.0
  0
LINE
  5
712
330
1F
100
AcDbEntity
  8
0
100
AcDbLine
 10
85.79411092379734
 20
750.3982254312647
 30
0.0
 11
56.03853985510244
 21
750.3982254312647
 31
0.0
  0
LINE
  5
713
330
1F
100
AcDbEntity
  8
0
100
AcDbLine
 10
188.7116797304932
 20
750.3982254312647
 30
0.0
 11
127.6560329795105
 21
750.3982254312647
 31
0.0
  0
LINE
  5
714
330
1F
100
AcDbEntity
  8
0
100
AcDbLine
 10
121.7583305719276
 20
750.3982254312646
 30
0.0
 11
91.6502645312738
 21
750.3982254312646
 31
0.0
  0
LINE
  5
715
330
1F
100
AcDbEntity
  8
0
100
AcDbLine
 10
121.7583305719276
 20
750.3982254312646
 30
0.0
 11
124.4743103787144
 21
750.3982254312646
 31
0.0
  0
LINE
  5
716
330
1F
100
AcDbEntity
  8
0
100
AcDbLine
 10
-92.23201188992399
 20
750.3982254312646
 30
0.0
 11
-135.6123202695047
 21
750.3982254312647
 31
0.0
  0
LINE
  5
717
330
1F
100
AcDbEntity
  8
0
100
AcDbLine
 10
-57.04604828488602
 20
750.3982254312646
 30
0.0
 11
-87.15411432553976
 21
750.3982254312646
 31
0.0
  0
LINE
  5
718
330
1F
100
AcDbEntity
  8
0
100
AcDbLine
 10
-57.04604828488602
 20
750.3982254312646
 30
0.0
 11
-54.53132026950441
 21
750.3982254312647
 31
0.0
  0
LINE
  5
719
330
1F
100
AcDbEntity
  8
0
100
AcDbLine
 10
52.6540421514716
 20
750.3982254312648
 30
0.0
 11
16.79956064958958
 21
750.3982254312648
 31
0.0
  0
LINE
  5
71A
330
1F
100
AcDbEntity
  8
0
100
AcDbLine
 10
53.41002665761777
 20
750.3982254312648
 30
0.0
 11
56.03853985510244
 21
750.3982254312647
 31
0.0
  0
LINE
  5
71D
330
1F
100
AcDbEntity
  8
0
100
AcDbLine
 10
-60.66214049706364
 20
527.8617992421552
 30
0.0
 11
-56.12433633669543
 21
557.2453446429867
 31
0.0
  0
LINE
  5
71E
330
1F
100
AcDbEntity
  8
0
100
AcDbLine
 10
-72.34737571124558
 20
457.3451370686997
 30
0.0
 11
-72.53747419394004
 21
455.5654874262974
 31
0.0
  0
LINE
  5
71F
330
1F
100
AcDbEntity
  8
0
100
AcDbLine
 10
-111.4300135968086
 20
532.2661540992799
 30
0.0
 11
-106.0012560973406
 21
561.5724050533097
 31
0.0
  0
LINE
  5
720
330
1F
100
AcDbEntity
  8
0
100
AcDbLine
 10
-71.99731290608093
 20
459.5393959565869
 30
0.0
 11
-72.34737571124558
 21
457.3451370686997
 31
0.0
  0
LINE
  5
721
330
1F
100
AcDbEntity
  8
0
100
AcDbLine
 10
143.8617239342411
 20
532.2661540992802
 30
0.0
 11
138.4177914430684
 21
561.57240505331
 31
0.0
  0
LINE
  5
722
330
1F
100
AcDbEntity
  8
0
100
AcDbLine
 10
93.0942833270241
 20
527.8617992421555
 30
0.0
 11
88.54129658490199
 21
557.245344642987
 31
0.0
  0
LINE
  5
723
330
1F
100
AcDbEntity
  8
0
100
AcDbLine
 10
105.0069982341257
 20
455.5654874262972
 30
0.0
 11
104.9092468312833
 21
456.4553122474986
 31
0.0
  0
LINE
  5
724
330
1F
100
AcDbEntity
  8
0
100
AcDbLine
 10
8.5415263398163
 20
530.0639766707177
 30
0.0
 11
9.541403887913759
 21
559.4088748481483
 31
0.0
  0
LINE
  5
725
330
1F
100
AcDbEntity
  8
0
100
AcDbLine
 10
59.44679867939709
 20
530.0639766707177
 30
0.0
 11
59.55331159353312
 21
559.4088748481483
 31
0.0
  0
LINE
  5
726
330
1F
100
AcDbEntity
  8
0
100
AcDbLine
 10
5.976832310309703
 20
385.2343347977819
 30
0.0
 11
5.838700269473747
 21
384.6580505271403
 31
0.0
  0
LINE
  5
9D8
330
1F
100
AcDbEntity
  8
0
100
AcDbLine
 10
402.7713775414922
 20
381.5492012939901
 30
0.0
 11
402.7727174907452
 21
381.5890762610132
 31
0.0
  0
LINE
  5
9D9
330
1F
100
AcDbEntity
  8
0
100
AcDbLine
 10
352.4670315293735
 20
386.765163467752
 30
0.0
 11
352.4981466551715
 21
386.8580234435562
 31
0.0
  0
LINE
  5
9DA
330
1F
100
AcDbEntity
  8
0
100
AcDbLine
 10
494.5833861833177
 20
385.8782155369837
 30
0.0
 11
494.6125584355119
 21
386.0055039680997
 31
0.0
  0
LINE
  5
9DB
330
1F
100
AcDbEntity
  8
0
100
AcDbLine
 10
350.0321586665282
 20
750.4078805256162
 30
0.0
 11
349.1055064350692
 21
750.1157081993246
 31
0.0
  0
LINE
  5
9DC
330
1F
100
AcDbEntity
  8
0
100
AcDbLine
 10
352.9147557813578
 20
750.7873816353217
 30
0.0
 11
351.944058696505
 21
750.7450000853187
 31
0.0
  0
LINE
  5
9DD
330
1F
100
AcDbEntity
  8
0
100
AcDbLine
 10
351.944058696505
 20
750.7450000853187
 30
0.0
 11
350.9807492025918
 21
750.6181779844951
 31
0.0
  0
LINE
  5
9DE
330
1F
100
AcDbEntity
  8
0
100
AcDbLine
 10
350.9807492025918
 20
750.6181779844951
 30
0.0
 11
350.0321586665282
 21
750.4078805256162
 31
0.0
  0
LINE
  5
9DF
330
1F
100
AcDbEntity
  8
0
100
AcDbLine
 10
351.9440586965075
 20
728.554763185325
 30
0.0
 11
352.9147557813578
 21
728.5123816353218
 31
0.0
  0
LINE
  5
9E0
330
1F
100
AcDbEntity
  8
0
100
AcDbLine
 10
350.9807492025918
 20
728.6815852861484
 30
0.0
 11
351.9440586965075
 21
728.554763185325
 31
0.0
  0
LINE
  5
9E1
330
1F
100
AcDbEntity
  8
0
100
AcDbLine
 10
350.0321586665282
 20
728.8918827450275
 30
0.0
 11
350.9807492025918
 21
728.6815852861484
 31
0.0
  0
LINE
  5
9E2
330
1F
100
AcDbEntity
  8
0
100
AcDbLine
 10
349.1055064350692
 20
729.184055071319
 30
0.0
 11
350.0321586665282
 21
728.8918827450275
 31
0.0
  0
LINE
  5
9E3
330
1F
100
AcDbEntity
  8
0
100
AcDbLine
 10
348.2078448912208
 20
729.555878657201
 30
0.0
 11
349.1055064350692
 21
729.184055071319
 31
0.0
  0
LINE
  5
9E4
330
1F
100
AcDbEntity
  8
0
100
AcDbLine
 10
344.3829357961214
 20
732.490834632438
 30
0.0
 11
345.0393540058925
 21
731.7744798598567
 31
0.0
  0
LINE
  5
9E5
330
1F
100
AcDbEntity
  8
0
100
AcDbLine
 10
345.0393540058925
 20
731.7744798598567
 30
0.0
 11
345.7557087784739
 21
731.1180616500841
 31
0.0
  0
LINE
  5
9E6
330
1F
100
AcDbEntity
  8
0
100
AcDbLine
 10
347.3460057813566
 20
730.0045237006727
 30
0.0
 11
348.2078448912208
 21
729.555878657201
 31
0.0
  0
LINE
  5
9E7
330
1F
100
AcDbEntity
  8
0
100
AcDbLine
 10
342.4489292173543
 20
735.8406322890322
 30
0.0
 11
342.8207528032355
 21
734.9429707451847
 31
0.0
  0
LINE
  5
9E8
330
1F
100
AcDbEntity
  8
0
100
AcDbLine
 10
341.9464594321842
 20
737.7158750565563
 30
0.0
 11
342.1567568910637
 21
736.7672845204927
 31
0.0
  0
LINE
  5
9E9
330
1F
100
AcDbEntity
  8
0
100
AcDbLine
 10
346.5265482214958
 20
730.5265757420531
 30
0.0
 11
347.3460057813566
 21
730.0045237006727
 31
0.0
  0
LINE
  5
9EA
330
1F
100
AcDbEntity
  8
0
100
AcDbLine
 10
341.8196373313616
 20
738.6791845504699
 30
0.0
 11
341.9464594321842
 21
737.7158750565563
 31
0.0
  0
LINE
  5
9EB
330
1F
100
AcDbEntity
  8
0
100
AcDbLine
 10
342.8207528032355
 20
734.9429707451847
 30
0.0
 11
343.2693978467081
 21
734.0811316353217
 31
0.0
  0
LINE
  5
9EC
330
1F
100
AcDbEntity
  8
0
100
AcDbLine
 10
342.1567568910637
 20
736.7672845204927
 30
0.0
 11
342.4489292173543
 21
735.8406322890322
 31
0.0
  0
LINE
  5
9ED
330
1F
100
AcDbEntity
  8
0
100
AcDbLine
 10
341.8196373313616
 20
740.6205787201738
 30
0.0
 11
341.8196373313616
 21
738.6791845504699
 31
0.0
  0
LINE
  5
9EE
330
1F
100
AcDbEntity
  8
0
100
AcDbLine
 10
341.9464594321842
 20
741.5838882140872
 30
0.0
 11
341.8196373313616
 21
740.6205787201738
 31
0.0
  0
LINE
  5
9EF
330
1F
100
AcDbEntity
  8
0
100
AcDbLine
 10
342.1567568910637
 20
742.532478750151
 30
0.0
 11
341.9464594321842
 21
741.5838882140872
 31
0.0
  0
LINE
  5
9F0
330
1F
100
AcDbEntity
  8
0
100
AcDbLine
 10
342.4489292173543
 20
743.4591309816116
 30
0.0
 11
342.1567568910637
 21
742.532478750151
 31
0.0
  0
LINE
  5
9F1
330
1F
100
AcDbEntity
  8
0
100
AcDbLine
 10
342.8207528032381
 20
744.3567925254588
 30
0.0
 11
342.4489292173543
 21
743.4591309816116
 31
0.0
  0
LINE
  5
9F2
330
1F
100
AcDbEntity
  8
0
100
AcDbLine
 10
343.7914498880882
 20
733.261674075462
 30
0.0
 11
344.3829357961214
 21
732.490834632438
 31
0.0
  0
LINE
  5
9F3
330
1F
100
AcDbEntity
  8
0
100
AcDbLine
 10
343.2693978467081
 20
734.0811316353217
 30
0.0
 11
343.7914498880882
 21
733.261674075462
 31
0.0
  0
LINE
  5
9F4
330
1F
100
AcDbEntity
  8
0
100
AcDbLine
 10
343.2693978467081
 20
745.2186316353218
 30
0.0
 11
342.8207528032381
 21
744.3567925254588
 31
0.0
  0
LINE
  5
9F5
330
1F
100
AcDbEntity
  8
0
100
AcDbLine
 10
343.7914498880892
 20
746.0380891951815
 30
0.0
 11
343.2693978467081
 21
745.2186316353218
 31
0.0
  0
LINE
  5
9F6
330
1F
100
AcDbEntity
  8
0
100
AcDbLine
 10
345.7557087784739
 20
731.1180616500841
 30
0.0
 11
346.5265482214958
 21
730.5265757420531
 31
0.0
  0
LINE
  5
9F7
330
1F
100
AcDbEntity
  8
0
100
AcDbLine
 10
344.3829357961214
 20
746.8089286382057
 30
0.0
 11
343.7914498880892
 21
746.0380891951815
 31
0.0
  0
LINE
  5
9F8
330
1F
100
AcDbEntity
  8
0
100
AcDbLine
 10
345.0393540058925
 20
747.5252834107869
 30
0.0
 11
344.3829357961214
 21
746.8089286382057
 31
0.0
  0
LINE
  5
9F9
330
1F
100
AcDbEntity
  8
0
100
AcDbLine
 10
345.7557087784739
 20
748.1817016205596
 30
0.0
 11
345.0393540058925
 21
747.5252834107869
 31
0.0
  0
LINE
  5
9FA
330
1F
100
AcDbEntity
  8
0
100
AcDbLine
 10
348.2078448912208
 20
749.7438846134424
 30
0.0
 11
347.3460057813566
 21
749.2952395699708
 31
0.0
  0
LINE
  5
9FB
330
1F
100
AcDbEntity
  8
0
100
AcDbLine
 10
346.5265482214958
 20
748.7731875285903
 30
0.0
 11
345.7557087784739
 21
748.1817016205596
 31
0.0
  0
LINE
  5
9FC
330
1F
100
AcDbEntity
  8
0
100
AcDbLine
 10
347.3460057813566
 20
749.2952395699708
 30
0.0
 11
346.5265482214958
 21
748.7731875285903
 31
0.0
  0
LINE
  5
9FD
330
1F
100
AcDbEntity
  8
0
100
AcDbLine
 10
349.1055064350692
 20
750.1157081993246
 30
0.0
 11
348.2078448912208
 21
749.7438846134424
 31
0.0
  0
LINE
  5
9FE
330
1F
100
AcDbEntity
  8
0
100
AcDbLine
 10
681.0480051276448
 20
750.1157081993248
 30
0.0
 11
681.9456666714939
 21
749.7438846134425
 31
0.0
  0
LINE
  5
9FF
330
1F
100
AcDbEntity
  8
0
100
AcDbLine
 10
678.2094528662127
 20
750.7450000853191
 30
0.0
 11
679.1727623601237
 21
750.6181779844953
 31
0.0
  0
LINE
  5
A00
330
1F
100
AcDbEntity
  8
0
100
AcDbLine
 10
680.1213528961852
 20
750.4078805256162
 30
0.0
 11
681.0480051276448
 21
750.1157081993248
 31
0.0
  0
LINE
  5
A01
330
1F
100
AcDbEntity
  8
0
100
AcDbLine
 10
677.2387557813559
 20
750.7873816353217
 30
0.0
 11
678.2094528662127
 21
750.7450000853191
 31
0.0
  0
LINE
  5
A02
330
1F
100
AcDbEntity
  8
0
100
AcDbLine
 10
679.1727623601237
 20
750.6181779844953
 30
0.0
 11
680.1213528961852
 21
750.4078805256162
 31
0.0
  0
LINE
  5
A03
330
1F
100
AcDbEntity
  8
0
100
AcDbLine
 10
678.2094528662112
 20
728.554763185325
 30
0.0
 11
677.2387557813543
 21
728.512381635322
 31
0.0
  0
LINE
  5
A04
330
1F
100
AcDbEntity
  8
0
100
AcDbLine
 10
680.1213528961866
 20
728.8918827450276
 30
0.0
 11
679.172762360125
 21
728.6815852861484
 31
0.0
  0
LINE
  5
A05
330
1F
100
AcDbEntity
  8
0
100
AcDbLine
 10
679.172762360125
 20
728.6815852861484
 30
0.0
 11
678.2094528662112
 21
728.554763185325
 31
0.0
  0
LINE
  5
A06
330
1F
100
AcDbEntity
  8
0
100
AcDbLine
 10
687.9967546716492
 20
736.7672845204927
 30
0.0
 11
687.7045823453611
 21
735.8406322890323
 31
0.0
  0
LINE
  5
A07
330
1F
100
AcDbEntity
  8
0
100
AcDbLine
 10
685.7705757665939
 20
732.490834632438
 30
0.0
 11
685.114157556824
 21
731.7744798598567
 31
0.0
  0
LINE
  5
A08
330
1F
100
AcDbEntity
  8
0
100
AcDbLine
 10
684.3978027842391
 20
731.1180616500843
 30
0.0
 11
683.62696334122
 21
730.5265757420532
 31
0.0
  0
LINE
  5
A09
330
1F
100
AcDbEntity
  8
0
100
AcDbLine
 10
688.333874231351
 20
740.6205787201738
 30
0.0
 11
688.333874231351
 21
738.6791845504701
 31
0.0
  0
LINE
  5
A0A
330
1F
100
AcDbEntity
  8
0
100
AcDbLine
 10
688.2070521305296
 20
741.5838882140873
 30
0.0
 11
688.333874231351
 21
740.6205787201738
 31
0.0
  0
LINE
  5
A0B
330
1F
100
AcDbEntity
  8
0
100
AcDbLine
 10
681.9456666714939
 20
729.5558786572012
 30
0.0
 11
681.0480051276456
 21
729.184055071319
 31
0.0
  0
LINE
  5
A0C
330
1F
100
AcDbEntity
  8
0
100
AcDbLine
 10
686.8841137160074
 20
734.0811316353222
 30
0.0
 11
686.3620616746277
 21
733.261674075462
 31
0.0
  0
LINE
  5
A0D
330
1F
100
AcDbEntity
  8
0
100
AcDbLine
 10
683.62696334122
 20
730.5265757420532
 30
0.0
 11
682.8075057813588
 21
730.0045237006727
 31
0.0
  0
LINE
  5
A0E
330
1F
100
AcDbEntity
  8
0
100
AcDbLine
 10
687.9967546716492
 20
742.5324787501511
 30
0.0
 11
688.2070521305296
 21
741.5838882140873
 31
0.0
  0
LINE
  5
A0F
330
1F
100
AcDbEntity
  8
0
100
AcDbLine
 10
687.7045823453611
 20
743.4591309816117
 30
0.0
 11
687.9967546716492
 21
742.5324787501511
 31
0.0
  0
LINE
  5
A10
330
1F
100
AcDbEntity
  8
0
100
AcDbLine
 10
682.8075057813588
 20
730.0045237006727
 30
0.0
 11
681.9456666714939
 21
729.5558786572012
 31
0.0
  0
LINE
  5
A11
330
1F
100
AcDbEntity
  8
0
100
AcDbLine
 10
686.8841137160074
 20
745.2186316353218
 30
0.0
 11
687.3327587594782
 21
744.3567925254589
 31
0.0
  0
LINE
  5
A12
330
1F
100
AcDbEntity
  8
0
100
AcDbLine
 10
685.114157556824
 20
731.7744798598567
 30
0.0
 11
684.3978027842391
 21
731.1180616500843
 31
0.0
  0
LINE
  5
A13
330
1F
100
AcDbEntity
  8
0
100
AcDbLine
 10
688.2070521305317
 20
737.7158750565564
 30
0.0
 11
687.9967546716492
 21
736.7672845204927
 31
0.0
  0
LINE
  5
A14
330
1F
100
AcDbEntity
  8
0
100
AcDbLine
 10
687.332758759481
 20
734.9429707451847
 30
0.0
 11
686.8841137160074
 21
734.0811316353222
 31
0.0
  0
LINE
  5
A15
330
1F
100
AcDbEntity
  8
0
100
AcDbLine
 10
686.3620616746248
 20
746.0380891951815
 30
0.0
 11
686.8841137160074
 21
745.2186316353218
 31
0.0
  0
LINE
  5
A16
330
1F
100
AcDbEntity
  8
0
100
AcDbLine
 10
688.333874231351
 20
738.6791845504701
 30
0.0
 11
688.2070521305317
 21
737.7158750565564
 31
0.0
  0
LINE
  5
A17
330
1F
100
AcDbEntity
  8
0
100
AcDbLine
 10
686.3620616746277
 20
733.261674075462
 30
0.0
 11
685.7705757665939
 21
732.490834632438
 31
0.0
  0
LINE
  5
A18
330
1F
100
AcDbEntity
  8
0
100
AcDbLine
 10
687.3327587594782
 20
744.3567925254589
 30
0.0
 11
687.7045823453611
 21
743.4591309816117
 31
0.0
  0
LINE
  5
A19
330
1F
100
AcDbEntity
  8
0
100
AcDbLine
 10
681.0480051276456
 20
729.184055071319
 30
0.0
 11
680.1213528961866
 21
728.8918827450276
 31
0.0
  0
LINE
  5
A1A
330
1F
100
AcDbEntity
  8
0
100
AcDbLine
 10
687.7045823453611
 20
735.8406322890323
 30
0.0
 11
687.332758759481
 21
734.9429707451847
 31
0.0
  0
LINE
  5
A1B
330
1F
100
AcDbEntity
  8
0
100
AcDbLine
 10
682.8075057813588
 20
749.295239569971
 30
0.0
 11
683.62696334122
 21
748.7731875285905
 31
0.0
  0
LINE
  5
A1C
330
1F
100
AcDbEntity
  8
0
100
AcDbLine
 10
684.3978027842413
 20
748.1817016205596
 30
0.0
 11
685.114157556824
 21
747.525283410787
 31
0.0
  0
LINE
  5
A1D
330
1F
100
AcDbEntity
  8
0
100
AcDbLine
 10
681.9456666714939
 20
749.7438846134425
 30
0.0
 11
682.8075057813588
 21
749.295239569971
 31
0.0
  0
LINE
  5
A1E
330
1F
100
AcDbEntity
  8
0
100
AcDbLine
 10
685.114157556824
 20
747.525283410787
 30
0.0
 11
685.7705757665926
 21
746.8089286382059
 31
0.0
  0
LINE
  5
A1F
330
1F
100
AcDbEntity
  8
0
100
AcDbLine
 10
683.62696334122
 20
748.7731875285905
 30
0.0
 11
684.3978027842413
 21
748.1817016205596
 31
0.0
  0
LINE
  5
A20
330
1F
100
AcDbEntity
  8
0
100
AcDbLine
 10
685.7705757665926
 20
746.8089286382059
 30
0.0
 11
686.3620616746248
 21
746.0380891951815
 31
0.0
  0
LINE
  5
A21
330
1F
100
AcDbEntity
  8
0
100
AcDbLine
 10
575.0994430177522
 20
750.7873816353216
 30
0.0
 11
574.4309251209081
 21
750.7873816353216
 31
0.0
  0
LINE
  5
A22
330
1F
100
AcDbEntity
  8
0
100
AcDbLine
 10
580.1773405821363
 20
750.7873816353216
 30
0.0
 11
577.0594383183929
 21
750.7873816353216
 31
0.0
  0
LINE
  5
A23
330
1F
100
AcDbEntity
  8
0
100
AcDbLine
 10
613.6699043264211
 20
750.7873816353216
 30
0.0
 11
613.0013864295769
 21
750.7873816353216
 31
0.0
  0
LINE
  5
A24
330
1F
100
AcDbEntity
  8
0
100
AcDbLine
 10
401.3729617253228
 20
750.7873816353216
 30
0.0
 11
398.2550594615793
 21
750.7873816353216
 31
0.0
  0
LINE
  5
A25
330
1F
100
AcDbEntity
  8
0
100
AcDbLine
 10
434.8655254696074
 20
750.7873816353216
 30
0.0
 11
434.1970075727632
 21
750.7873816353216
 31
0.0
  0
LINE
  5
A26
330
1F
100
AcDbEntity
  8
0
100
AcDbLine
 10
541.9371027084803
 20
750.7873816353219
 30
0.0
 11
541.1811182023342
 21
750.7873816353219
 31
0.0
  0
LINE
  5
A27
330
1F
100
AcDbEntity
  8
0
100
AcDbLine
 10
577.0594383183929
 20
750.7450000853191
 30
0.0
 11
577.0594383183929
 21
750.6181779844953
 31
0.0
  0
LINE
  5
A28
330
1F
100
AcDbEntity
  8
0
100
AcDbLine
 10
611.0413911289363
 20
750.7450000853191
 30
0.0
 11
611.0413911289363
 21
750.6181779844953
 31
0.0
  0
LINE
  5
A29
330
1F
100
AcDbEntity
  8
0
100
AcDbLine
 10
613.6699043264211
 20
750.7450000853191
 30
0.0
 11
613.6699043264211
 21
750.6181779844953
 31
0.0
  0
LINE
  5
A2A
330
1F
100
AcDbEntity
  8
0
100
AcDbLine
 10
610.2854066227902
 20
750.7450000853191
 30
0.0
 11
610.2854066227902
 21
750.6181779844953
 31
0.0
  0
LINE
  5
A2B
330
1F
100
AcDbEntity
  8
0
100
AcDbLine
 10
576.6477815503632
 20
750.7450000853191
 30
0.0
 11
576.6477815503632
 21
750.6181779844953
 31
0.0
  0
LINE
  5
A2C
330
1F
100
AcDbEntity
  8
0
100
AcDbLine
 10
574.4309251209081
 20
750.7450000853191
 30
0.0
 11
574.4309251209081
 21
750.6181779844953
 31
0.0
  0
LINE
  5
A2D
330
1F
100
AcDbEntity
  8
0
100
AcDbLine
 10
398.2550594615793
 20
750.7450000853188
 30
0.0
 11
398.2550594615793
 21
750.6181779844951
 31
0.0
  0
LINE
  5
A2E
330
1F
100
AcDbEntity
  8
0
100
AcDbLine
 10
432.2370122721225
 20
750.7450000853189
 30
0.0
 11
432.2370122721225
 21
750.6181779844953
 31
0.0
  0
LINE
  5
A2F
330
1F
100
AcDbEntity
  8
0
100
AcDbLine
 10
434.8655254696074
 20
750.7450000853189
 30
0.0
 11
434.8655254696074
 21
750.6181779844953
 31
0.0
  0
LINE
  5
A30
330
1F
100
AcDbEntity
  8
0
100
AcDbLine
 10
431.4810277659765
 20
750.7450000853189
 30
0.0
 11
431.4810277659765
 21
750.6181779844953
 31
0.0
  0
LINE
  5
A31
330
1F
100
AcDbEntity
  8
0
100
AcDbLine
 10
397.8434026935495
 20
750.7450000853188
 30
0.0
 11
397.8434026935495
 21
750.6181779844951
 31
0.0
  0
LINE
  5
A32
330
1F
100
AcDbEntity
  8
0
100
AcDbLine
 10
395.6265462640943
 20
750.7450000853187
 30
0.0
 11
395.6265462640943
 21
750.6181779844951
 31
0.0
  0
LINE
  5
A33
330
1F
100
AcDbEntity
  8
0
100
AcDbLine
 10
541.9371027084803
 20
750.7873816353219
 30
0.0
 11
541.9371027084803
 21
751.7873816353219
 31
0.0
  0
LINE
  5
A34
330
1F
100
AcDbEntity
  8
0
100
AcDbLine
 10
544.565615905965
 20
750.7873816353217
 30
0.0
 11
544.565615905965
 21
751.7873816353219
 31
0.0
  0
LINE
  5
A35
330
1F
100
AcDbEntity
  8
0
100
AcDbLine
 10
541.1811182023342
 20
750.7873816353219
 30
0.0
 11
541.1811182023342
 21
751.7873816353219
 31
0.0
  0
LINE
  5
A36
330
1F
100
AcDbEntity
  8
0
100
AcDbLine
 10
505.3266367004521
 20
750.7873816353219
 30
0.0
 11
505.3266367004521
 21
751.7873816353219
 31
0.0
  0
LINE
  5
A3C
330
1F
100
AcDbEntity
  8
0
100
AcDbLine
 10
415.9896018569225
 20
455.9546436303544
 30
0.0
 11
413.2921987163752
 21
440.1791820436741
 31
0.0
  0
LINE
  5
A3D
330
1F
100
AcDbEntity
  8
0
100
AcDbLine
 10
413.2921987163752
 20
440.1791820436741
 30
0.0
 11
408.1150888173032
 21
410.8496854666421
 31
0.0
  0
LINE
  5
A3E
330
1F
100
AcDbEntity
  8
0
100
AcDbLine
 10
418.3095931086073
 20
469.522853855306
 30
0.0
 11
417.1514607173297
 21
462.7496456624855
 31
0.0
  0
LINE
  5
A3F
330
1F
100
AcDbEntity
  8
0
100
AcDbLine
 10
423.167196437743
 20
498.8802590192007
 30
0.0
 11
418.3095931086073
 21
469.522853855306
 31
0.0
  0
LINE
  5
A40
330
1F
100
AcDbEntity
  8
0
100
AcDbLine
 10
427.8649355537989
 20
528.2509554462122
 30
0.0
 11
423.167196437743
 21
498.8802590192007
 31
0.0
  0
LINE
  5
A41
330
1F
100
AcDbEntity
  8
0
100
AcDbLine
 10
436.7805405846718
 20
587.030452738907
 30
0.0
 11
432.4027397141671
 21
557.6345008470438
 31
0.0
  0
LINE
  5
A42
330
1F
100
AcDbEntity
  8
0
100
AcDbLine
 10
440.9982722406152
 20
616.4383684521863
 30
0.0
 11
436.7805405846718
 21
587.030452738907
 31
0.0
  0
LINE
  5
A43
330
1F
100
AcDbEntity
  8
0
100
AcDbLine
 10
445.0558711677466
 20
645.8578051371046
 30
0.0
 11
440.9982722406152
 21
616.4383684521863
 31
0.0
  0
LINE
  5
A44
330
1F
100
AcDbEntity
  8
0
100
AcDbLine
 10
448.953276263242
 20
675.2883197703916
 30
0.0
 11
445.0558711677466
 21
645.8578051371046
 31
0.0
  0
LINE
  5
A45
330
1F
100
AcDbEntity
  8
0
100
AcDbLine
 10
452.6904288366125
 20
704.7294691619566
 30
0.0
 11
448.953276263242
 21
675.2883197703916
 31
0.0
  0
LINE
  5
A4B
330
1F
100
AcDbEntity
  8
0
100
AcDbLine
 10
416.9876194022785
 20
462.1228110485311
 30
0.0
 11
416.5297631447816
 21
459.9285521606439
 31
0.0
  0
LINE
  5
A4C
330
1F
100
AcDbEntity
  8
0
100
AcDbLine
 10
417.1514607173297
 20
462.7496456624855
 30
0.0
 11
416.9876194022785
 21
462.1228110485311
 31
0.0
  0
LINE
  5
A65
330
1F
100
AcDbEntity
  8
0
100
AcDbLine
 10
412.0605346311523
 20
708.254306051158
 30
0.0
 11
405.8350939146664
 21
679.0290275105842
 31
0.0
  0
LINE
  5
A66
330
1F
100
AcDbEntity
  8
0
100
AcDbLine
 10
405.8350939146664
 20
679.0290275105842
 30
0.0
 11
399.7688119365466
 21
649.786673279718
 31
0.0
  0
LINE
  5
A67
330
1F
100
AcDbEntity
  8
0
100
AcDbLine
 10
399.7688119365466
 20
649.786673279718
 30
0.0
 11
393.8617800481032
 21
620.5276837151679
 31
0.0
  0
LINE
  5
A68
330
1F
100
AcDbEntity
  8
0
100
AcDbLine
 10
393.8617800481032
 20
620.5276837151679
 30
0.0
 11
388.1140872025241
 21
591.2524994240532
 31
0.0
  0
LINE
  5
A69
330
1F
100
AcDbEntity
  8
0
100
AcDbLine
 10
388.1140872025241
 20
591.2524994240532
 30
0.0
 11
382.5258199535219
 21
561.9615612573668
 31
0.0
  0
LINE
  5
A6A
330
1F
100
AcDbEntity
  8
0
100
AcDbLine
 10
377.097062454054
 20
532.655310303337
 30
0.0
 11
371.827896455033
 21
503.3341878807854
 31
0.0
  0
LINE
  5
A6B
330
1F
100
AcDbEntity
  8
0
100
AcDbLine
 10
371.827896455033
 20
503.3341878807854
 30
0.0
 11
366.7184013041107
 21
473.9986355324811
 31
0.0
  0
LINE
  5
A6C
330
1F
100
AcDbEntity
  8
0
100
AcDbLine
 10
366.7184013041107
 20
473.9986355324811
 30
0.0
 11
361.7686539444752
 21
444.649095018491
 31
0.0
  0
LINE
  5
A6D
330
1F
100
AcDbEntity
  8
0
100
AcDbLine
 10
361.7686539444752
 20
444.649095018491
 30
0.0
 11
356.9787289136932
 21
415.2860083095283
 31
0.0
  0
LINE
  5
A6E
330
1F
100
AcDbEntity
  8
0
100
AcDbLine
 10
356.9787289136932
 20
415.2860083095283
 30
0.0
 11
352.4981466551715
 21
386.8580234435562
 31
0.0
  0
LINE
  5
A7E
330
1F
100
AcDbEntity
  8
0
100
AcDbLine
 10
378.0232976116264
 20
363.5215703412454
 30
0.0
 11
377.2212185374894
 21
363.5123816353216
 31
0.0
  0
LINE
  5
A7F
330
1F
100
AcDbEntity
  8
0
100
AcDbLine
 10
378.8262587918564
 20
363.5491273908732
 30
0.0
 11
378.0232976116264
 21
363.5215703412454
 31
0.0
  0
LINE
  5
A80
330
1F
100
AcDbEntity
  8
0
100
AcDbLine
 10
379.6267987473533
 20
363.5950255887242
 30
0.0
 11
378.8262587918564
 21
363.5491273908732
 31
0.0
  0
LINE
  5
A81
330
1F
100
AcDbEntity
  8
0
100
AcDbLine
 10
380.4249646856124
 20
363.6592196388185
 30
0.0
 11
379.6267987473533
 21
363.5950255887242
 31
0.0
  0
LINE
  5
A82
330
1F
100
AcDbEntity
  8
0
100
AcDbLine
 10
381.2199689132162
 20
363.7416461893787
 30
0.0
 11
380.4249646856124
 21
363.6592196388185
 31
0.0
  0
LINE
  5
A83
330
1F
100
AcDbEntity
  8
0
100
AcDbLine
 10
382.0110268569741
 20
363.842223895351
 30
0.0
 11
381.2199689132162
 21
363.7416461893787
 31
0.0
  0
LINE
  5
A84
330
1F
100
AcDbEntity
  8
0
100
AcDbLine
 10
382.7973578382013
 20
363.9608534986826
 30
0.0
 11
382.0110268569741
 21
363.842223895351
 31
0.0
  0
LINE
  5
A85
330
1F
100
AcDbEntity
  8
0
100
AcDbLine
 10
383.5781858431542
 20
364.0974179262771
 30
0.0
 11
382.7973578382013
 21
363.9608534986826
 31
0.0
  0
LINE
  5
A86
330
1F
100
AcDbEntity
  8
0
100
AcDbLine
 10
384.3527402888623
 20
364.2517824055322
 30
0.0
 11
383.5781858431542
 21
364.0974179262771
 31
0.0
  0
LINE
  5
A87
330
1F
100
AcDbEntity
  8
0
100
AcDbLine
 10
385.1202567836009
 20
364.4237945973437
 30
0.0
 11
384.3527402888623
 21
364.2517824055322
 31
0.0
  0
LINE
  5
A88
330
1F
100
AcDbEntity
  8
0
100
AcDbLine
 10
385.8799778812529
 20
364.6132847464453
 30
0.0
 11
385.1202567836009
 21
364.4237945973437
 31
0.0
  0
LINE
  5
A89
330
1F
100
AcDbEntity
  8
0
100
AcDbLine
 10
386.6311538288174
 20
364.8200658489374
 30
0.0
 11
385.8799778812529
 21
364.6132847464453
 31
0.0
  0
LINE
  5
A8A
330
1F
100
AcDbEntity
  8
0
100
AcDbLine
 10
387.3730433063246
 20
365.0439338368367
 30
0.0
 11
386.6311538288174
 21
364.8200658489374
 31
0.0
  0
LINE
  5
A8B
330
1F
100
AcDbEntity
  8
0
100
AcDbLine
 10
388.1049141584297
 20
365.2846677794672
 30
0.0
 11
387.3730433063246
 21
365.0439338368367
 31
0.0
  0
LINE
  5
A8C
330
1F
100
AcDbEntity
  8
0
100
AcDbLine
 10
388.8260441169613
 20
365.5420301014916
 30
0.0
 11
388.1049141584297
 21
365.2846677794672
 31
0.0
  0
LINE
  5
A8D
330
1F
100
AcDbEntity
  8
0
100
AcDbLine
 10
389.5357215137136
 20
365.8157668173699
 30
0.0
 11
388.8260441169613
 21
365.5420301014916
 31
0.0
  0
LINE
  5
A8E
330
1F
100
AcDbEntity
  8
0
100
AcDbLine
 10
390.2332459827763
 20
366.105607782012
 30
0.0
 11
389.5357215137136
 21
365.8157668173699
 31
0.0
  0
LINE
  5
A8F
330
1F
100
AcDbEntity
  8
0
100
AcDbLine
 10
390.9179291517117
 20
366.4112669573789
 30
0.0
 11
390.2332459827763
 21
366.105607782012
 31
0.0
  0
LINE
  5
A90
330
1F
100
AcDbEntity
  8
0
100
AcDbLine
 10
391.5890953208946
 20
366.732442694767
 30
0.0
 11
390.9179291517117
 21
366.4112669573789
 31
0.0
  0
LINE
  5
A91
330
1F
100
AcDbEntity
  8
0
100
AcDbLine
 10
392.2469216326801
 20
367.0688180324996
 30
0.0
 11
391.5890953208946
 21
366.732442694767
 31
0.0
  0
LINE
  5
A92
330
1F
100
AcDbEntity
  8
0
100
AcDbLine
 10
392.8891165958697
 20
367.4200610087295
 30
0.0
 11
392.2469216326801
 21
367.0688180324996
 31
0.0
  0
LINE
  5
A93
330
1F
100
AcDbEntity
  8
0
100
AcDbLine
 10
393.5158492352838
 20
367.7858249890452
 30
0.0
 11
392.8891165958697
 21
367.4200610087295
 31
0.0
  0
LINE
  5
A94
330
1F
100
AcDbEntity
  8
0
100
AcDbLine
 10
394.1265010414737
 20
368.1657490085573
 30
0.0
 11
393.5158492352838
 21
367.7858249890452
 31
0.0
  0
LINE
  5
A95
330
1F
100
AcDbEntity
  8
0
100
AcDbLine
 10
394.7204693748318
 20
368.5594581281274
 30
0.0
 11
394.1265010414737
 21
368.1657490085573
 31
0.0
  0
LINE
  5
A96
330
1F
100
AcDbEntity
  8
0
100
AcDbLine
 10
395.2971680603235
 20
368.9665638043875
 30
0.0
 11
394.7204693748318
 21
368.5594581281274
 31
0.0
  0
LINE
  5
A97
330
1F
100
AcDbEntity
  8
0
100
AcDbLine
 10
395.8560279659721
 20
369.3866642731857
 30
0.0
 11
395.2971680603235
 21
368.9665638043875
 31
0.0
  0
LINE
  5
A98
330
1F
100
AcDbEntity
  8
0
100
AcDbLine
 10
396.3964975645225
 20
369.8193449460786
 30
0.0
 11
395.8560279659721
 21
369.3866642731857
 31
0.0
  0
LINE
  5
A99
330
1F
100
AcDbEntity
  8
0
100
AcDbLine
 10
396.9180434777328
 20
370.26417881948
 30
0.0
 11
396.3964975645225
 21
369.8193449460786
 31
0.0
  0
LINE
  5
A9A
330
1F
100
AcDbEntity
  8
0
100
AcDbLine
 10
397.4201510027535
 20
370.7207268960626
 30
0.0
 11
396.9180434777328
 21
370.26417881948
 31
0.0
  0
LINE
  5
A9B
330
1F
100
AcDbEntity
  8
0
100
AcDbLine
 10
397.9023246200777
 20
371.1885386179944
 30
0.0
 11
397.4201510027535
 21
370.7207268960626
 31
0.0
  0
LINE
  5
A9C
330
1F
100
AcDbEntity
  8
0
100
AcDbLine
 10
398.3640884825586
 20
371.6671523115855
 30
0.0
 11
397.9023246200777
 21
371.1885386179944
 31
0.0
  0
LINE
  5
A9D
330
1F
100
AcDbEntity
  8
0
100
AcDbLine
 10
398.8049868850132
 20
372.156095642904
 30
0.0
 11
398.3640884825586
 21
371.6671523115855
 31
0.0
  0
LINE
  5
A9E
330
1F
100
AcDbEntity
  8
0
100
AcDbLine
 10
399.2245847139488
 20
372.6548860839128
 30
0.0
 11
398.8049868850132
 21
372.156095642904
 31
0.0
  0
LINE
  5
A9F
330
1F
100
AcDbEntity
  8
0
100
AcDbLine
 10
399.6224678769669
 20
373.1630313886662
 30
0.0
 11
399.2245847139488
 21
372.6548860839128
 31
0.0
  0
LINE
  5
AA0
330
1F
100
AcDbEntity
  8
0
100
AcDbLine
 10
399.9982437114225
 20
373.6800300790977
 30
0.0
 11
399.6224678769669
 21
373.1630313886662
 31
0.0
  0
LINE
  5
AA1
330
1F
100
AcDbEntity
  8
0
100
AcDbLine
 10
400.351541371935
 20
374.2053719399176
 30
0.0
 11
399.9982437114225
 21
373.6800300790977
 31
0.0
  0
LINE
  5
AA2
330
1F
100
AcDbEntity
  8
0
100
AcDbLine
 10
400.6820121963675
 20
374.7385385221349
 30
0.0
 11
400.351541371935
 21
374.2053719399176
 31
0.0
  0
LINE
  5
AA3
330
1F
100
AcDbEntity
  8
0
100
AcDbLine
 10
400.9893300499149
 20
375.2790036547028
 30
0.0
 11
400.6820121963675
 21
374.7385385221349
 31
0.0
  0
LINE
  5
AA4
330
1F
100
AcDbEntity
  8
0
100
AcDbLine
 10
401.2731916469582
 20
375.8262339637864
 30
0.0
 11
400.9893300499149
 21
375.2790036547028
 31
0.0
  0
LINE
  5
AA5
330
1F
100
AcDbEntity
  8
0
100
AcDbLine
 10
401.5333168503724
 20
376.3796893991388
 30
0.0
 11
401.2731916469582
 21
375.8262339637864
 31
0.0
  0
LINE
  5
AA6
330
1F
100
AcDbEntity
  8
0
100
AcDbLine
 10
401.769448947987
 20
376.9388237670647
 30
0.0
 11
401.5333168503724
 21
376.3796893991388
 31
0.0
  0
LINE
  5
AA7
330
1F
100
AcDbEntity
  8
0
100
AcDbLine
 10
401.9813549059302
 20
377.503085269448
 30
0.0
 11
401.769448947987
 21
376.9388237670647
 31
0.0
  0
LINE
  5
AA8
330
1F
100
AcDbEntity
  8
0
100
AcDbLine
 10
402.1688255986053
 20
378.0719170483102
 30
0.0
 11
401.9813549059302
 21
377.503085269448
 31
0.0
  0
LINE
  5
AA9
330
1F
100
AcDbEntity
  8
0
100
AcDbLine
 10
402.3316760150721
 20
378.6447577353612
 30
0.0
 11
402.1688255986053
 21
378.0719170483102
 31
0.0
  0
LINE
  5
AAA
330
1F
100
AcDbEntity
  8
0
100
AcDbLine
 10
402.4697454416309
 20
379.2210420060028
 30
0.0
 11
402.3316760150721
 21
378.6447577353612
 31
0.0
  0
LINE
  5
AAB
330
1F
100
AcDbEntity
  8
0
100
AcDbLine
 10
402.5828976204269
 20
379.8002011372356
 30
0.0
 11
402.4697454416309
 21
379.2210420060028
 31
0.0
  0
LINE
  5
AAC
330
1F
100
AcDbEntity
  8
0
100
AcDbLine
 10
402.6710208839205
 20
380.3816635689198
 30
0.0
 11
402.5828976204269
 21
379.8002011372356
 31
0.0
  0
LINE
  5
AAD
330
1F
100
AcDbEntity
  8
0
100
AcDbLine
 10
402.7340282650902
 20
380.9648554678363
 30
0.0
 11
402.6710208839205
 21
380.3816635689198
 31
0.0
  0
LINE
  5
AAE
330
1F
100
AcDbEntity
  8
0
100
AcDbLine
 10
402.7713775414922
 20
381.5492012939901
 30
0.0
 11
402.7340282650902
 21
380.9648554678363
 31
0.0
  0
LINE
  5
AAF
330
1F
100
AcDbEntity
  8
0
100
AcDbLine
 10
376.4191394633524
 20
363.5215703412454
 30
0.0
 11
377.2212185374894
 21
363.5123816353216
 31
0.0
  0
LINE
  5
AB0
330
1F
100
AcDbEntity
  8
0
100
AcDbLine
 10
375.6161782831224
 20
363.5491273908732
 30
0.0
 11
376.4191394633524
 21
363.5215703412454
 31
0.0
  0
LINE
  5
AB1
330
1F
100
AcDbEntity
  8
0
100
AcDbLine
 10
374.8156383276254
 20
363.5950255887242
 30
0.0
 11
375.6161782831224
 21
363.5491273908732
 31
0.0
  0
LINE
  5
AB2
330
1F
100
AcDbEntity
  8
0
100
AcDbLine
 10
374.0174723893664
 20
363.6592196388185
 30
0.0
 11
374.8156383276254
 21
363.5950255887242
 31
0.0
  0
LINE
  5
AB3
330
1F
100
AcDbEntity
  8
0
100
AcDbLine
 10
373.2224681617626
 20
363.7416461893787
 30
0.0
 11
374.0174723893664
 21
363.6592196388185
 31
0.0
  0
LINE
  5
AB4
330
1F
100
AcDbEntity
  8
0
100
AcDbLine
 10
372.4314102180047
 20
363.842223895351
 30
0.0
 11
373.2224681617626
 21
363.7416461893787
 31
0.0
  0
LINE
  5
AB5
330
1F
100
AcDbEntity
  8
0
100
AcDbLine
 10
371.6450792367774
 20
363.9608534986826
 30
0.0
 11
372.4314102180047
 21
363.842223895351
 31
0.0
  0
LINE
  5
AB6
330
1F
100
AcDbEntity
  8
0
100
AcDbLine
 10
370.8642512318246
 20
364.0974179262771
 30
0.0
 11
371.6450792367774
 21
363.9608534986826
 31
0.0
  0
LINE
  5
AB7
330
1F
100
AcDbEntity
  8
0
100
AcDbLine
 10
370.0896967861165
 20
364.2517824055322
 30
0.0
 11
370.8642512318246
 21
364.0974179262771
 31
0.0
  0
LINE
  5
AB8
330
1F
100
AcDbEntity
  8
0
100
AcDbLine
 10
369.322180291378
 20
364.4237945973437
 30
0.0
 11
370.0896967861165
 21
364.2517824055322
 31
0.0
  0
LINE
  5
AB9
330
1F
100
AcDbEntity
  8
0
100
AcDbLine
 10
368.5624591937259
 20
364.6132847464453
 30
0.0
 11
369.322180291378
 21
364.4237945973437
 31
0.0
  0
LINE
  5
ABA
330
1F
100
AcDbEntity
  8
0
100
AcDbLine
 10
367.8112832461614
 20
364.8200658489374
 30
0.0
 11
368.5624591937259
 21
364.6132847464453
 31
0.0
  0
LINE
  5
ABB
330
1F
100
AcDbEntity
  8
0
100
AcDbLine
 10
367.0693937686542
 20
365.0439338368367
 30
0.0
 11
367.8112832461614
 21
364.8200658489374
 31
0.0
  0
LINE
  5
ABC
330
1F
100
AcDbEntity
  8
0
100
AcDbLine
 10
366.3375229165492
 20
365.2846677794672
 30
0.0
 11
367.0693937686542
 21
365.0439338368367
 31
0.0
  0
LINE
  5
ABD
330
1F
100
AcDbEntity
  8
0
100
AcDbLine
 10
365.6163929580175
 20
365.5420301014916
 30
0.0
 11
366.3375229165492
 21
365.2846677794672
 31
0.0
  0
LINE
  5
ABE
330
1F
100
AcDbEntity
  8
0
100
AcDbLine
 10
364.9067155612653
 20
365.8157668173699
 30
0.0
 11
365.6163929580175
 21
365.5420301014916
 31
0.0
  0
LINE
  5
ABF
330
1F
100
AcDbEntity
  8
0
100
AcDbLine
 10
364.2091910922025
 20
366.105607782012
 30
0.0
 11
364.9067155612653
 21
365.8157668173699
 31
0.0
  0
LINE
  5
AC0
330
1F
100
AcDbEntity
  8
0
100
AcDbLine
 10
363.5245079232673
 20
366.4112669573789
 30
0.0
 11
364.2091910922025
 21
366.105607782012
 31
0.0
  0
LINE
  5
AC1
330
1F
100
AcDbEntity
  8
0
100
AcDbLine
 10
362.8533417540842
 20
366.732442694767
 30
0.0
 11
363.5245079232673
 21
366.4112669573789
 31
0.0
  0
LINE
  5
AC2
330
1F
100
AcDbEntity
  8
0
100
AcDbLine
 10
362.1955154422987
 20
367.0688180324996
 30
0.0
 11
362.8533417540842
 21
366.732442694767
 31
0.0
  0
LINE
  5
AC3
330
1F
100
AcDbEntity
  8
0
100
AcDbLine
 10
361.5533204791092
 20
367.4200610087295
 30
0.0
 11
362.1955154422987
 21
367.0688180324996
 31
0.0
  0
LINE
  5
AC4
330
1F
100
AcDbEntity
  8
0
100
AcDbLine
 10
360.9265878396951
 20
367.7858249890452
 30
0.0
 11
361.5533204791092
 21
367.4200610087295
 31
0.0
  0
LINE
  5
AC5
330
1F
100
AcDbEntity
  8
0
100
AcDbLine
 10
360.3159360335051
 20
368.1657490085573
 30
0.0
 11
360.9265878396951
 21
367.7858249890452
 31
0.0
  0
LINE
  5
AC6
330
1F
100
AcDbEntity
  8
0
100
AcDbLine
 10
359.721967700147
 20
368.5594581281274
 30
0.0
 11
360.3159360335051
 21
368.1657490085573
 31
0.0
  0
LINE
  5
AC7
330
1F
100
AcDbEntity
  8
0
100
AcDbLine
 10
359.1452690146553
 20
368.9665638043875
 30
0.0
 11
359.721967700147
 21
368.5594581281274
 31
0.0
  0
LINE
  5
AC8
330
1F
100
AcDbEntity
  8
0
100
AcDbLine
 10
358.5864091090067
 20
369.3866642731857
 30
0.0
 11
359.1452690146553
 21
368.9665638043875
 31
0.0
  0
LINE
  5
AC9
330
1F
100
AcDbEntity
  8
0
100
AcDbLine
 10
358.0459395104564
 20
369.8193449460786
 30
0.0
 11
358.5864091090067
 21
369.3866642731857
 31
0.0
  0
LINE
  5
ACA
330
1F
100
AcDbEntity
  8
0
100
AcDbLine
 10
357.5243935972461
 20
370.26417881948
 30
0.0
 11
358.0459395104564
 21
369.8193449460786
 31
0.0
  0
LINE
  5
ACB
330
1F
100
AcDbEntity
  8
0
100
AcDbLine
 10
357.0222860722254
 20
370.7207268960626
 30
0.0
 11
357.5243935972461
 21
370.26417881948
 31
0.0
  0
LINE
  5
ACC
330
1F
100
AcDbEntity
  8
0
100
AcDbLine
 10
356.5401124549012
 20
371.1885386179944
 30
0.0
 11
357.0222860722254
 21
370.7207268960626
 31
0.0
  0
LINE
  5
ACD
330
1F
100
AcDbEntity
  8
0
100
AcDbLine
 10
356.0783485924203
 20
371.6671523115855
 30
0.0
 11
356.5401124549012
 21
371.1885386179944
 31
0.0
  0
LINE
  5
ACE
330
1F
100
AcDbEntity
  8
0
100
AcDbLine
 10
355.6374501899656
 20
372.156095642904
 30
0.0
 11
356.0783485924203
 21
371.6671523115855
 31
0.0
  0
LINE
  5
ACF
330
1F
100
AcDbEntity
  8
0
100
AcDbLine
 10
355.21785236103
 20
372.6548860839128
 30
0.0
 11
355.6374501899656
 21
372.156095642904
 31
0.0
  0
LINE
  5
AD0
330
1F
100
AcDbEntity
  8
0
100
AcDbLine
 10
354.819969198012
 20
373.1630313886662
 30
0.0
 11
355.21785236103
 21
372.6548860839128
 31
0.0
  0
LINE
  5
AD1
330
1F
100
AcDbEntity
  8
0
100
AcDbLine
 10
354.4441933635563
 20
373.6800300790977
 30
0.0
 11
354.819969198012
 21
373.1630313886662
 31
0.0
  0
LINE
  5
AD2
330
1F
100
AcDbEntity
  8
0
100
AcDbLine
 10
354.0908957030439
 20
374.2053719399176
 30
0.0
 11
354.4441933635563
 21
373.6800300790977
 31
0.0
  0
LINE
  5
AD3
330
1F
100
AcDbEntity
  8
0
100
AcDbLine
 10
353.7604248786113
 20
374.7385385221349
 30
0.0
 11
354.0908957030439
 21
374.2053719399176
 31
0.0
  0
LINE
  5
AD4
330
1F
100
AcDbEntity
  8
0
100
AcDbLine
 10
353.453107025064
 20
375.2790036547028
 30
0.0
 11
353.7604248786113
 21
374.7385385221349
 31
0.0
  0
LINE
  5
AD5
330
1F
100
AcDbEntity
  8
0
100
AcDbLine
 10
353.1692454280206
 20
375.8262339637864
 30
0.0
 11
353.453107025064
 21
375.2790036547028
 31
0.0
  0
LINE
  5
AD6
330
1F
100
AcDbEntity
  8
0
100
AcDbLine
 10
352.9091202246064
 20
376.3796893991388
 30
0.0
 11
353.1692454280206
 21
375.8262339637864
 31
0.0
  0
LINE
  5
AD7
330
1F
100
AcDbEntity
  8
0
100
AcDbLine
 10
352.6729881269918
 20
376.9388237670647
 30
0.0
 11
352.9091202246064
 21
376.3796893991388
 31
0.0
  0
LINE
  5
AD8
330
1F
100
AcDbEntity
  8
0
100
AcDbLine
 10
352.4610821690486
 20
377.503085269448
 30
0.0
 11
352.6729881269918
 21
376.9388237670647
 31
0.0
  0
LINE
  5
AD9
330
1F
100
AcDbEntity
  8
0
100
AcDbLine
 10
352.2736114763735
 20
378.0719170483102
 30
0.0
 11
352.4610821690486
 21
377.503085269448
 31
0.0
  0
LINE
  5
ADA
330
1F
100
AcDbEntity
  8
0
100
AcDbLine
 10
352.1107610599067
 20
378.6447577353612
 30
0.0
 11
352.2736114763735
 21
378.0719170483102
 31
0.0
  0
LINE
  5
ADB
330
1F
100
AcDbEntity
  8
0
100
AcDbLine
 10
351.972691633348
 20
379.2210420060028
 30
0.0
 11
352.1107610599067
 21
378.6447577353612
 31
0.0
  0
LINE
  5
ADC
330
1F
100
AcDbEntity
  8
0
100
AcDbLine
 10
351.859539454552
 20
379.8002011372356
 30
0.0
 11
351.972691633348
 21
379.2210420060028
 31
0.0
  0
LINE
  5
ADD
330
1F
100
AcDbEntity
  8
0
100
AcDbLine
 10
351.7714161910583
 20
380.3816635689198
 30
0.0
 11
351.859539454552
 21
379.8002011372356
 31
0.0
  0
LINE
  5
ADE
330
1F
100
AcDbEntity
  8
0
100
AcDbLine
 10
351.7084088098886
 20
380.9648554678363
 30
0.0
 11
351.7714161910583
 21
380.3816635689198
 31
0.0
  0
LINE
  5
ADF
330
1F
100
AcDbEntity
  8
0
100
AcDbLine
 10
351.6705794917212
 20
381.5492012939901
 30
0.0
 11
351.7084088098886
 21
380.9648554678363
 31
0.0
  0
LINE
  5
AE0
330
1F
100
AcDbEntity
  8
0
100
AcDbLine
 10
351.657965569526
 20
382.1341243686001
 30
0.0
 11
351.6705794917212
 21
381.5492012939901
 31
0.0
  0
LINE
  5
AE1
330
1F
100
AcDbEntity
  8
0
100
AcDbLine
 10
351.6705794917212
 20
382.7190474432099
 30
0.0
 11
351.657965569526
 21
382.1341243686001
 31
0.0
  0
LINE
  5
AE2
330
1F
100
AcDbEntity
  8
0
100
AcDbLine
 10
351.7084088098886
 20
383.3033932693638
 30
0.0
 11
351.6705794917212
 21
382.7190474432099
 31
0.0
  0
LINE
  5
AE3
330
1F
100
AcDbEntity
  8
0
100
AcDbLine
 10
351.7714161910583
 20
383.8865851682801
 30
0.0
 11
351.7084088098886
 21
383.3033932693638
 31
0.0
  0
LINE
  5
AE4
330
1F
100
AcDbEntity
  8
0
100
AcDbLine
 10
351.859539454552
 20
384.4680475999644
 30
0.0
 11
351.7714161910583
 21
383.8865851682801
 31
0.0
  0
LINE
  5
AE5
330
1F
100
AcDbEntity
  8
0
100
AcDbLine
 10
351.972691633348
 20
385.0472067311972
 30
0.0
 11
351.859539454552
 21
384.4680475999644
 31
0.0
  0
LINE
  5
AE6
330
1F
100
AcDbEntity
  8
0
100
AcDbLine
 10
352.1107610599067
 20
385.6234910018389
 30
0.0
 11
351.972691633348
 21
385.0472067311972
 31
0.0
  0
LINE
  5
AE7
330
1F
100
AcDbEntity
  8
0
100
AcDbLine
 10
352.2736114763735
 20
386.1963316888899
 30
0.0
 11
352.1107610599067
 21
385.6234910018389
 31
0.0
  0
LINE
  5
AE8
330
1F
100
AcDbEntity
  8
0
100
AcDbLine
 10
352.4670315293735
 20
386.765163467752
 30
0.0
 11
352.2736114763735
 21
386.1963316888899
 31
0.0
  0
LINE
  5
AF5
330
1F
100
AcDbEntity
  8
0
100
AcDbLine
 10
581.6213593778867
 20
528.2509554462125
 30
0.0
 11
586.3342802377433
 21
498.8802590192009
 31
0.0
  0
LINE
  5
AF6
330
1F
100
AcDbEntity
  8
0
100
AcDbLine
 10
593.5340742849883
 20
455.9546436303543
 30
0.0
 11
596.2396380183877
 21
440.1791820436744
 31
0.0
  0
LINE
  5
AF7
330
1F
100
AcDbEntity
  8
0
100
AcDbLine
 10
568.442473346486
 20
616.4383684521864
 30
0.0
 11
572.6753885741848
 21
587.0304527389072
 31
0.0
  0
LINE
  5
AF8
330
1F
100
AcDbEntity
  8
0
100
AcDbLine
 10
596.2396380183877
 20
440.1791820436744
 30
0.0
 11
601.4319257757478
 21
410.8496854666424
 31
0.0
  0
LINE
  5
AF9
330
1F
100
AcDbEntity
  8
0
100
AcDbLine
 10
572.6753885741848
 20
587.0304527389072
 30
0.0
 11
577.0683726357646
 21
557.634500847044
 31
0.0
  0
LINE
  5
AFA
330
1F
100
AcDbEntity
  8
0
100
AcDbLine
 10
586.3342802377433
 20
498.8802590192009
 30
0.0
 11
591.2070642441057
 21
469.5228538553063
 31
0.0
  0
LINE
  5
AFB
330
1F
100
AcDbEntity
  8
0
100
AcDbLine
 10
556.7047660376269
 20
704.7294691619567
 30
0.0
 11
560.4571019529016
 21
675.2883197703919
 31
0.0
  0
LINE
  5
AFC
330
1F
100
AcDbEntity
  8
0
100
AcDbLine
 10
560.4571019529016
 20
675.2883197703919
 30
0.0
 11
564.3696906955675
 21
645.8578051371048
 31
0.0
  0
LINE
  5
AFD
330
1F
100
AcDbEntity
  8
0
100
AcDbLine
 10
564.3696906955675
 20
645.8578051371048
 30
0.0
 11
568.442473346486
 21
616.4383684521864
 31
0.0
  0
LINE
  5
B15
330
1F
100
AcDbEntity
  8
0
100
AcDbLine
 10
591.2070642441057
 20
469.5228538553063
 30
0.0
 11
592.3687003930426
 21
462.7496456624861
 31
0.0
  0
LINE
  5
B16
330
1F
100
AcDbEntity
  8
0
100
AcDbLine
 10
592.5306413417354
 20
462.1228110485313
 30
0.0
 11
592.3687003930426
 21
462.7496456624861
 31
0.0
  0
LINE
  5
B17
330
1F
100
AcDbEntity
  8
0
100
AcDbLine
 10
592.9863870260089
 20
459.9285521606441
 30
0.0
 11
592.5306413417354
 21
462.1228110485313
 31
0.0
  0
LINE
  5
B18
330
1F
100
AcDbEntity
  8
0
100
AcDbLine
 10
593.3385714793038
 20
457.7342932727569
 30
0.0
 11
592.9863870260089
 21
459.9285521606441
 31
0.0
  0
LINE
  5
B19
330
1F
100
AcDbEntity
  8
0
100
AcDbLine
 10
597.3343141162041
 20
708.2543060511583
 30
0.0
 11
603.574916976818
 21
679.0290275105844
 31
0.0
  0
LINE
  5
B1A
330
1F
100
AcDbEntity
  8
0
100
AcDbLine
 10
603.574916976818
 20
679.0290275105844
 30
0.0
 11
609.6563641254022
 21
649.7866732797181
 31
0.0
  0
LINE
  5
B1B
330
1F
100
AcDbEntity
  8
0
100
AcDbLine
 10
609.6563641254022
 20
649.7866732797181
 30
0.0
 11
615.5785639822765
 21
620.5276837151682
 31
0.0
  0
LINE
  5
B1C
330
1F
100
AcDbEntity
  8
0
100
AcDbLine
 10
615.5785639822765
 20
620.5276837151682
 30
0.0
 11
621.3414273658405
 21
591.2524994240533
 31
0.0
  0
LINE
  5
B1D
330
1F
100
AcDbEntity
  8
0
100
AcDbLine
 10
621.3414273658405
 20
591.2524994240533
 30
0.0
 11
626.944867493931
 21
561.961561257367
 31
0.0
  0
LINE
  5
B1E
330
1F
100
AcDbEntity
  8
0
100
AcDbLine
 10
632.3887999851038
 20
532.6553103033372
 30
0.0
 11
637.6731428599278
 21
503.3341878807858
 31
0.0
  0
LINE
  5
B1F
330
1F
100
AcDbEntity
  8
0
100
AcDbLine
 10
637.6731428599278
 20
503.3341878807858
 30
0.0
 11
642.7978165422059
 21
473.9986355324813
 31
0.0
  0
LINE
  5
B20
330
1F
100
AcDbEntity
  8
0
100
AcDbLine
 10
642.7978165422059
 20
473.9986355324813
 30
0.0
 11
647.7627438601773
 21
444.6490950184912
 31
0.0
  0
LINE
  5
B21
330
1F
100
AcDbEntity
  8
0
100
AcDbLine
 10
647.7627438601773
 20
444.6490950184912
 30
0.0
 11
652.5678500476829
 21
415.2860083095285
 31
0.0
  0
LINE
  5
B22
330
1F
100
AcDbEntity
  8
0
100
AcDbLine
 10
592.3687003930426
 20
462.7496456624861
 30
0.0
 11
592.9828285440008
 21
459.2196075821905
 31
0.0
  0
LINE
  5
B23
330
1F
100
AcDbEntity
  8
0
100
AcDbLine
 10
592.9828285440008
 20
459.2196075821905
 30
0.0
 11
592.9863870260089
 21
459.9285521606441
 31
0.0
  0
LINE
  5
B24
330
1F
100
AcDbEntity
  8
0
100
AcDbLine
 10
592.9828285440008
 20
459.2196075821905
 30
0.0
 11
593.3385714793038
 21
457.7342932727569
 31
0.0
  0
LINE
  5
B25
330
1F
100
AcDbEntity
  8
0
100
AcDbLine
 10
593.4363228821459
 20
456.8444684515556
 30
0.0
 11
593.3385714793038
 21
457.7342932727569
 31
0.0
  0
LINE
  5
B26
330
1F
100
AcDbEntity
  8
0
100
AcDbLine
 10
592.9828285440008
 20
459.2196075821905
 30
0.0
 11
593.4363228821459
 21
456.8444684515556
 31
0.0
  0
LINE
  5
B47
330
1F
100
AcDbEntity
  8
0
100
AcDbLine
 10
657.6203994843702
 20
385.6234910018391
 30
0.0
 11
657.4570257489125
 21
386.1963316888901
 31
0.0
  0
LINE
  5
B48
330
1F
100
AcDbEntity
  8
0
100
AcDbLine
 10
657.4570257489125
 20
386.1963316888901
 30
0.0
 11
657.2689526201133
 21
386.7651634677522
 31
0.0
  0
LINE
  5
B49
330
1F
100
AcDbEntity
  8
0
100
AcDbLine
 10
657.7589125963339
 20
385.0472067311974
 30
0.0
 11
657.6203994843702
 21
385.6234910018391
 31
0.0
  0
LINE
  5
B4A
330
1F
100
AcDbEntity
  8
0
100
AcDbLine
 10
657.8724283890849
 20
384.4680475999646
 30
0.0
 11
657.7589125963339
 21
385.0472067311974
 31
0.0
  0
LINE
  5
B4B
330
1F
100
AcDbEntity
  8
0
100
AcDbLine
 10
657.0563657034445
 20
387.3294249701355
 30
0.0
 11
656.9521408346921
 21
387.5598801953087
 31
0.0
  0
LINE
  5
B4C
330
1F
100
AcDbEntity
  8
0
100
AcDbLine
 10
657.2689526201133
 20
386.7651634677522
 30
0.0
 11
657.0563657034445
 21
387.3294249701355
 31
0.0
  0
LINE
  5
B4D
330
1F
100
AcDbEntity
  8
0
100
AcDbLine
 10
632.4292496785033
 20
363.5123816353218
 30
0.0
 11
633.2347911704305
 21
363.5215703412456
 31
0.0
  0
LINE
  5
B4E
330
1F
100
AcDbEntity
  8
0
100
AcDbLine
 10
633.2347911704305
 20
363.5215703412456
 30
0.0
 11
634.0395376901595
 21
363.5491273908734
 31
0.0
  0
LINE
  5
B4F
330
1F
100
AcDbEntity
  8
0
100
AcDbLine
 10
634.0395376901595
 20
363.5491273908734
 30
0.0
 11
634.8426950500334
 21
363.5950255887244
 31
0.0
  0
LINE
  5
B50
330
1F
100
AcDbEntity
  8
0
100
AcDbLine
 10
634.8426950500334
 20
363.5950255887244
 30
0.0
 11
635.6434706307043
 21
363.6592196388187
 31
0.0
  0
LINE
  5
B51
330
1F
100
AcDbEntity
  8
0
100
AcDbLine
 10
635.6434706307043
 20
363.6592196388187
 30
0.0
 11
636.441074163353
 21
363.7416461893789
 31
0.0
  0
LINE
  5
B52
330
1F
100
AcDbEntity
  8
0
100
AcDbLine
 10
636.441074163353
 20
363.7416461893789
 30
0.0
 11
637.2347185095886
 21
363.8422238953513
 31
0.0
  0
LINE
  5
B53
330
1F
100
AcDbEntity
  8
0
100
AcDbLine
 10
637.2347185095886
 20
363.8422238953513
 30
0.0
 11
638.0236204382592
 21
363.9608534986828
 31
0.0
  0
LINE
  5
B54
330
1F
100
AcDbEntity
  8
0
100
AcDbLine
 10
638.0236204382592
 20
363.9608534986828
 30
0.0
 11
638.8070013984065
 21
364.0974179262773
 31
0.0
  0
LINE
  5
B55
330
1F
100
AcDbEntity
  8
0
100
AcDbLine
 10
638.8070013984065
 20
364.0974179262773
 30
0.0
 11
639.5840882876016
 21
364.2517824055325
 31
0.0
  0
LINE
  5
B56
330
1F
100
AcDbEntity
  8
0
100
AcDbLine
 10
639.5840882876016
 20
364.2517824055325
 30
0.0
 11
640.3541142149037
 21
364.4237945973439
 31
0.0
  0
LINE
  5
B57
330
1F
100
AcDbEntity
  8
0
100
AcDbLine
 10
640.3541142149037
 20
364.4237945973439
 30
0.0
 11
641.1163192576887
 21
364.6132847464455
 31
0.0
  0
LINE
  5
B58
330
1F
100
AcDbEntity
  8
0
100
AcDbLine
 10
641.1163192576887
 20
364.6132847464455
 30
0.0
 11
641.8699512116018
 21
364.8200658489376
 31
0.0
  0
LINE
  5
B59
330
1F
100
AcDbEntity
  8
0
100
AcDbLine
 10
641.8699512116018
 20
364.8200658489376
 30
0.0
 11
642.6142663328914
 21
365.0439338368369
 31
0.0
  0
LINE
  5
B5A
330
1F
100
AcDbEntity
  8
0
100
AcDbLine
 10
642.6142663328914
 20
365.0439338368369
 30
0.0
 11
643.348530072395
 21
365.2846677794674
 31
0.0
  0
LINE
  5
B5B
330
1F
100
AcDbEntity
  8
0
100
AcDbLine
 10
643.348530072395
 20
365.2846677794674
 30
0.0
 11
644.0720178004506
 21
365.5420301014918
 31
0.0
  0
LINE
  5
B5C
330
1F
100
AcDbEntity
  8
0
100
AcDbLine
 10
644.0720178004506
 20
365.5420301014918
 30
0.0
 11
644.7840155220183
 21
365.8157668173701
 31
0.0
  0
LINE
  5
B5D
330
1F
100
AcDbEntity
  8
0
100
AcDbLine
 10
644.7840155220183
 20
365.8157668173701
 30
0.0
 11
645.4838205813074
 21
366.1056077820122
 31
0.0
  0
LINE
  5
B5E
330
1F
100
AcDbEntity
  8
0
100
AcDbLine
 10
645.4838205813074
 20
366.1056077820122
 30
0.0
 11
646.1707423552128
 21
366.411266957379
 31
0.0
  0
LINE
  5
B5F
330
1F
100
AcDbEntity
  8
0
100
AcDbLine
 10
646.1707423552128
 20
366.411266957379
 30
0.0
 11
646.8441029348769
 21
366.7324426947672
 31
0.0
  0
LINE
  5
B60
330
1F
100
AcDbEntity
  8
0
100
AcDbLine
 10
646.8441029348769
 20
366.7324426947672
 30
0.0
 11
647.5032377947031
 21
367.0688180324999
 31
0.0
  0
LINE
  5
B61
330
1F
100
AcDbEntity
  8
0
100
AcDbLine
 10
647.5032377947031
 20
367.0688180324999
 30
0.0
 11
648.1474964481635
 21
367.4200610087297
 31
0.0
  0
LINE
  5
B62
330
1F
100
AcDbEntity
  8
0
100
AcDbLine
 10
648.1474964481635
 20
367.4200610087297
 30
0.0
 11
648.7762430897491
 21
367.7858249890454
 31
0.0
  0
LINE
  5
B63
330
1F
100
AcDbEntity
  8
0
100
AcDbLine
 10
648.7762430897491
 20
367.7858249890454
 30
0.0
 11
649.3888572224342
 21
368.1657490085576
 31
0.0
  0
LINE
  5
B64
330
1F
100
AcDbEntity
  8
0
100
AcDbLine
 10
649.3888572224342
 20
368.1657490085576
 30
0.0
 11
649.9847342700316
 21
368.5594581281276
 31
0.0
  0
LINE
  5
B65
330
1F
100
AcDbEntity
  8
0
100
AcDbLine
 10
649.9847342700316
 20
368.5594581281276
 30
0.0
 11
650.5632861738367
 21
368.9665638043877
 31
0.0
  0
LINE
  5
B66
330
1F
100
AcDbEntity
  8
0
100
AcDbLine
 10
650.5632861738367
 20
368.9665638043877
 30
0.0
 11
651.1239419729695
 21
369.386664273186
 31
0.0
  0
LINE
  5
B67
330
1F
100
AcDbEntity
  8
0
100
AcDbLine
 10
651.1239419729695
 20
369.386664273186
 30
0.0
 11
651.6661483678452
 21
369.8193449460787
 31
0.0
  0
LINE
  5
B68
330
1F
100
AcDbEntity
  8
0
100
AcDbLine
 10
651.6661483678452
 20
369.8193449460787
 30
0.0
 11
652.1893702662135
 21
370.2641788194802
 31
0.0
  0
LINE
  5
B69
330
1F
100
AcDbEntity
  8
0
100
AcDbLine
 10
652.1893702662135
 20
370.2641788194802
 30
0.0
 11
652.6930913112301
 21
370.7207268960628
 31
0.0
  0
LINE
  5
B6A
330
1F
100
AcDbEntity
  8
0
100
AcDbLine
 10
652.6930913112301
 20
370.7207268960628
 30
0.0
 11
653.1768143910383
 21
371.1885386179947
 31
0.0
  0
LINE
  5
B6B
330
1F
100
AcDbEntity
  8
0
100
AcDbLine
 10
653.1768143910383
 20
371.1885386179947
 30
0.0
 11
653.6400621293591
 21
371.6671523115857
 31
0.0
  0
LINE
  5
B6C
330
1F
100
AcDbEntity
  8
0
100
AcDbLine
 10
653.6400621293591
 20
371.6671523115857
 30
0.0
 11
654.0823773566033
 21
372.1560956429042
 31
0.0
  0
LINE
  5
B6D
330
1F
100
AcDbEntity
  8
0
100
AcDbLine
 10
654.0823773566033
 20
372.1560956429042
 30
0.0
 11
654.503323561043
 21
372.654886083913
 31
0.0
  0
LINE
  5
B6E
330
1F
100
AcDbEntity
  8
0
100
AcDbLine
 10
654.503323561043
 20
372.654886083913
 30
0.0
 11
654.9024853195959
 21
373.1630313886665
 31
0.0
  0
LINE
  5
B6F
330
1F
100
AcDbEntity
  8
0
100
AcDbLine
 10
654.9024853195959
 20
373.1630313886665
 30
0.0
 11
655.2794687077977
 21
373.6800300790979
 31
0.0
  0
LINE
  5
B70
330
1F
100
AcDbEntity
  8
0
100
AcDbLine
 10
655.2794687077977
 20
373.6800300790979
 30
0.0
 11
655.633901688558
 21
374.2053719399179
 31
0.0
  0
LINE
  5
B71
330
1F
100
AcDbEntity
  8
0
100
AcDbLine
 10
655.633901688558
 20
374.2053719399179
 30
0.0
 11
655.9654344793158
 21
374.7385385221352
 31
0.0
  0
LINE
  5
B72
330
1F
100
AcDbEntity
  8
0
100
AcDbLine
 10
655.9654344793158
 20
374.7385385221352
 30
0.0
 11
656.2737398972334
 21
375.2790036547029
 31
0.0
  0
LINE
  5
B73
330
1F
100
AcDbEntity
  8
0
100
AcDbLine
 10
656.2737398972334
 20
375.2790036547029
 30
0.0
 11
656.5585136820852
 21
375.8262339637866
 31
0.0
  0
LINE
  5
B74
330
1F
100
AcDbEntity
  8
0
100
AcDbLine
 10
656.5585136820852
 20
375.8262339637866
 30
0.0
 11
656.8194747965268
 21
376.379689399139
 31
0.0
  0
LINE
  5
B75
330
1F
100
AcDbEntity
  8
0
100
AcDbLine
 10
656.8194747965268
 20
376.379689399139
 30
0.0
 11
657.0563657034446
 21
376.938823767065
 31
0.0
  0
LINE
  5
B76
330
1F
100
AcDbEntity
  8
0
100
AcDbLine
 10
657.0563657034446
 20
376.938823767065
 30
0.0
 11
657.2689526201133
 21
377.5030852694483
 31
0.0
  0
LINE
  5
B77
330
1F
100
AcDbEntity
  8
0
100
AcDbLine
 10
657.2689526201133
 20
377.5030852694483
 30
0.0
 11
657.4570257489125
 21
378.0719170483104
 31
0.0
  0
LINE
  5
B78
330
1F
100
AcDbEntity
  8
0
100
AcDbLine
 10
657.4570257489125
 20
378.0719170483104
 30
0.0
 11
657.6203994843702
 21
378.6447577353613
 31
0.0
  0
LINE
  5
B79
330
1F
100
AcDbEntity
  8
0
100
AcDbLine
 10
657.6203994843702
 20
378.6447577353613
 30
0.0
 11
657.7589125963339
 21
379.221042006003
 31
0.0
  0
LINE
  5
B7A
330
1F
100
AcDbEntity
  8
0
100
AcDbLine
 10
657.7589125963339
 20
379.221042006003
 30
0.0
 11
657.8724283890849
 21
379.8002011372358
 31
0.0
  0
LINE
  5
B7B
330
1F
100
AcDbEntity
  8
0
100
AcDbLine
 10
657.8724283890849
 20
379.8002011372358
 30
0.0
 11
657.9608348362407
 21
380.3816635689201
 31
0.0
  0
LINE
  5
B7C
330
1F
100
AcDbEntity
  8
0
100
AcDbLine
 10
657.9608348362407
 20
380.3816635689201
 30
0.0
 11
658.0240446913117
 21
380.9648554678365
 31
0.0
  0
LINE
  5
B7D
330
1F
100
AcDbEntity
  8
0
100
AcDbLine
 10
658.0240446913117
 20
380.9648554678365
 30
0.0
 11
658.0619955738019
 21
381.5492012939903
 31
0.0
  0
LINE
  5
B7E
330
1F
100
AcDbEntity
  8
0
100
AcDbLine
 10
658.0619955738019
 20
381.5492012939903
 30
0.0
 11
658.0746500307724
 21
382.1341243686002
 31
0.0
  0
LINE
  5
B7F
330
1F
100
AcDbEntity
  8
0
100
AcDbLine
 10
658.0746500307724
 20
382.1341243686002
 30
0.0
 11
658.0619955738019
 21
382.7190474432101
 31
0.0
  0
LINE
  5
B80
330
1F
100
AcDbEntity
  8
0
100
AcDbLine
 10
658.0619955738019
 20
382.7190474432101
 30
0.0
 11
658.0240446913117
 21
383.303393269364
 31
0.0
  0
LINE
  5
B81
330
1F
100
AcDbEntity
  8
0
100
AcDbLine
 10
658.0240446913117
 20
383.303393269364
 30
0.0
 11
657.9608348362407
 21
383.8865851682804
 31
0.0
  0
LINE
  5
B82
330
1F
100
AcDbEntity
  8
0
100
AcDbLine
 10
657.9608348362407
 20
383.8865851682804
 30
0.0
 11
657.8724283890849
 21
384.4680475999646
 31
0.0
  0
LINE
  5
B83
330
1F
100
AcDbEntity
  8
0
100
AcDbLine
 10
631.6252977387016
 20
363.5215703412456
 30
0.0
 11
632.4292496785033
 21
363.5123816353218
 31
0.0
  0
LINE
  5
B84
330
1F
100
AcDbEntity
  8
0
100
AcDbLine
 10
630.8197562467744
 20
363.5491273908734
 30
0.0
 11
631.6252977387016
 21
363.5215703412456
 31
0.0
  0
LINE
  5
B85
330
1F
100
AcDbEntity
  8
0
100
AcDbLine
 10
630.0158043069729
 20
363.5950255887244
 30
0.0
 11
630.8197562467744
 21
363.5491273908734
 31
0.0
  0
LINE
  5
B86
330
1F
100
AcDbEntity
  8
0
100
AcDbLine
 10
629.215028726302
 20
363.6592196388187
 30
0.0
 11
630.0158043069729
 21
363.5950255887244
 31
0.0
  0
LINE
  5
B87
330
1F
100
AcDbEntity
  8
0
100
AcDbLine
 10
628.4174251936534
 20
363.7416461893789
 30
0.0
 11
629.215028726302
 21
363.6592196388187
 31
0.0
  0
LINE
  5
B88
330
1F
100
AcDbEntity
  8
0
100
AcDbLine
 10
627.6237808474177
 20
363.8422238953513
 30
0.0
 11
628.4174251936534
 21
363.7416461893789
 31
0.0
  0
LINE
  5
B89
330
1F
100
AcDbEntity
  8
0
100
AcDbLine
 10
626.8348789187471
 20
363.9608534986828
 30
0.0
 11
627.6237808474177
 21
363.8422238953513
 31
0.0
  0
LINE
  5
B8A
330
1F
100
AcDbEntity
  8
0
100
AcDbLine
 10
626.0514979585997
 20
364.0974179262773
 30
0.0
 11
626.8348789187471
 21
363.9608534986828
 31
0.0
  0
LINE
  5
B8B
330
1F
100
AcDbEntity
  8
0
100
AcDbLine
 10
625.2744110694046
 20
364.2517824055325
 30
0.0
 11
626.0514979585997
 21
364.0974179262773
 31
0.0
  0
LINE
  5
B8C
330
1F
100
AcDbEntity
  8
0
100
AcDbLine
 10
624.5043851421026
 20
364.4237945973439
 30
0.0
 11
625.2744110694046
 21
364.2517824055325
 31
0.0
  0
LINE
  5
B8D
330
1F
100
AcDbEntity
  8
0
100
AcDbLine
 10
623.7421800993176
 20
364.6132847464455
 30
0.0
 11
624.5043851421026
 21
364.4237945973439
 31
0.0
  0
LINE
  5
B8E
330
1F
100
AcDbEntity
  8
0
100
AcDbLine
 10
622.9885481454045
 20
364.8200658489376
 30
0.0
 11
623.7421800993176
 21
364.6132847464455
 31
0.0
  0
LINE
  5
B8F
330
1F
100
AcDbEntity
  8
0
100
AcDbLine
 10
622.2442330241149
 20
365.0439338368369
 30
0.0
 11
622.9885481454045
 21
364.8200658489376
 31
0.0
  0
LINE
  5
B90
330
1F
100
AcDbEntity
  8
0
100
AcDbLine
 10
621.5099692846113
 20
365.2846677794674
 30
0.0
 11
622.2442330241149
 21
365.0439338368369
 31
0.0
  0
LINE
  5
B91
330
1F
100
AcDbEntity
  8
0
100
AcDbLine
 10
620.7864815565556
 20
365.5420301014918
 30
0.0
 11
621.5099692846113
 21
365.2846677794674
 31
0.0
  0
LINE
  5
B92
330
1F
100
AcDbEntity
  8
0
100
AcDbLine
 10
620.0744838349879
 20
365.8157668173701
 30
0.0
 11
620.7864815565556
 21
365.5420301014918
 31
0.0
  0
LINE
  5
B93
330
1F
100
AcDbEntity
  8
0
100
AcDbLine
 10
619.3746787756989
 20
366.1056077820122
 30
0.0
 11
620.0744838349879
 21
365.8157668173701
 31
0.0
  0
LINE
  5
B94
330
1F
100
AcDbEntity
  8
0
100
AcDbLine
 10
618.6877570017934
 20
366.411266957379
 30
0.0
 11
619.3746787756989
 21
366.1056077820122
 31
0.0
  0
LINE
  5
B95
330
1F
100
AcDbEntity
  8
0
100
AcDbLine
 10
618.0143964221294
 20
366.7324426947672
 30
0.0
 11
618.6877570017934
 21
366.411266957379
 31
0.0
  0
LINE
  5
B96
330
1F
100
AcDbEntity
  8
0
100
AcDbLine
 10
617.355261562303
 20
367.0688180324999
 30
0.0
 11
618.0143964221294
 21
366.7324426947672
 31
0.0
  0
LINE
  5
B97
330
1F
100
AcDbEntity
  8
0
100
AcDbLine
 10
616.7110029088428
 20
367.4200610087297
 30
0.0
 11
617.355261562303
 21
367.0688180324999
 31
0.0
  0
LINE
  5
B98
330
1F
100
AcDbEntity
  8
0
100
AcDbLine
 10
616.0822562672572
 20
367.7858249890454
 30
0.0
 11
616.7110029088428
 21
367.4200610087297
 31
0.0
  0
LINE
  5
B99
330
1F
100
AcDbEntity
  8
0
100
AcDbLine
 10
615.4696421345721
 20
368.1657490085576
 30
0.0
 11
616.0822562672572
 21
367.7858249890454
 31
0.0
  0
LINE
  5
B9A
330
1F
100
AcDbEntity
  8
0
100
AcDbLine
 10
614.8737650869747
 20
368.5594581281276
 30
0.0
 11
615.4696421345721
 21
368.1657490085576
 31
0.0
  0
LINE
  5
B9B
330
1F
100
AcDbEntity
  8
0
100
AcDbLine
 10
614.2952131831697
 20
368.9665638043877
 30
0.0
 11
614.8737650869747
 21
368.5594581281276
 31
0.0
  0
LINE
  5
B9C
330
1F
100
AcDbEntity
  8
0
100
AcDbLine
 10
613.7345573840368
 20
369.386664273186
 30
0.0
 11
614.2952131831697
 21
368.9665638043877
 31
0.0
  0
LINE
  5
B9D
330
1F
100
AcDbEntity
  8
0
100
AcDbLine
 10
613.1923509891611
 20
369.8193449460787
 30
0.0
 11
613.7345573840368
 21
369.386664273186
 31
0.0
  0
LINE
  5
B9E
330
1F
100
AcDbEntity
  8
0
100
AcDbLine
 10
612.6691290907928
 20
370.2641788194802
 30
0.0
 11
613.1923509891611
 21
369.8193449460787
 31
0.0
  0
LINE
  5
B9F
330
1F
100
AcDbEntity
  8
0
100
AcDbLine
 10
612.1654080457763
 20
370.7207268960628
 30
0.0
 11
612.6691290907928
 21
370.2641788194802
 31
0.0
  0
LINE
  5
BA0
330
1F
100
AcDbEntity
  8
0
100
AcDbLine
 10
611.6816849659681
 20
371.1885386179947
 30
0.0
 11
612.1654080457763
 21
370.7207268960628
 31
0.0
  0
LINE
  5
BA1
330
1F
100
AcDbEntity
  8
0
100
AcDbLine
 10
611.2184372276473
 20
371.6671523115857
 30
0.0
 11
611.6816849659681
 21
371.1885386179947
 31
0.0
  0
LINE
  5
BA2
330
1F
100
AcDbEntity
  8
0
100
AcDbLine
 10
610.776122000403
 20
372.1560956429042
 30
0.0
 11
611.2184372276473
 21
371.6671523115857
 31
0.0
  0
LINE
  5
BA3
330
1F
100
AcDbEntity
  8
0
100
AcDbLine
 10
610.3551757959633
 20
372.654886083913
 30
0.0
 11
610.776122000403
 21
372.1560956429042
 31
0.0
  0
LINE
  5
BA4
330
1F
100
AcDbEntity
  8
0
100
AcDbLine
 10
609.9560140374104
 20
373.1630313886665
 30
0.0
 11
610.3551757959633
 21
372.654886083913
 31
0.0
  0
LINE
  5
BA5
330
1F
100
AcDbEntity
  8
0
100
AcDbLine
 10
609.5790306492085
 20
373.6800300790979
 30
0.0
 11
609.9560140374104
 21
373.1630313886665
 31
0.0
  0
LINE
  5
BA6
330
1F
100
AcDbEntity
  8
0
100
AcDbLine
 10
609.2245976684483
 20
374.2053719399179
 30
0.0
 11
609.5790306492085
 21
373.6800300790979
 31
0.0
  0
LINE
  5
BA7
330
1F
100
AcDbEntity
  8
0
100
AcDbLine
 10
608.8930648776904
 20
374.7385385221352
 30
0.0
 11
609.2245976684483
 21
374.2053719399179
 31
0.0
  0
LINE
  5
BA8
330
1F
100
AcDbEntity
  8
0
100
AcDbLine
 10
608.584759459773
 20
375.2790036547029
 30
0.0
 11
608.8930648776904
 21
374.7385385221352
 31
0.0
  0
LINE
  5
BA9
330
1F
100
AcDbEntity
  8
0
100
AcDbLine
 10
608.2999856749211
 20
375.8262339637866
 30
0.0
 11
608.584759459773
 21
375.2790036547029
 31
0.0
  0
LINE
  5
BAA
330
1F
100
AcDbEntity
  8
0
100
AcDbLine
 10
608.0390245604795
 20
376.379689399139
 30
0.0
 11
608.2999856749211
 21
375.8262339637866
 31
0.0
  0
LINE
  5
BAB
330
1F
100
AcDbEntity
  8
0
100
AcDbLine
 10
607.8021336535619
 20
376.938823767065
 30
0.0
 11
608.0390245604795
 21
376.379689399139
 31
0.0
  0
LINE
  5
BAC
330
1F
100
AcDbEntity
  8
0
100
AcDbLine
 10
607.589546736893
 20
377.5030852694483
 30
0.0
 11
607.8021336535619
 21
376.938823767065
 31
0.0
  0
LINE
  5
BAD
330
1F
100
AcDbEntity
  8
0
100
AcDbLine
 10
607.4014736080937
 20
378.0719170483104
 30
0.0
 11
607.589546736893
 21
377.5030852694483
 31
0.0
  0
LINE
  5
BAE
330
1F
100
AcDbEntity
  8
0
100
AcDbLine
 10
607.2380998726361
 20
378.6447577353613
 30
0.0
 11
607.4014736080937
 21
378.0719170483104
 31
0.0
  0
LINE
  5
BAF
330
1F
100
AcDbEntity
  8
0
100
AcDbLine
 10
607.0995867606724
 20
379.221042006003
 30
0.0
 11
607.2380998726361
 21
378.6447577353613
 31
0.0
  0
LINE
  5
BB0
330
1F
100
AcDbEntity
  8
0
100
AcDbLine
 10
606.9860709679215
 20
379.8002011372358
 30
0.0
 11
607.0995867606724
 21
379.221042006003
 31
0.0
  0
LINE
  5
BB1
330
1F
100
AcDbEntity
  8
0
100
AcDbLine
 10
606.8976645207656
 20
380.3816635689201
 30
0.0
 11
606.9860709679215
 21
379.8002011372358
 31
0.0
  0
LINE
  5
BB2
330
1F
100
AcDbEntity
  8
0
100
AcDbLine
 10
606.8344546656947
 20
380.9648554678365
 30
0.0
 11
606.8976645207656
 21
380.3816635689201
 31
0.0
  0
LINE
  5
BB3
330
1F
100
AcDbEntity
  8
0
100
AcDbLine
 10
505.4699045412029
 20
706.4918876065574
 30
0.0
 11
503.6694183257022
 21
677.1586736404881
 31
0.0
  0
LINE
  5
BB4
330
1F
100
AcDbEntity
  8
0
100
AcDbLine
 10
503.6694183257022
 20
677.1586736404881
 30
0.0
 11
502.0290092605224
 21
647.8222392084111
 31
0.0
  0
LINE
  5
BB5
330
1F
100
AcDbEntity
  8
0
100
AcDbLine
 10
502.0290092605224
 20
647.8222392084111
 30
0.0
 11
500.5487020483603
 21
618.4830260836771
 31
0.0
  0
LINE
  5
BB6
330
1F
100
AcDbEntity
  8
0
100
AcDbLine
 10
500.5487020483603
 20
618.4830260836771
 30
0.0
 11
499.2285189809617
 21
589.14147608148
 31
0.0
  0
LINE
  5
BB7
330
1F
100
AcDbEntity
  8
0
100
AcDbLine
 10
499.2285189809617
 20
589.14147608148
 30
0.0
 11
498.0684799387764
 21
559.7980310522054
 31
0.0
  0
LINE
  5
BB8
330
1F
100
AcDbEntity
  8
0
100
AcDbLine
 10
497.0686023906789
 20
530.4531328747748
 30
0.0
 11
496.2289013936854
 21
501.1072234499931
 31
0.0
  0
LINE
  5
BB9
330
1F
100
AcDbEntity
  8
0
100
AcDbLine
 10
496.2289013936854
 20
501.1072234499931
 30
0.0
 11
495.5493895927402
 21
471.7607446938936
 31
0.0
  0
LINE
  5
BBA
330
1F
100
AcDbEntity
  8
0
100
AcDbLine
 10
495.5493895927402
 20
471.7607446938936
 30
0.0
 11
495.0300772205181
 21
442.4141385310827
 31
0.0
  0
LINE
  5
BBB
330
1F
100
AcDbEntity
  8
0
100
AcDbLine
 10
495.0300772205181
 20
442.4141385310827
 30
0.0
 11
494.6709720972724
 21
413.0678468880853
 31
0.0
  0
LINE
  5
BBC
330
1F
100
AcDbEntity
  8
0
100
AcDbLine
 10
546.2097603471314
 20
706.4918876065574
 30
0.0
 11
546.9042966301267
 21
677.1586736404881
 31
0.0
  0
LINE
  5
BBD
330
1F
100
AcDbEntity
  8
0
100
AcDbLine
 10
546.9042966301267
 20
677.1586736404881
 30
0.0
 11
547.4386343415963
 21
647.8222392084111
 31
0.0
  0
LINE
  5
BBE
330
1F
100
AcDbEntity
  8
0
100
AcDbLine
 10
547.4386343415963
 20
647.8222392084111
 30
0.0
 11
547.8127654350218
 21
618.4830260836771
 31
0.0
  0
LINE
  5
BBF
330
1F
100
AcDbEntity
  8
0
100
AcDbLine
 10
547.8127654350218
 20
618.4830260836771
 30
0.0
 11
548.0266842764104
 21
589.14147608148
 31
0.0
  0
LINE
  5
BC0
330
1F
100
AcDbEntity
  8
0
100
AcDbLine
 10
548.0266842764104
 20
589.14147608148
 30
0.0
 11
548.0803876443957
 21
559.7980310522054
 31
0.0
  0
LINE
  5
BC1
330
1F
100
AcDbEntity
  8
0
100
AcDbLine
 10
547.9738747302596
 20
530.4531328747748
 30
0.0
 11
547.7071471379688
 21
501.1072234499931
 31
0.0
  0
LINE
  5
BC2
330
1F
100
AcDbEntity
  8
0
100
AcDbLine
 10
547.7071471379688
 20
501.1072234499931
 30
0.0
 11
547.2802088841358
 21
471.7607446938936
 31
0.0
  0
LINE
  5
BC3
330
1F
100
AcDbEntity
  8
0
100
AcDbLine
 10
547.2802088841358
 20
471.7607446938936
 30
0.0
 11
546.693066397965
 21
442.4141385310827
 31
0.0
  0
LINE
  5
BC4
330
1F
100
AcDbEntity
  8
0
100
AcDbLine
 10
546.693066397965
 20
442.4141385310827
 30
0.0
 11
545.9457285211558
 21
413.0678468880853
 31
0.0
  0
LINE
  5
BC5
330
1F
100
AcDbEntity
  8
0
100
AcDbLine
 10
518.8243549395642
 20
363.5215703412455
 30
0.0
 11
519.6257533934333
 21
363.5123816353218
 31
0.0
  0
LINE
  5
BC6
330
1F
100
AcDbEntity
  8
0
100
AcDbLine
 10
518.0198955347057
 20
363.5491273908733
 30
0.0
 11
518.8243549395642
 21
363.5215703412455
 31
0.0
  0
LINE
  5
BC7
330
1F
100
AcDbEntity
  8
0
100
AcDbLine
 10
517.2189477857239
 20
363.5950255887243
 30
0.0
 11
518.0198955347057
 21
363.5491273908733
 31
0.0
  0
LINE
  5
BC8
330
1F
100
AcDbEntity
  8
0
100
AcDbLine
 10
516.4203752632998
 20
363.6592196388186
 30
0.0
 11
517.2189477857239
 21
363.5950255887243
 31
0.0
  0
LINE
  5
BC9
330
1F
100
AcDbEntity
  8
0
100
AcDbLine
 10
515.6249660621001
 20
363.7416461893788
 30
0.0
 11
516.4203752632998
 21
363.6592196388186
 31
0.0
  0
LINE
  5
BCA
330
1F
100
AcDbEntity
  8
0
100
AcDbLine
 10
514.8335051549756
 20
363.8422238953511
 30
0.0
 11
515.6249660621001
 21
363.7416461893788
 31
0.0
  0
LINE
  5
BCB
330
1F
100
AcDbEntity
  8
0
100
AcDbLine
 10
514.0467736182873
 20
363.9608534986826
 30
0.0
 11
514.8335051549756
 21
363.8422238953511
 31
0.0
  0
LINE
  5
BCC
330
1F
100
AcDbEntity
  8
0
100
AcDbLine
 10
513.2655478610786
 20
364.0974179262772
 30
0.0
 11
514.0467736182873
 21
363.9608534986826
 31
0.0
  0
LINE
  5
BCD
330
1F
100
AcDbEntity
  8
0
100
AcDbLine
 10
512.4905988588535
 20
364.2517824055324
 30
0.0
 11
513.2655478610786
 21
364.0974179262772
 31
0.0
  0
LINE
  5
BCE
330
1F
100
AcDbEntity
  8
0
100
AcDbLine
 10
511.7226913927164
 20
364.4237945973438
 30
0.0
 11
512.4905988588535
 21
364.2517824055324
 31
0.0
  0
LINE
  5
BCF
330
1F
100
AcDbEntity
  8
0
100
AcDbLine
 10
510.9625832946258
 20
364.6132847464454
 30
0.0
 11
511.7226913927164
 21
364.4237945973438
 31
0.0
  0
LINE
  5
BD0
330
1F
100
AcDbEntity
  8
0
100
AcDbLine
 10
510.2110246995054
 20
364.8200658489375
 30
0.0
 11
510.9625832946258
 21
364.6132847464454
 31
0.0
  0
LINE
  5
BD1
330
1F
100
AcDbEntity
  8
0
100
AcDbLine
 10
509.4687573049519
 20
365.0439338368368
 30
0.0
 11
510.2110246995054
 21
364.8200658489375
 31
0.0
  0
LINE
  5
BD2
330
1F
100
AcDbEntity
  8
0
100
AcDbLine
 10
508.7365136392689
 20
365.2846677794673
 30
0.0
 11
509.4687573049519
 21
365.0439338368368
 31
0.0
  0
LINE
  5
BD3
330
1F
100
AcDbEntity
  8
0
100
AcDbLine
 10
508.0150163385493
 20
365.5420301014917
 30
0.0
 11
508.7365136392689
 21
365.2846677794673
 31
0.0
  0
LINE
  5
BD4
330
1F
100
AcDbEntity
  8
0
100
AcDbLine
 10
507.3049774335216
 20
365.81576681737
 30
0.0
 11
508.0150163385493
 21
365.5420301014917
 31
0.0
  0
LINE
  5
BD5
330
1F
100
AcDbEntity
  8
0
100
AcDbLine
 10
506.6070976468611
 20
366.1056077820121
 30
0.0
 11
507.3049774335216
 21
365.81576681737
 31
0.0
  0
LINE
  5
BD6
330
1F
100
AcDbEntity
  8
0
100
AcDbLine
 10
505.922065701661
 20
366.411266957379
 30
0.0
 11
506.6070976468611
 21
366.1056077820121
 31
0.0
  0
LINE
  5
BD7
330
1F
100
AcDbEntity
  8
0
100
AcDbLine
 10
505.2505576417465
 20
366.7324426947671
 30
0.0
 11
505.922065701661
 21
366.411266957379
 31
0.0
  0
LINE
  5
BD8
330
1F
100
AcDbEntity
  8
0
100
AcDbLine
 10
504.5932361645006
 20
367.0688180324997
 30
0.0
 11
505.2505576417465
 21
366.7324426947671
 31
0.0
  0
LINE
  5
BD9
330
1F
100
AcDbEntity
  8
0
100
AcDbLine
 10
503.9507499668617
 20
367.4200610087296
 30
0.0
 11
504.5932361645006
 21
367.0688180324997
 31
0.0
  0
LINE
  5
BDA
330
1F
100
AcDbEntity
  8
0
100
AcDbLine
 10
503.3237331051387
 20
367.7858249890453
 30
0.0
 11
503.9507499668617
 21
367.4200610087296
 31
0.0
  0
LINE
  5
BDB
330
1F
100
AcDbEntity
  8
0
100
AcDbLine
 10
502.7128043692735
 20
368.1657490085574
 30
0.0
 11
503.3237331051387
 21
367.7858249890453
 31
0.0
  0
LINE
  5
BDC
330
1F
100
AcDbEntity
  8
0
100
AcDbLine
 10
502.1185666721702
 20
368.5594581281275
 30
0.0
 11
502.7128043692735
 21
368.1657490085574
 31
0.0
  0
LINE
  5
BDD
330
1F
100
AcDbEntity
  8
0
100
AcDbLine
 10
501.5416064546924
 20
368.9665638043877
 30
0.0
 11
502.1185666721702
 21
368.5594581281275
 31
0.0
  0
LINE
  5
BDE
330
1F
100
AcDbEntity
  8
0
100
AcDbLine
 10
500.9824931069176
 20
369.3866642731858
 30
0.0
 11
501.5416064546924
 21
368.9665638043877
 31
0.0
  0
LINE
  5
BDF
330
1F
100
AcDbEntity
  8
0
100
AcDbLine
 10
500.4417784062176
 20
369.8193449460786
 30
0.0
 11
500.9824931069176
 21
369.3866642731858
 31
0.0
  0
LINE
  5
BE0
330
1F
100
AcDbEntity
  8
0
100
AcDbLine
 10
499.9199959727206
 20
370.2641788194801
 30
0.0
 11
500.4417784062176
 21
369.8193449460786
 31
0.0
  0
LINE
  5
BE1
330
1F
100
AcDbEntity
  8
0
100
AcDbLine
 10
499.4176607426928
 20
370.7207268960627
 30
0.0
 11
499.9199959727206
 21
370.2641788194801
 31
0.0
  0
LINE
  5
BE2
330
1F
100
AcDbEntity
  8
0
100
AcDbLine
 10
498.9352684603589
 20
371.1885386179945
 30
0.0
 11
499.4176607426928
 21
370.7207268960627
 31
0.0
  0
LINE
  5
BE3
330
1F
100
AcDbEntity
  8
0
100
AcDbLine
 10
498.4732951886612
 20
371.6671523115856
 30
0.0
 11
498.9352684603589
 21
371.1885386179945
 31
0.0
  0
LINE
  5
BE4
330
1F
100
AcDbEntity
  8
0
100
AcDbLine
 10
498.0321968394445
 20
372.1560956429041
 30
0.0
 11
498.4732951886612
 21
371.6671523115856
 31
0.0
  0
LINE
  5
BE5
330
1F
100
AcDbEntity
  8
0
100
AcDbLine
 10
497.6124087235249
 20
372.6548860839129
 30
0.0
 11
498.0321968394445
 21
372.1560956429041
 31
0.0
  0
LINE
  5
BE6
330
1F
100
AcDbEntity
  8
0
100
AcDbLine
 10
497.2143451210912
 20
373.1630313886664
 30
0.0
 11
497.6124087235249
 21
372.6548860839129
 31
0.0
  0
LINE
  5
BE7
330
1F
100
AcDbEntity
  8
0
100
AcDbLine
 10
496.8383988728602
 20
373.6800300790978
 30
0.0
 11
497.2143451210912
 21
373.1630313886664
 31
0.0
  0
LINE
  5
BE8
330
1F
100
AcDbEntity
  8
0
100
AcDbLine
 10
496.4849409923902
 20
374.2053719399178
 30
0.0
 11
496.8383988728602
 21
373.6800300790978
 31
0.0
  0
LINE
  5
BE9
330
1F
100
AcDbEntity
  8
0
100
AcDbLine
 10
496.1543202999361
 20
374.7385385221351
 30
0.0
 11
496.4849409923902
 21
374.2053719399178
 31
0.0
  0
LINE
  5
BEA
330
1F
100
AcDbEntity
  8
0
100
AcDbLine
 10
495.8468630782047
 20
375.2790036547028
 30
0.0
 11
496.1543202999361
 21
374.7385385221351
 31
0.0
  0
LINE
  5
BEB
330
1F
100
AcDbEntity
  8
0
100
AcDbLine
 10
495.5628727503543
 20
375.8262339637866
 30
0.0
 11
495.8468630782047
 21
375.2790036547028
 31
0.0
  0
LINE
  5
BEC
330
1F
100
AcDbEntity
  8
0
100
AcDbLine
 10
495.3026295805517
 20
376.3796893991389
 30
0.0
 11
495.5628727503543
 21
375.8262339637866
 31
0.0
  0
LINE
  5
BED
330
1F
100
AcDbEntity
  8
0
100
AcDbLine
 10
495.0663903973862
 20
376.9388237670648
 30
0.0
 11
495.3026295805517
 21
376.3796893991389
 31
0.0
  0
LINE
  5
BEE
330
1F
100
AcDbEntity
  8
0
100
AcDbLine
 10
494.85438834041
 20
377.5030852694481
 30
0.0
 11
495.0663903973862
 21
376.9388237670648
 31
0.0
  0
LINE
  5
BEF
330
1F
100
AcDbEntity
  8
0
100
AcDbLine
 10
494.6668326300579
 20
378.0719170483103
 30
0.0
 11
494.85438834041
 21
377.5030852694481
 31
0.0
  0
LINE
  5
BF0
330
1F
100
AcDbEntity
  8
0
100
AcDbLine
 10
494.5039083611723
 20
378.6447577353613
 30
0.0
 11
494.6668326300579
 21
378.0719170483103
 31
0.0
  0
LINE
  5
BF1
330
1F
100
AcDbEntity
  8
0
100
AcDbLine
 10
494.3657763203363
 20
379.2210420060029
 30
0.0
 11
494.5039083611723
 21
378.6447577353613
 31
0.0
  0
LINE
  5
BF2
330
1F
100
AcDbEntity
  8
0
100
AcDbLine
 10
494.2525728271975
 20
379.8002011372357
 30
0.0
 11
494.3657763203363
 21
379.2210420060029
 31
0.0
  0
LINE
  5
BF3
330
1F
100
AcDbEntity
  8
0
100
AcDbLine
 10
494.1644095999365
 20
380.38166356892
 30
0.0
 11
494.2525728271975
 21
379.8002011372357
 31
0.0
  0
LINE
  5
BF4
330
1F
100
AcDbEntity
  8
0
100
AcDbLine
 10
494.1013736450143
 20
380.9648554678363
 30
0.0
 11
494.1644095999365
 21
380.38166356892
 31
0.0
  0
LINE
  5
BF5
330
1F
100
AcDbEntity
  8
0
100
AcDbLine
 10
494.0635271713081
 20
381.5492012939902
 30
0.0
 11
494.1013736450143
 21
380.9648554678363
 31
0.0
  0
LINE
  5
BF6
330
1F
100
AcDbEntity
  8
0
100
AcDbLine
 10
494.0509075287181
 20
382.1341243686001
 30
0.0
 11
494.0635271713081
 21
381.5492012939902
 31
0.0
  0
LINE
  5
BF7
330
1F
100
AcDbEntity
  8
0
100
AcDbLine
 10
494.0635271713081
 20
382.71904744321
 30
0.0
 11
494.0509075287181
 21
382.1341243686001
 31
0.0
  0
LINE
  5
BF8
330
1F
100
AcDbEntity
  8
0
100
AcDbLine
 10
494.1013736450143
 20
383.3033932693639
 30
0.0
 11
494.0635271713081
 21
382.71904744321
 31
0.0
  0
LINE
  5
BF9
330
1F
100
AcDbEntity
  8
0
100
AcDbLine
 10
494.1644095999365
 20
383.8865851682803
 30
0.0
 11
494.1013736450143
 21
383.3033932693639
 31
0.0
  0
LINE
  5
BFA
330
1F
100
AcDbEntity
  8
0
100
AcDbLine
 10
494.2525728271975
 20
384.4680475999645
 30
0.0
 11
494.1644095999365
 21
383.8865851682803
 31
0.0
  0
LINE
  5
BFB
330
1F
100
AcDbEntity
  8
0
100
AcDbLine
 10
494.3657763203363
 20
385.0472067311973
 30
0.0
 11
494.2525728271975
 21
384.4680475999645
 31
0.0
  0
LINE
  5
BFC
330
1F
100
AcDbEntity
  8
0
100
AcDbLine
 10
520.4271518473025
 20
363.5215703412455
 30
0.0
 11
519.6257533934333
 21
363.5123816353218
 31
0.0
  0
LINE
  5
BFD
330
1F
100
AcDbEntity
  8
0
100
AcDbLine
 10
521.2316112521611
 20
363.5491273908733
 30
0.0
 11
520.4271518473025
 21
363.5215703412455
 31
0.0
  0
LINE
  5
BFE
330
1F
100
AcDbEntity
  8
0
100
AcDbLine
 10
522.0325590011428
 20
363.5950255887243
 30
0.0
 11
521.2316112521611
 21
363.5491273908733
 31
0.0
  0
LINE
  5
BFF
330
1F
100
AcDbEntity
  8
0
100
AcDbLine
 10
522.8311315235669
 20
363.6592196388186
 30
0.0
 11
522.0325590011428
 21
363.5950255887243
 31
0.0
  0
LINE
  5
C00
330
1F
100
AcDbEntity
  8
0
100
AcDbLine
 10
523.6265407247665
 20
363.7416461893788
 30
0.0
 11
522.8311315235669
 21
363.6592196388186
 31
0.0
  0
LINE
  5
C01
330
1F
100
AcDbEntity
  8
0
100
AcDbLine
 10
524.4180016318911
 20
363.8422238953511
 30
0.0
 11
523.6265407247665
 21
363.7416461893788
 31
0.0
  0
LINE
  5
C02
330
1F
100
AcDbEntity
  8
0
100
AcDbLine
 10
525.2047331685794
 20
363.9608534986826
 30
0.0
 11
524.4180016318911
 21
363.8422238953511
 31
0.0
  0
LINE
  5
C03
330
1F
100
AcDbEntity
  8
0
100
AcDbLine
 10
525.985958925788
 20
364.0974179262772
 30
0.0
 11
525.2047331685794
 21
363.9608534986826
 31
0.0
  0
LINE
  5
C04
330
1F
100
AcDbEntity
  8
0
100
AcDbLine
 10
526.7609079280131
 20
364.2517824055324
 30
0.0
 11
525.985958925788
 21
364.0974179262772
 31
0.0
  0
LINE
  5
C05
330
1F
100
AcDbEntity
  8
0
100
AcDbLine
 10
527.5288153941503
 20
364.4237945973438
 30
0.0
 11
526.7609079280131
 21
364.2517824055324
 31
0.0
  0
LINE
  5
C06
330
1F
100
AcDbEntity
  8
0
100
AcDbLine
 10
528.288923492241
 20
364.6132847464454
 30
0.0
 11
527.5288153941503
 21
364.4237945973438
 31
0.0
  0
LINE
  5
C07
330
1F
100
AcDbEntity
  8
0
100
AcDbLine
 10
529.0404820873613
 20
364.8200658489375
 30
0.0
 11
528.288923492241
 21
364.6132847464454
 31
0.0
  0
LINE
  5
C08
330
1F
100
AcDbEntity
  8
0
100
AcDbLine
 10
529.7827494819147
 20
365.0439338368368
 30
0.0
 11
529.0404820873613
 21
364.8200658489375
 31
0.0
  0
LINE
  5
C09
330
1F
100
AcDbEntity
  8
0
100
AcDbLine
 10
530.5149931475978
 20
365.2846677794673
 30
0.0
 11
529.7827494819147
 21
365.0439338368368
 31
0.0
  0
LINE
  5
C0A
330
1F
100
AcDbEntity
  8
0
100
AcDbLine
 10
531.2364904483173
 20
365.5420301014917
 30
0.0
 11
530.5149931475978
 21
365.2846677794673
 31
0.0
  0
LINE
  5
C0B
330
1F
100
AcDbEntity
  8
0
100
AcDbLine
 10
531.946529353345
 20
365.81576681737
 30
0.0
 11
531.2364904483173
 21
365.5420301014917
 31
0.0
  0
LINE
  5
C0C
330
1F
100
AcDbEntity
  8
0
100
AcDbLine
 10
532.6444091400055
 20
366.1056077820121
 30
0.0
 11
531.946529353345
 21
365.81576681737
 31
0.0
  0
LINE
  5
C0D
330
1F
100
AcDbEntity
  8
0
100
AcDbLine
 10
533.3294410852056
 20
366.411266957379
 30
0.0
 11
532.6444091400055
 21
366.1056077820121
 31
0.0
  0
LINE
  5
C0E
330
1F
100
AcDbEntity
  8
0
100
AcDbLine
 10
534.00094914512
 20
366.7324426947671
 30
0.0
 11
533.3294410852056
 21
366.411266957379
 31
0.0
  0
LINE
  5
C0F
330
1F
100
AcDbEntity
  8
0
100
AcDbLine
 10
534.6582706223661
 20
367.0688180324997
 30
0.0
 11
534.00094914512
 21
366.7324426947671
 31
0.0
  0
LINE
  5
C10
330
1F
100
AcDbEntity
  8
0
100
AcDbLine
 10
535.300756820005
 20
367.4200610087296
 30
0.0
 11
534.6582706223661
 21
367.0688180324997
 31
0.0
  0
LINE
  5
C11
330
1F
100
AcDbEntity
  8
0
100
AcDbLine
 10
535.927773681728
 20
367.7858249890453
 30
0.0
 11
535.300756820005
 21
367.4200610087296
 31
0.0
  0
LINE
  5
C12
330
1F
100
AcDbEntity
  8
0
100
AcDbLine
 10
536.538702417593
 20
368.1657490085574
 30
0.0
 11
535.927773681728
 21
367.7858249890453
 31
0.0
  0
LINE
  5
C13
330
1F
100
AcDbEntity
  8
0
100
AcDbLine
 10
537.1329401146964
 20
368.5594581281275
 30
0.0
 11
536.538702417593
 21
368.1657490085574
 31
0.0
  0
LINE
  5
C14
330
1F
100
AcDbEntity
  8
0
100
AcDbLine
 10
537.7099003321742
 20
368.9665638043877
 30
0.0
 11
537.1329401146964
 21
368.5594581281275
 31
0.0
  0
LINE
  5
C15
330
1F
100
AcDbEntity
  8
0
100
AcDbLine
 10
538.269013679949
 20
369.3866642731858
 30
0.0
 11
537.7099003321742
 21
368.9665638043877
 31
0.0
  0
LINE
  5
C16
330
1F
100
AcDbEntity
  8
0
100
AcDbLine
 10
538.809728380649
 20
369.8193449460786
 30
0.0
 11
538.269013679949
 21
369.3866642731858
 31
0.0
  0
LINE
  5
C17
330
1F
100
AcDbEntity
  8
0
100
AcDbLine
 10
539.3315108141461
 20
370.2641788194801
 30
0.0
 11
538.809728380649
 21
369.8193449460786
 31
0.0
  0
LINE
  5
C18
330
1F
100
AcDbEntity
  8
0
100
AcDbLine
 10
539.8338460441737
 20
370.7207268960627
 30
0.0
 11
539.3315108141461
 21
370.2641788194801
 31
0.0
  0
LINE
  5
C19
330
1F
100
AcDbEntity
  8
0
100
AcDbLine
 10
540.3162383265078
 20
371.1885386179945
 30
0.0
 11
539.8338460441737
 21
370.7207268960627
 31
0.0
  0
LINE
  5
C1A
330
1F
100
AcDbEntity
  8
0
100
AcDbLine
 10
540.7782115982054
 20
371.6671523115856
 30
0.0
 11
540.3162383265078
 21
371.1885386179945
 31
0.0
  0
LINE
  5
C1B
330
1F
100
AcDbEntity
  8
0
100
AcDbLine
 10
541.2193099474221
 20
372.1560956429041
 30
0.0
 11
540.7782115982054
 21
371.6671523115856
 31
0.0
  0
LINE
  5
C1C
330
1F
100
AcDbEntity
  8
0
100
AcDbLine
 10
541.6390980633417
 20
372.6548860839129
 30
0.0
 11
541.2193099474221
 21
372.1560956429041
 31
0.0
  0
LINE
  5
C1D
330
1F
100
AcDbEntity
  8
0
100
AcDbLine
 10
542.0371616657754
 20
373.1630313886664
 30
0.0
 11
541.6390980633417
 21
372.6548860839129
 31
0.0
  0
LINE
  5
C1E
330
1F
100
AcDbEntity
  8
0
100
AcDbLine
 10
542.4131079140066
 20
373.6800300790978
 30
0.0
 11
542.0371616657754
 21
373.1630313886664
 31
0.0
  0
LINE
  5
C1F
330
1F
100
AcDbEntity
  8
0
100
AcDbLine
 10
542.7665657944763
 20
374.2053719399178
 30
0.0
 11
542.4131079140066
 21
373.6800300790978
 31
0.0
  0
LINE
  5
C20
330
1F
100
AcDbEntity
  8
0
100
AcDbLine
 10
543.0971864869305
 20
374.7385385221351
 30
0.0
 11
542.7665657944763
 21
374.2053719399178
 31
0.0
  0
LINE
  5
C21
330
1F
100
AcDbEntity
  8
0
100
AcDbLine
 10
543.4046437086619
 20
375.2790036547028
 30
0.0
 11
543.0971864869305
 21
374.7385385221351
 31
0.0
  0
LINE
  5
C22
330
1F
100
AcDbEntity
  8
0
100
AcDbLine
 10
543.6886340365124
 20
375.8262339637866
 30
0.0
 11
543.4046437086619
 21
375.2790036547028
 31
0.0
  0
LINE
  5
C23
330
1F
100
AcDbEntity
  8
0
100
AcDbLine
 10
543.9488772063148
 20
376.3796893991389
 30
0.0
 11
543.6886340365124
 21
375.8262339637866
 31
0.0
  0
LINE
  5
C24
330
1F
100
AcDbEntity
  8
0
100
AcDbLine
 10
544.1851163894804
 20
376.9388237670648
 30
0.0
 11
543.9488772063148
 21
376.3796893991389
 31
0.0
  0
LINE
  5
C25
330
1F
100
AcDbEntity
  8
0
100
AcDbLine
 10
544.3971184464567
 20
377.5030852694481
 30
0.0
 11
544.1851163894804
 21
376.9388237670648
 31
0.0
  0
LINE
  5
C26
330
1F
100
AcDbEntity
  8
0
100
AcDbLine
 10
544.5846741568088
 20
378.0719170483103
 30
0.0
 11
544.3971184464567
 21
377.5030852694481
 31
0.0
  0
LINE
  5
C27
330
1F
100
AcDbEntity
  8
0
100
AcDbLine
 10
544.7475984256944
 20
378.6447577353613
 30
0.0
 11
544.5846741568088
 21
378.0719170483103
 31
0.0
  0
LINE
  5
C28
330
1F
100
AcDbEntity
  8
0
100
AcDbLine
 10
544.8857304665303
 20
379.2210420060029
 30
0.0
 11
544.7475984256944
 21
378.6447577353613
 31
0.0
  0
LINE
  5
C29
330
1F
100
AcDbEntity
  8
0
100
AcDbLine
 10
544.998933959669
 20
379.8002011372357
 30
0.0
 11
544.8857304665303
 21
379.2210420060029
 31
0.0
  0
LINE
  5
C2A
330
1F
100
AcDbEntity
  8
0
100
AcDbLine
 10
545.0870971869301
 20
380.38166356892
 30
0.0
 11
544.998933959669
 21
379.8002011372357
 31
0.0
  0
LINE
  5
C2B
330
1F
100
AcDbEntity
  8
0
100
AcDbLine
 10
545.1501331418524
 20
380.9648554678363
 30
0.0
 11
545.0870971869301
 21
380.38166356892
 31
0.0
  0
LINE
  5
C2C
330
1F
100
AcDbEntity
  8
0
100
AcDbLine
 10
545.1879796155585
 20
381.5492012939902
 30
0.0
 11
545.1501331418524
 21
380.9648554678363
 31
0.0
  0
LINE
  5
C2D
330
1F
100
AcDbEntity
  8
0
100
AcDbLine
 10
545.2005992581485
 20
382.1341243686001
 30
0.0
 11
545.1879796155585
 21
381.5492012939902
 31
0.0
  0
LINE
  5
C2E
330
1F
100
AcDbEntity
  8
0
100
AcDbLine
 10
545.1879796155585
 20
382.71904744321
 30
0.0
 11
545.2005992581485
 21
382.1341243686001
 31
0.0
  0
LINE
  5
C2F
330
1F
100
AcDbEntity
  8
0
100
AcDbLine
 10
545.1501331418524
 20
383.3033932693639
 30
0.0
 11
545.1879796155585
 21
382.71904744321
 31
0.0
  0
LINE
  5
C30
330
1F
100
AcDbEntity
  8
0
100
AcDbLine
 10
545.0870971869301
 20
383.8865851682803
 30
0.0
 11
545.1501331418524
 21
383.3033932693639
 31
0.0
  0
LINE
  5
C31
330
1F
100
AcDbEntity
  8
0
100
AcDbLine
 10
545.0507086153828
 20
384.1265785073935
 30
0.0
 11
545.0870971869301
 21
383.8865851682803
 31
0.0
  0
LINE
  5
C32
330
1F
100
AcDbEntity
  8
0
100
AcDbLine
 10
656.9521408346921
 20
387.5598801953087
 30
0.0
 11
656.9456871504491
 21
387.6006931077784
 31
0.0
  0
LINE
  5
C33
330
1F
100
AcDbEntity
  8
0
100
AcDbLine
 10
433.9957557813582
 20
750.7873816353217
 30
0.0
 11
434.1970075727632
 21
750.7873816353216
 31
0.0
  0
LINE
  5
C34
330
1F
100
AcDbEntity
  8
0
100
AcDbLine
 10
577.0594383183929
 20
750.7873816353216
 30
0.0
 11
576.6477815503632
 21
750.7450000853191
 31
0.0
  0
LINE
  5
C35
330
1F
100
AcDbEntity
  8
0
100
AcDbLine
 10
576.6477815503632
 20
750.7450000853191
 30
0.0
 11
575.0994430177522
 21
750.7873816353216
 31
0.0
  0
LINE
  5
C36
330
1F
100
AcDbEntity
  8
0
100
AcDbLine
 10
398.2550594615793
 20
750.7873816353216
 30
0.0
 11
397.8434026935495
 21
750.7450000853188
 31
0.0
  0
LINE
  5
C37
330
1F
100
AcDbEntity
  8
0
100
AcDbLine
 10
397.8434026935495
 20
750.7450000853188
 30
0.0
 11
396.2950641609386
 21
750.7873816353216
 31
0.0
  0
LINE
  5
C38
330
1F
100
AcDbEntity
  8
0
100
AcDbLine
 10
408.1150888173032
 20
410.8496854666421
 30
0.0
 11
402.7727174907452
 21
381.5890762610132
 31
0.0
  0
LINE
  5
C39
330
1F
100
AcDbEntity
  8
0
100
AcDbLine
 10
455.5839933493627
 20
728.554763185325
 30
0.0
 11
455.5788461411493
 21
728.5123816353218
 31
0.0
  0
LINE
  5
C3A
330
1F
100
AcDbEntity
  8
0
100
AcDbLine
 10
455.5788461411493
 20
728.5123816353218
 30
0.0
 11
452.6904288366125
 21
704.7294691619566
 31
0.0
  0
LINE
  5
C3B
330
1F
100
AcDbEntity
  8
0
100
AcDbLine
 10
416.4979982441423
 20
728.554763185325
 30
0.0
 11
416.4887340889187
 21
728.5123816353218
 31
0.0
  0
LINE
  5
C3C
330
1F
100
AcDbEntity
  8
0
100
AcDbLine
 10
416.4887340889187
 20
728.5123816353218
 30
0.0
 11
412.0605346311523
 21
708.254306051158
 31
0.0
  0
LINE
  5
C3D
330
1F
100
AcDbEntity
  8
0
100
AcDbLine
 10
601.4319257757478
 20
410.8496854666424
 30
0.0
 11
606.7965037832045
 21
381.597612366626
 31
0.0
  0
LINE
  5
C3E
330
1F
100
AcDbEntity
  8
0
100
AcDbLine
 10
553.7989190665996
 20
728.554763185325
 30
0.0
 11
553.8040881234256
 21
728.5123816353218
 31
0.0
  0
LINE
  5
C3F
330
1F
100
AcDbEntity
  8
0
100
AcDbLine
 10
553.8040881234256
 20
728.5123816353218
 30
0.0
 11
556.7047660376269
 21
704.7294691619567
 31
0.0
  0
LINE
  5
C40
330
1F
100
AcDbEntity
  8
0
100
AcDbLine
 10
592.8863145238433
 20
728.554763185325
 30
0.0
 11
592.8956006751794
 21
728.5123816353218
 31
0.0
  0
LINE
  5
C41
330
1F
100
AcDbEntity
  8
0
100
AcDbLine
 10
592.8956006751794
 20
728.5123816353218
 30
0.0
 11
597.3343141162041
 21
708.2543060511583
 31
0.0
  0
LINE
  5
C42
330
1F
100
AcDbEntity
  8
0
100
AcDbLine
 10
652.5678500476829
 20
415.2860083095285
 30
0.0
 11
656.9456871504491
 21
387.6006931077784
 31
0.0
  0
LINE
  5
C43
330
1F
100
AcDbEntity
  8
0
100
AcDbLine
 10
506.9446992376613
 20
728.554763185325
 30
0.0
 11
506.9418662395352
 21
728.5123816353218
 31
0.0
  0
LINE
  5
C44
330
1F
100
AcDbEntity
  8
0
100
AcDbLine
 10
506.9418662395352
 20
728.5123816353218
 30
0.0
 11
505.4699045412029
 21
706.4918876065574
 31
0.0
  0
LINE
  5
C45
330
1F
100
AcDbEntity
  8
0
100
AcDbLine
 10
494.6709720972724
 20
413.0678468880853
 30
0.0
 11
494.5039083611723
 21
385.623491001839
 31
0.0
  0
LINE
  5
C46
330
1F
100
AcDbEntity
  8
0
100
AcDbLine
 10
545.5668020728746
 20
728.554763185325
 30
0.0
 11
545.5680371597586
 21
728.5123816353218
 31
0.0
  0
LINE
  5
C47
330
1F
100
AcDbEntity
  8
0
100
AcDbLine
 10
545.5680371597586
 20
728.5123816353218
 30
0.0
 11
546.2097603471314
 21
706.4918876065574
 31
0.0
  0
LINE
  5
C48
330
1F
100
AcDbEntity
  8
0
100
AcDbLine
 10
545.0870971869301
 20
383.8865851682803
 30
0.0
 11
545.0382065077692
 21
383.7223116866904
 31
0.0
  0
LINE
  5
C49
330
1F
100
AcDbEntity
  8
0
100
AcDbLine
 10
494.5833861833177
 20
385.8782155369837
 30
0.0
 11
494.5039083611723
 21
385.623491001839
 31
0.0
  0
LINE
  5
C4A
330
1F
100
AcDbEntity
  8
0
100
AcDbLine
 10
433.9957557813582
 20
750.7873816353217
 30
0.0
 11
432.2370122721225
 21
750.7450000853189
 31
0.0
  0
LINE
  5
C4B
330
1F
100
AcDbEntity
  8
0
100
AcDbLine
 10
432.2370122721225
 20
750.7450000853189
 30
0.0
 11
431.4810277659765
 21
750.7873816353216
 31
0.0
  0
LINE
  5
C4C
330
1F
100
AcDbEntity
  8
0
100
AcDbLine
 10
434.1970075727632
 20
750.7873816353216
 30
0.0
 11
434.8655254696074
 21
750.7450000853189
 31
0.0
  0
LINE
  5
C4D
330
1F
100
AcDbEntity
  8
0
100
AcDbLine
 10
434.8655254696074
 20
750.7450000853189
 30
0.0
 11
444.7173008785767
 21
750.7873816353217
 31
0.0
  0
LINE
  5
C4E
330
1F
100
AcDbEntity
  8
0
100
AcDbLine
 10
574.3211869746598
 20
750.7873816353217
 30
0.0
 11
574.4309251209081
 21
750.7450000853191
 31
0.0
  0
LINE
  5
C4F
330
1F
100
AcDbEntity
  8
0
100
AcDbLine
 10
574.4309251209081
 20
750.7450000853191
 30
0.0
 11
575.0994430177522
 21
750.7873816353216
 31
0.0
  0
LINE
  5
C50
330
1F
100
AcDbEntity
  8
0
100
AcDbLine
 10
610.2854066227902
 20
750.7873816353216
 30
0.0
 11
611.0413911289363
 21
750.7450000853191
 31
0.0
  0
LINE
  5
C51
330
1F
100
AcDbEntity
  8
0
100
AcDbLine
 10
545.9457285211558
 20
413.0678468880853
 30
0.0
 11
545.0507086153828
 21
384.1265785073935
 31
0.0
  0
LINE
  5
C52
330
1F
100
AcDbEntity
  8
0
100
AcDbLine
 10
401.3729617253228
 20
750.7873816353216
 30
0.0
 11
398.2550594615793
 21
750.7450000853188
 31
0.0
  0
LINE
  5
C53
330
1F
100
AcDbEntity
  8
0
100
AcDbLine
 10
398.2550594615793
 20
750.7450000853188
 30
0.0
 11
397.8434026935495
 21
750.7450000853188
 31
0.0
  0
LINE
  5
C54
330
1F
100
AcDbEntity
  8
0
100
AcDbLine
 10
576.6477815503632
 20
750.7450000853191
 30
0.0
 11
577.0594383183929
 21
750.7450000853191
 31
0.0
  0
LINE
  5
C55
330
1F
100
AcDbEntity
  8
0
100
AcDbLine
 10
577.0594383183929
 20
750.7450000853191
 30
0.0
 11
580.1773405821363
 21
750.7873816353216
 31
0.0
  0
LINE
  5
C56
330
1F
100
AcDbEntity
  8
0
100
AcDbLine
 10
613.6699043264211
 20
750.7450000853191
 30
0.0
 11
616.183109030373
 21
750.7873816353217
 31
0.0
  0
LINE
  5
C57
330
1F
100
AcDbEntity
  8
0
100
AcDbLine
 10
611.0413911289363
 20
750.7450000853191
 30
0.0
 11
613.0013864295769
 21
750.7873816353216
 31
0.0
  0
LINE
  5
C58
330
1F
100
AcDbEntity
  8
0
100
AcDbLine
 10
613.0013864295769
 20
750.7873816353216
 30
0.0
 11
613.6699043264211
 21
750.7450000853191
 31
0.0
  0
LINE
  5
C59
330
1F
100
AcDbEntity
  8
0
100
AcDbLine
 10
541.9371027084803
 20
751.7873816353219
 30
0.0
 11
541.1811182023342
 21
751.7873816353219
 31
0.0
  0
LINE
  5
C5A
330
1F
100
AcDbEntity
  8
0
100
AcDbLine
 10
606.8344546656947
 20
380.9648554678365
 30
0.0
 11
606.7965037832045
 21
381.597612366626
 31
0.0
  0
LINE
  5
C5B
330
1F
100
AcDbEntity
  8
0
100
AcDbLine
 10
455.5788461411493
 20
728.5123816353218
 30
0.0
 11
506.9418662395352
 21
728.5123816353218
 31
0.0
  0
LINE
  5
C5C
330
1F
100
AcDbEntity
  8
0
100
AcDbLine
 10
455.5788461411493
 20
728.5123816353218
 30
0.0
 11
416.4887340889187
 21
728.5123816353218
 31
0.0
  0
LINE
  5
C5D
330
1F
100
AcDbEntity
  8
0
100
AcDbLine
 10
352.9147557813578
 20
728.5123816353218
 30
0.0
 11
416.4887340889187
 21
728.5123816353218
 31
0.0
  0
LINE
  5
C5E
330
1F
100
AcDbEntity
  8
0
100
AcDbLine
 10
545.5680371597586
 20
728.5123816353218
 30
0.0
 11
506.9418662395352
 21
728.5123816353218
 31
0.0
  0
LINE
  5
C5F
330
1F
100
AcDbEntity
  8
0
100
AcDbLine
 10
553.8040881234256
 20
728.5123816353218
 30
0.0
 11
545.5680371597586
 21
728.5123816353218
 31
0.0
  0
LINE
  5
C60
330
1F
100
AcDbEntity
  8
0
100
AcDbLine
 10
592.8956006751794
 20
728.5123816353218
 30
0.0
 11
553.8040881234256
 21
728.5123816353218
 31
0.0
  0
LINE
  5
C61
330
1F
100
AcDbEntity
  8
0
100
AcDbLine
 10
677.2387557813543
 20
728.512381635322
 30
0.0
 11
592.8956006751794
 21
728.5123816353218
 31
0.0
  0
LINE
  5
C62
330
1F
100
AcDbEntity
  8
0
100
AcDbLine
 10
505.3266367004521
 20
750.7873816353219
 30
0.0
 11
444.7173008785767
 21
750.7873816353217
 31
0.0
  0
LINE
  5
C63
330
1F
100
AcDbEntity
  8
0
100
AcDbLine
 10
574.3211869746598
 20
750.7873816353217
 30
0.0
 11
544.565615905965
 21
750.7873816353217
 31
0.0
  0
LINE
  5
C64
330
1F
100
AcDbEntity
  8
0
100
AcDbLine
 10
677.2387557813559
 20
750.7873816353217
 30
0.0
 11
616.183109030373
 21
750.7873816353217
 31
0.0
  0
LINE
  5
C65
330
1F
100
AcDbEntity
  8
0
100
AcDbLine
 10
610.2854066227902
 20
750.7873816353216
 30
0.0
 11
580.1773405821363
 21
750.7873816353216
 31
0.0
  0
LINE
  5
C66
330
1F
100
AcDbEntity
  8
0
100
AcDbLine
 10
610.2854066227902
 20
750.7873816353216
 30
0.0
 11
613.0013864295769
 21
750.7873816353216
 31
0.0
  0
LINE
  5
C67
330
1F
100
AcDbEntity
  8
0
100
AcDbLine
 10
396.2950641609386
 20
750.7873816353216
 30
0.0
 11
352.9147557813578
 21
750.7873816353217
 31
0.0
  0
LINE
  5
C68
330
1F
100
AcDbEntity
  8
0
100
AcDbLine
 10
431.4810277659765
 20
750.7873816353216
 30
0.0
 11
401.3729617253228
 21
750.7873816353216
 31
0.0
  0
LINE
  5
C69
330
1F
100
AcDbEntity
  8
0
100
AcDbLine
 10
431.4810277659765
 20
750.7873816353216
 30
0.0
 11
433.9957557813582
 21
750.7873816353217
 31
0.0
  0
LINE
  5
C6A
330
1F
100
AcDbEntity
  8
0
100
AcDbLine
 10
541.1811182023342
 20
750.7873816353219
 30
0.0
 11
505.3266367004521
 21
750.7873816353219
 31
0.0
  0
LINE
  5
C6B
330
1F
100
AcDbEntity
  8
0
100
AcDbLine
 10
541.9371027084803
 20
750.7873816353219
 30
0.0
 11
544.565615905965
 21
750.7873816353217
 31
0.0
  0
LINE
  5
C6C
330
1F
100
AcDbEntity
  8
0
100
AcDbLine
 10
541.9371027084803
 20
751.7873816353219
 30
0.0
 11
544.565615905965
 21
751.7873816353219
 31
0.0
  0
LINE
  5
C6D
330
1F
100
AcDbEntity
  8
0
100
AcDbLine
 10
541.1811182023342
 20
751.7873816353219
 30
0.0
 11
505.3266367004521
 21
751.7873816353219
 31
0.0
  0
LINE
  5
C6E
330
1F
100
AcDbEntity
  8
0
100
AcDbLine
 10
427.8649355537989
 20
528.2509554462122
 30
0.0
 11
432.4027397141671
 21
557.6345008470438
 31
0.0
  0
LINE
  5
C6F
330
1F
100
AcDbEntity
  8
0
100
AcDbLine
 10
416.179700339617
 20
457.7342932727567
 30
0.0
 11
415.9896018569225
 21
455.9546436303544
 31
0.0
  0
LINE
  5
C70
330
1F
100
AcDbEntity
  8
0
100
AcDbLine
 10
377.097062454054
 20
532.655310303337
 30
0.0
 11
382.5258199535219
 21
561.9615612573668
 31
0.0
  0
LINE
  5
C71
330
1F
100
AcDbEntity
  8
0
100
AcDbLine
 10
416.5297631447816
 20
459.9285521606439
 30
0.0
 11
416.179700339617
 21
457.7342932727567
 31
0.0
  0
LINE
  5
C72
330
1F
100
AcDbEntity
  8
0
100
AcDbLine
 10
632.3887999851038
 20
532.6553103033372
 30
0.0
 11
626.944867493931
 21
561.961561257367
 31
0.0
  0
LINE
  5
C73
330
1F
100
AcDbEntity
  8
0
100
AcDbLine
 10
581.6213593778867
 20
528.2509554462125
 30
0.0
 11
577.0683726357646
 21
557.634500847044
 31
0.0
  0
LINE
  5
C74
330
1F
100
AcDbEntity
  8
0
100
AcDbLine
 10
593.5340742849883
 20
455.9546436303543
 30
0.0
 11
593.4363228821459
 21
456.8444684515556
 31
0.0
  0
LINE
  5
C75
330
1F
100
AcDbEntity
  8
0
100
AcDbLine
 10
497.0686023906789
 20
530.4531328747748
 30
0.0
 11
498.0684799387764
 21
559.7980310522054
 31
0.0
  0
LINE
  5
C76
330
1F
100
AcDbEntity
  8
0
100
AcDbLine
 10
547.9738747302596
 20
530.4531328747748
 30
0.0
 11
548.0803876443957
 21
559.7980310522054
 31
0.0
  0
LINE
  5
C77
330
1F
100
AcDbEntity
  8
0
100
AcDbLine
 10
494.5039083611723
 20
385.623491001839
 30
0.0
 11
494.3657763203363
 21
385.0472067311973
 31
0.0
  0
ENDSEC
  0
SECTION
  2
OBJECTS
  0
DICTIONARY
  5
C
330
0
100
AcDbDictionary
281
     1
  3
ACAD_CIP_PREVIOUS_PRODUCT_INFO
350
1D8
  3
ACAD_COLOR
350
1D0
  3
ACAD_DETAILVIEWSTYLE
350
1D3
  3
ACAD_GROUP
350
D
  3
ACAD_LAYOUT
350
1A
  3
ACAD_MATERIAL
350
43
  3
ACAD_MLEADERSTYLE
350
5B
  3
ACAD_MLINESTYLE
350
17
  3
ACAD_PLOTSETTINGS
350
19
  3
ACAD_PLOTSTYLENAME
350
E
  3
ACAD_SCALELIST
350
47
  3
ACAD_SECTIONVIEWSTYLE
350
1D1
  3
ACAD_TABLESTYLE
350
59
  3
ACAD_VISUALSTYLE
350
2A
  3
ACDB_RECOMPOSE_DATA
350
C98
  3
AcDbVariableDictionary
350
18D
  0
DICTIONARY
  5
1AB
330
8
100
AcDbDictionary
280
     1
281
     1
  0
SUN
  5
5D
330
29
100
AcDbSun
 90
        1
290
     0
 63
     7
 40
1.0
291
     1
 91
  2455826
 92
 54000000
292
     0
 70
     0
 71
   256
280
     1
  0
DICTIONARY
  5
C87
330
2
100
AcDbDictionary
280
     1
281
     1
  3
ACAD_LAYERSTATES
360
C88
  0
DICTIONARY
  5
C7E
330
10
100
AcDbDictionary
280
     1
281
     1
  3
ADSK_XREC_LAYER_RECONCILED
360
C7F
  0
DICTIONARY
  5
C80
330
5E
100
AcDbDictionary
280
     1
281
     1
  3
ADSK_XREC_LAYER_RECONCILED
360
C81
  0
DICTIONARY
  5
C82
330
5F
100
AcDbDictionary
280
     1
281
     1
  3
ADSK_XREC_LAYER_RECONCILED
360
C83
  0
DICTIONARY
  5
195
330
1F
100
AcDbDictionary
280
     1
281
     1
  3
ACAD_LAYOUTSELFREF
360
1B6
  0
DICTIONARY
  5
197
330
1B
100
AcDbDictionary
280
     1
281
     1
  3
ACAD_LAYOUTSELFREF
360
1B5
  0
DICTIONARY
  5
199
330
23
100
AcDbDictionary
280
     1
281
     1
  3
ACAD_LAYOUTSELFREF
360
1B7
  0
XRECORD
  5
1D8
102
{ACAD_REACTORS
330
C
102
}
330
C
100
AcDbXrecord
280
     1
300
ACD
300
2020
300

  0
DICTIONARY
  5
1D0
102
{ACAD_REACTORS
330
C
102
}
330
C
100
AcDbDictionary
281
     1
  0
DICTIONARY
  5
1D3
102
{ACAD_REACTORS
330
C
102
}
330
C
100
AcDbDictionary
281
     1
  3
Metric50
350
1D4
  0
DICTIONARY
  5
D
102
{ACAD_REACTORS
330
C
102
}
330
C
100
AcDbDictionary
281
     1
  0
DICTIONARY
  5
1A
102
{ACAD_REACTORS
330
C
102
}
330
C
100
AcDbDictionary
281
     1
  3
Layout1
350
1E
  3
Layout2
350
26
  3
Model
350
22
  0
DICTIONARY
  5
43
102
{ACAD_REACTORS
330
C
102
}
330
C
100
AcDbDictionary
281
     1
  3
ByBlock
350
45
  3
ByLayer
350
44
  3
Global
350
46
  0
DICTIONARY
  5
5B
102
{ACAD_REACTORS
330
C
102
}
330
C
100
AcDbDictionary
281
     1
  3
Standard
350
5C
  0
DICTIONARY
  5
17
102
{ACAD_REACTORS
330
C
102
}
330
C
100
AcDbDictionary
281
     1
  3
Standard
350
18
  0
DICTIONARY
  5
19
102
{ACAD_REACTORS
330
C
102
}
330
C
100
AcDbDictionary
281
     1
  0
ACDBDICTIONARYWDFLT
  5
E
102
{ACAD_XDICTIONARY
360
1B1
102
}
102
{ACAD_REACTORS
330
C
102
}
330
C
100
AcDbDictionary
281
     1
  3
Color_7
350
1D5
  3
NORMAL
350
F
100
AcDbDictionaryWithDefault
340
F
  0
DICTIONARY
  5
47
102
{ACAD_REACTORS
330
C
102
}
330
C
100
AcDbDictionary
281
     1
  3
A0
350
48
  3
A1
350
49
  3
A2
350
4A
  3
A3
350
4B
  3
A4
350
4C
  3
A5
350
4D
  3
A6
350
4E
  3
A7
350
4F
  3
A8
350
50
  3
A9
350
51
  3
B1
350
52
  3
B2
350
53
  3
B3
350
54
  3
B4
350
55
  3
B5
350
56
  3
B6
350
57
  3
B7
350
58
  0
DICTIONARY
  5
1D1
102
{ACAD_REACTORS
330
C
102
}
330
C
100
AcDbDictionary
281
     1
  3
Metric50
350
1D2
  0
DICTIONARY
  5
59
102
{ACAD_REACTORS
330
C
102
}
330
C
100
AcDbDictionary
281
     1
  3
Standard
350
5A
  0
DICTIONARY
  5
2A
102
{ACAD_REACTORS
330
C
102
}
330
C
100
AcDbDictionary
281
     1
  3
2dWireframe
350
2F
  3
Basic
350
32
  3
Brighten
350
36
  3
ColorChange
350
3A
  3
Conceptual
350
34
  3
Dim
350
35
  3
EdgeColorOff
350
3D
  3
Facepattern
350
39
  3
Flat
350
2B
  3
FlatWithEdges
350
2C
  3
Gouraud
350
2D
  3
GouraudWithEdges
350
2E
  3
Hidden
350
31
  3
JitterOff
350
3B
  3
Linepattern
350
38
  3
OverhangOff
350
3C
  3
Realistic
350
33
  3
Shaded
350
42
  3
Shaded with edges
350
41
  3
Shades of Gray
350
3E
  3
Sketchy
350
3F
  3
Thicken
350
37
  3
Wireframe
350
30
  3
X-Ray
350
40
  0
XRECORD
  5
C98
102
{ACAD_REACTORS
330
C
102
}
330
C
100
AcDbXrecord
280
     1
 90
        1
330
5A
  0
DICTIONARY
  5
18D
102
{ACAD_REACTORS
330
C
102
}
330
C
100
AcDbDictionary
281
     1
  3
CANNOSCALE
350
1AF
  3
CMLEADERSTYLE
350
18F
  3
CTABLESTYLE
350
18E
  3
CVIEWDETAILSTYLE
350
C92
  3
CVIEWSECTIONSTYLE
350
C93
  3
DIMASSOC
350
192
  3
HIDETEXT
350
193
  3
LAYEREVAL
350
C95
  3
LAYERNOTIFY
350
C96
  3
LIGHTINGUNITS
350
C94
  3
MSLTSCALE
350
1B0
  0
DICTIONARY
  5
C88
102
{ACAD_REACTORS
330
C87
102
}
330
C87
100
AcDbDictionary
281
     1
  0
XRECORD
  5
C7F
102
{ACAD_REACTORS
330
C7E
102
}
330
C7E
100
AcDbXrecord
280
     1
290
     1
  0
XRECORD
  5
C81
102
{ACAD_REACTORS
330
C80
102
}
330
C80
100
AcDbXrecord
280
     1
290
     1
  0
XRECORD
  5
C83
102
{ACAD_REACTORS
330
C82
102
}
330
C82
100
AcDbXrecord
280
     1
290
     1
  0
XRECORD
  5
1B6
102
{ACAD_REACTORS
330
195
102
}
330
195
100
AcDbXrecord
280
     1
340
1F
  0
XRECORD
  5
1B5
102
{ACAD_REACTORS
330
197
102
}
330
197
100
AcDbXrecord
280
     1
340
1B
  0
XRECORD
  5
1B7
102
{ACAD_REACTORS
330
199
102
}
330
199
100
AcDbXrecord
280
     1
340
23
  0
ACDBDETAILVIEWSTYLE
  5
1D4
102
{ACAD_REACTORS
330
1D3
102
}
330
1D3
100
AcDbModelDocViewStyle
 70
     0
  3
Metric50
290
     1
300
Metric50
 90
        0
100
AcDbDetailViewStyle
 70
     0
 71
     0
 90
        3
 71
     1
340
11
 62
   256
 40
5.0
340
0
 62
   256
 40
5.0
300

 40
0.0
280
     1
 71
     2
340
16
 90
       25
 62
   256
 71
     3
340
11
 62
   256
 40
5.0
 90
        0
 40
15.0
 90
        1
300
%<\AcVar ViewDetailId>% (%<\AcVar ViewScale \f "%sn">%)
 71
     4
340
16
 90
       25
 62
   256
340
16
 90
       25
 62
   256
280
     0
  0
LAYOUT
  5
1E
102
{ACAD_REACTORS
330
1A
102
}
330
1A
100
AcDbPlotSettings
  1

  2
none_device
  4

  6

 40
0.0
 41
0.0
 42
0.0
 43
0.0
 44
0.0
 45
0.0
 46
0.0
 47
0.0
 48
0.0
 49
0.0
140
0.0
141
0.0
142
1.0
143
1.0
 70
   688
 72
     0
 73
     0
 74
     5
  7

 75
    16
147
1.0
 76
     0
 77
     2
 78
   300
148
0.0
149
0.0
100
AcDbLayout
  1
Layout1
 70
     1
 71
     1
 10
0.0
 20
0.0
 11
12.0
 21
9.0
 12
0.0
 22
0.0
 32
0.0
 14
1.000000000000000E+20
 24
1.000000000000000E+20
 34
1.000000000000000E+20
 15
-1.000000000000000E+20
 25
-1.000000000000000E+20
 35
-1.000000000000000E+20
146
0.0
 13
0.0
 23
0.0
 33
0.0
 16
1.0
 26
0.0
 36
0.0
 17
0.0
 27
1.0
 37
0.0
 76
     0
330
1B
  0
LAYOUT
  5
26
102
{ACAD_REACTORS
330
1A
102
}
330
1A
100
AcDbPlotSettings
  1

  2
none_device
  4

  6

 40
0.0
 41
0.0
 42
0.0
 43
0.0
 44
0.0
 45
0.0
 46
0.0
 47
0.0
 48
0.0
 49
0.0
140
0.0
141
0.0
142
1.0
143
1.0
 70
   688
 72
     0
 73
     0
 74
     5
  7

 75
    16
147
1.0
 76
     0
 77
     2
 78
   300
148
0.0
149
0.0
100
AcDbLayout
  1
Layout2
 70
     1
 71
     2
 10
0.0
 20
0.0
 11
0.0
 21
0.0
 12
0.0
 22
0.0
 32
0.0
 14
0.0
 24
0.0
 34
0.0
 15
0.0
 25
0.0
 35
0.0
146
0.0
 13
0.0
 23
0.0
 33
0.0
 16
1.0
 26
0.0
 36
0.0
 17
0.0
 27
1.0
 37
0.0
 76
     0
330
23
  0
LAYOUT
  5
22
102
{ACAD_REACTORS
330
1A
102
}
330
1A
100
AcDbPlotSettings
  1

  2
none_device
  4
Letter_(8.50_x_11.00_Inches)
  6

 40
6.349999999999999
 41
6.349999999999999
 42
6.350005079999999
 43
6.350005079999999
 44
215.9
 45
279.4
 46
0.0
 47
0.0
 48
0.0
 49
0.0
140
0.0
141
0.0
142
1.0
143
1.0
 70
  1712
 72
     0
 73
     0
 74
     0
  7

 75
     0
147
1.0
 76
     0
 77
     2
 78
   300
148
0.0
149
0.0
100
AcDbLayout
  1
Model
 70
     1
 71
     0
 10
0.0
 20
0.0
 11
12.0
 21
9.0
 12
0.0
 22
0.0
 32
0.0
 14
1.000000000000000E+20
 24
1.000000000000000E+20
 34
1.000000000000000E+20
 15
-1.000000000000000E+20
 25
-1.000000000000000E+20
 35
-1.000000000000000E+20
146
0.0
 13
0.0
 23
0.0
 33
0.0
 16
1.0
 26
0.0
 36
0.0
 17
0.0
 27
1.0
 37
0.0
 76
     0
330
1F
331
29
  0
MATERIAL
  5
45
102
{ACAD_REACTORS
330
43
102
}
330
43
100
AcDbMaterial
  1
BYBLOCK
 73
     1
 78
     1
172
     1
176
     1
270
     1
274
     1
  0
MATERIAL
  5
44
102
{ACAD_REACTORS
330
43
102
}
330
43
100
AcDbMaterial
  1
BYLAYER
 73
     1
 78
     1
172
     1
176
     1
270
     1
274
     1
  0
MATERIAL
  5
46
102
{ACAD_REACTORS
330
43
102
}
330
43
100
AcDbMaterial
  1
GLOBAL
 73
     1
 78
     1
172
     1
176
     1
270
     1
274
     1
  0
MLEADERSTYLE
  5
5C
102
{ACAD_REACTORS
330
5B
102
}
330
5B
100
AcDbMLeaderStyle
179
     2
170
     2
171
     1
172
     0
 90
        2
 40
0.0
 41
0.0
173
     1
 91
-1056964608
340
14
 92
       -2
290
     1
 42
0.09
291
     1
 43
0.36
  3
Standard
 44
0.18
300

342
11
174
     1
178
     6
175
     1
176
     0
 93
-1056964608
 45
0.18
292
     0
297
     0
 46
0.18
 94
-1056964608
 47
1.0
 49
1.0
140
1.0
293
     1
141
0.0
294
     1
177
     0
142
1.0
295
     0
296
     0
143
0.125
271
     0
272
     9
273
     9
298
     0
  0
MLINESTYLE
  5
18
102
{ACAD_REACTORS
330
17
102
}
330
17
100
AcDbMlineStyle
  2
STANDARD
 70
     0
  3

 62
   256
 51
90.0
 52
90.0
 71
     2
 49
0.5
 62
   256
  6
BYLAYER
 49
-0.5
 62
   256
  6
BYLAYER
  0
DICTIONARY
  5
1B1
330
E
100
AcDbDictionary
280
     1
281
     1
  3
ACAD_XREC_ROUNDTRIP
360
1B2
  0
ACDBPLACEHOLDER
  5
1D5
102
{ACAD_REACTORS
330
E
102
}
330
E
  0
ACDBPLACEHOLDER
  5
F
102
{ACAD_REACTORS
330
E
102
}
330
E
  0
SCALE
  5
48
102
{ACAD_REACTORS
330
47
102
}
330
47
100
AcDbScale
 70
     0
300
1:1
140
1.0
141
1.0
290
     1
  0
SCALE
  5
49
102
{ACAD_REACTORS
330
47
102
}
330
47
100
AcDbScale
 70
     0
300
1/128" = 1'-0"
140
0.0078125
141
12.0
290
     0
  0
SCALE
  5
4A
102
{ACAD_REACTORS
330
47
102
}
330
47
100
AcDbScale
 70
     0
300
1/64" = 1'-0"
140
0.015625
141
12.0
290
     0
  0
SCALE
  5
4B
102
{ACAD_REACTORS
330
47
102
}
330
47
100
AcDbScale
 70
     0
300
1/32" = 1'-0"
140
0.03125
141
12.0
290
     0
  0
SCALE
  5
4C
102
{ACAD_REACTORS
330
47
102
}
330
47
100
AcDbScale
 70
     0
300
1/16" = 1'-0"
140
0.0625
141
12.0
290
     0
  0
SCALE
  5
4D
102
{ACAD_REACTORS
330
47
102
}
330
47
100
AcDbScale
 70
     0
300
3/32" = 1'-0"
140
0.09375
141
12.0
290
     0
  0
SCALE
  5
4E
102
{ACAD_REACTORS
330
47
102
}
330
47
100
AcDbScale
 70
     0
300
1/8" = 1'-0"
140
0.125
141
12.0
290
     0
  0
SCALE
  5
4F
102
{ACAD_REACTORS
330
47
102
}
330
47
100
AcDbScale
 70
     0
300
3/16" = 1'-0"
140
0.1875
141
12.0
290
     0
  0
SCALE
  5
50
102
{ACAD_REACTORS
330
47
102
}
330
47
100
AcDbScale
 70
     0
300
1/4" = 1'-0"
140
0.25
141
12.0
290
     0
  0
SCALE
  5
51
102
{ACAD_REACTORS
330
47
102
}
330
47
100
AcDbScale
 70
     0
300
3/8" = 1'-0"
140
0.375
141
12.0
290
     0
  0
SCALE
  5
52
102
{ACAD_REACTORS
330
47
102
}
330
47
100
AcDbScale
 70
     0
300
1/2" = 1'-0"
140
0.5
141
12.0
290
     0
  0
SCALE
  5
53
102
{ACAD_REACTORS
330
47
102
}
330
47
100
AcDbScale
 70
     0
300
3/4" = 1'-0"
140
0.75
141
12.0
290
     0
  0
SCALE
  5
54
102
{ACAD_REACTORS
330
47
102
}
330
47
100
AcDbScale
 70
     0
300
1" = 1'-0"
140
1.0
141
12.0
290
     0
  0
SCALE
  5
55
102
{ACAD_REACTORS
330
47
102
}
330
47
100
AcDbScale
 70
     0
300
1-1/2" = 1'-0"
140
1.5
141
12.0
290
     0
  0
SCALE
  5
56
102
{ACAD_REACTORS
330
47
102
}
330
47
100
AcDbScale
 70
     0
300
3" = 1'-0"
140
3.0
141
12.0
290
     0
  0
SCALE
  5
57
102
{ACAD_REACTORS
330
47
102
}
330
47
100
AcDbScale
 70
     0
300
6" = 1'-0"
140
6.0
141
12.0
290
     0
  0
SCALE
  5
58
102
{ACAD_REACTORS
330
47
102
}
330
47
100
AcDbScale
 70
     0
300
1'-0" = 1'-0"
140
12.0
141
12.0
290
     0
  0
ACDBSECTIONVIEWSTYLE
  5
1D2
102
{ACAD_REACTORS
330
1D1
102
}
330
1D1
100
AcDbModelDocViewStyle
 70
     0
  3
Metric50
290
     1
300
Metric50
 90
        0
100
AcDbSectionViewStyle
 70
     0
 71
     0
 90
      102
 71
     1
340
11
 62
   256
 40
5.0
340
0
340
0
 62
   256
 40
5.0
300
I, O, Q, S, X, Z
 40
10.0
 90
        0
 40
2.5
 90
        0
 71
     2
340
16
 90
       25
 62
   256
340
16
 90
       50
 62
   256
 40
5.0
 40
2.5
 40
5.0
 71
     3
340
11
 62
   256
 40
5.0
 90
        0
 40
15.0
 90
        1
300
%<\AcVar ViewSectionStartId>%-%<\AcVar ViewSectionEndId>% (%<\AcVar ViewScale \f "%sn">%)
 71
     4
 62
   256
 62
   257
300
ANSI31
 40
1.0
 90
        0
290
     0
290
     0
 90
        6
 40
0.0
 40
1.570796326794896
 40
0.2617993877991494
 40
1.308996938995747
 40
-0.2617993877991494
 40
1.832595714594046
  0
TABLESTYLE
  5
5A
102
{ACAD_XDICTIONARY
360
1C4
102
}
102
{ACAD_REACTORS
330
59
102
}
330
59
100
AcDbTableStyle
280
     0
  3
Standard
 70
     0
 71
     0
 40
0.06
 41
0.06
280
     0
281
     0
  7
Standard
140
0.18
170
     2
 62
     0
 63
     7
283
     0
 90
        4
 91
        0
  1

274
    -2
284
     1
 64
     0
275
    -2
285
     1
 65
     0
276
    -2
286
     1
 66
     0
277
    -2
287
     1
 67
     0
278
    -2
288
     1
 68
     0
279
    -2
289
     1
 69
     0
  7
Standard
140
0.25
170
     5
 62
     0
 63
     7
283
     0
 90
        4
 91
        0
  1

274
    -2
284
     1
 64
     0
275
    -2
285
     1
 65
     0
276
    -2
286
     1
 66
     0
277
    -2
287
     1
 67
     0
278
    -2
288
     1
 68
     0
279
    -2
289
     1
 69
     0
  7
Standard
140
0.18
170
     5
 62
     0
 63
     7
283
     0
 90
        4
 91
        0
  1

274
    -2
284
     1
 64
     0
275
    -2
285
     1
 65
     0
276
    -2
286
     1
 66
     0
277
    -2
287
     1
 67
     0
278
    -2
288
     1
 68
     0
279
    -2
289
     1
 69
     0
  0
VISUALSTYLE
  5
2F
102
{ACAD_REACTORS
330
2A
102
}
330
2A
100
AcDbVisualStyle
  2
2dWireframe
 70
     4
177
     3
291
     0
 70
    58
 90
        0
176
     1
 90
        2
176
     1
 90
        0
176
     1
 90
        0
176
     1
 40
0.6
176
     1
 40
30.0
176
     1
 62
     7
176
     1
 90
        1
176
     1
 90
        4
176
     1
 62
     7
176
     1
 62
   257
176
     1
 90
        1
176
     1
 90
        1
176
     1
 40
1.0
176
     1
 90
        0
176
     1
 62
   257
176
     1
 40
1.0
176
     1
 90
        1
176
     1
 90
        6
176
     1
 90
        2
176
     1
 62
     7
176
     1
 90
        5
176
     1
 90
        0
176
     1
 90
        0
176
     1
290
     0
176
     1
 90
        1
176
     1
 40
0.0
176
     1
 90
        0
176
     1
290
     1
176
     1
290
     1
176
     1
290
     0
176
     1
290
     0
176
     1
290
     0
176
     1
290
     0
176
     1
290
     0
176
     1
290
     0
176
     1
290
     0
176
     1
 90
       50
176
     1
 40
0.0
176
     1
 40
1.0
176
     1
 90
        0
176
     1
 62
    18
420
        0
176
     1
 90
       50
176
     1
 90
        3
176
     1
 62
     5
420
      255
176
     1
290
     0
176
     1
 90
       50
176
     1
 90
       50
176
     1
 90
       50
176
     1
290
     0
176
     1
 90
       50
176
     1
 62
   256
176
     0
 40
1.0
176
     0
 90
        2
176
     1
  1
strokes_ogs.tif
176
     1
290
     0
176
     1
 40
1.0
176
     1
 40
1.0
176
     1
  0
VISUALSTYLE
  5
32
102
{ACAD_REACTORS
330
2A
102
}
330
2A
100
AcDbVisualStyle
  2
Basic
 70
     7
177
     3
291
     1
 70
    58
 90
        1
176
     1
 90
        0
176
     1
 90
        1
176
     1
 90
        0
176
     1
 40
0.6
176
     1
 40
30.0
176
     1
 62
     7
176
     1
 90
        0
176
     1
 90
        4
176
     1
 62
     7
176
     1
 62
   257
176
     1
 90
        1
176
     1
 90
        1
176
     1
 40
1.0
176
     1
 90
        8
176
     1
 62
     7
176
     1
 40
1.0
176
     1
 90
        1
176
     1
 90
        6
176
     1
 90
        2
176
     1
 62
     7
176
     1
 90
        5
176
     1
 90
        0
176
     1
 90
        0
176
     1
290
     0
176
     1
 90
        1
176
     1
 40
0.0
176
     1
 90
        0
176
     1
290
     0
176
     1
290
     1
176
     1
290
     1
176
     1
290
     0
176
     1
290
     0
176
     1
290
     0
176
     1
290
     0
176
     1
290
     0
176
     1
290
     0
176
     1
 90
       50
176
     1
 40
0.0
176
     1
 40
1.0
176
     1
 90
        0
176
     1
 62
    18
420
        0
176
     1
 90
       50
176
     1
 90
        3
176
     1
 62
     5
420
      255
176
     1
290
     0
176
     1
 90
       50
176
     1
 90
       50
176
     1
 90
       50
176
     1
290
     0
176
     1
 90
       50
176
     1
 62
   256
176
     0
 40
1.0
176
     0
 90
        2
176
     1
  1
strokes_ogs.tif
176
     1
290
     0
176
     1
 40
1.0
176
     1
 40
1.0
176
     1
  0
VISUALSTYLE
  5
36
102
{ACAD_REACTORS
330
2A
102
}
330
2A
100
AcDbVisualStyle
  2
Brighten
 70
    12
177
     3
291
     1
 70
    58
 90
        2
176
     1
 90
        2
176
     1
 90
        0
176
     1
 90
        0
176
     1
 40
0.6
176
     1
 40
30.0
176
     1
 62
     7
176
     1
 90
        1
176
     1
 90
        4
176
     1
 62
     7
176
     1
 62
   257
176
     1
 90
        1
176
     1
 90
        1
176
     1
 40
1.0
176
     1
 90
        8
176
     1
 62
     7
176
     1
 40
1.0
176
     1
 90
        1
176
     1
 90
        6
176
     1
 90
        2
176
     1
 62
     7
176
     1
 90
        5
176
     1
 90
        0
176
     1
 90
        0
176
     1
290
     0
176
     1
 90
        1
176
     1
 40
50.0
176
     1
 90
        0
176
     1
290
     0
176
     1
290
     1
176
     1
290
     1
176
     1
290
     0
176
     1
290
     0
176
     1
290
     0
176
     1
290
     0
176
     1
290
     0
176
     1
290
     0
176
     1
 90
       50
176
     1
 40
0.0
176
     1
 40
1.0
176
     1
 90
        0
176
     1
 62
    18
420
        0
176
     1
 90
       50
176
     1
 90
        3
176
     1
 62
     5
420
      255
176
     1
290
     0
176
     1
 90
       50
176
     1
 90
       50
176
     1
 90
       50
176
     1
290
     0
176
     1
 90
       50
176
     1
 62
   256
176
     0
 40
1.0
176
     0
 90
        2
176
     1
  1
strokes_ogs.tif
176
     1
290
     0
176
     1
 40
1.0
176
     1
 40
1.0
176
     1
  0
VISUALSTYLE
  5
3A
102
{ACAD_REACTORS
330
2A
102
}
330
2A
100
AcDbVisualStyle
  2
ColorChange
 70
    16
177
     3
291
     1
 70
    58
 90
        2
176
     1
 90
        2
176
     1
 90
        3
176
     1
 90
        0
176
     1
 40
0.6
176
     1
 40
30.0
176
     1
 62
     8
176
     1
 90
        1
176
     1
 90
        4
176
     1
 62
     7
176
     1
 62
   257
176
     1
 90
        1
176
     1
 90
        1
176
     1
 40
1.0
176
     1
 90
        8
176
     1
 62
     8
176
     1
 40
1.0
176
     1
 90
        1
176
     1
 90
        6
176
     1
 90
        2
176
     1
 62
     7
176
     1
 90
        5
176
     1
 90
        0
176
     1
 90
        0
176
     1
290
     0
176
     1
 90
        1
176
     1
 40
0.0
176
     1
 90
        0
176
     1
290
     0
176
     1
290
     1
176
     1
290
     1
176
     1
290
     0
176
     1
290
     0
176
     1
290
     0
176
     1
290
     0
176
     1
290
     0
176
     1
290
     0
176
     1
 90
       50
176
     1
 40
0.0
176
     1
 40
1.0
176
     1
 90
        0
176
     1
 62
    18
420
        0
176
     1
 90
       50
176
     1
 90
        3
176
     1
 62
     5
420
      255
176
     1
290
     0
176
     1
 90
       50
176
     1
 90
       50
176
     1
 90
       50
176
     1
290
     0
176
     1
 90
       50
176
     1
 62
   256
176
     0
 40
1.0
176
     0
 90
        2
176
     1
  1
strokes_ogs.tif
176
     1
290
     0
176
     1
 40
1.0
176
     1
 40
1.0
176
     1
  0
VISUALSTYLE
  5
34
102
{ACAD_REACTORS
330
2A
102
}
330
2A
100
AcDbVisualStyle
  2
Conceptual
 70
     9
177
     3
291
     0
 70
    58
 90
        3
176
     1
 90
        2
176
     1
 90
        0
176
     1
 90
        0
176
     1
 40
0.6
176
     1
 40
30.0
176
     1
 62
     7
176
     1
 90
        2
176
     1
 90
        2
176
     1
 62
     7
176
     1
 62
   257
176
     1
 90
        1
176
     1
 90
        1
176
     1
 40
179.0
176
     1
 90
        8
176
     1
 62
     7
176
     1
 40
1.0
176
     1
 90
        1
176
     1
 90
        6
176
     1
 90
        2
176
     1
 62
     7
176
     1
 90
        3
176
     1
 90
        0
176
     1
 90
        0
176
     1
290
     0
176
     1
 90
        1
176
     1
 40
0.0
176
     1
 90
        0
176
     1
290
     0
176
     1
290
     1
176
     1
290
     1
176
     1
290
     0
176
     1
290
     0
176
     1
290
     0
176
     1
290
     0
176
     1
290
     0
176
     1
290
     0
176
     1
 90
       50
176
     1
 40
0.0
176
     1
 40
1.0
176
     1
 90
        0
176
     1
 62
    18
420
        0
176
     1
 90
       50
176
     1
 90
        3
176
     1
 62
     5
420
      255
176
     1
290
     0
176
     1
 90
       50
176
     1
 90
       50
176
     1
 90
       50
176
     1
290
     0
176
     1
 90
       50
176
     1
 62
   256
176
     0
 40
1.0
176
     0
 90
        2
176
     1
  1
strokes_ogs.tif
176
     1
290
     0
176
     1
 40
1.0
176
     1
 40
1.0
176
     1
  0
VISUALSTYLE
  5
35
102
{ACAD_REACTORS
330
2A
102
}
330
2A
100
AcDbVisualStyle
  2
Dim
 70
    11
177
     3
291
     1
 70
    58
 90
        2
176
     1
 90
        2
176
     1
 90
        0
176
     1
 90
        0
176
     1
 40
0.6
176
     1
 40
30.0
176
     1
 62
     7
176
     1
 90
        1
176
     1
 90
        4
176
     1
 62
     7
176
     1
 62
   257
176
     1
 90
        1
176
     1
 90
        1
176
     1
 40
1.0
176
     1
 90
        8
176
     1
 62
     7
176
     1
 40
1.0
176
     1
 90
        1
176
     1
 90
        6
176
     1
 90
        2
176
     1
 62
     7
176
     1
 90
        5
176
     1
 90
        0
176
     1
 90
        0
176
     1
290
     0
176
     1
 90
        1
176
     1
 40
-50.0
176
     1
 90
        0
176
     1
290
     0
176
     1
290
     1
176
     1
290
     1
176
     1
290
     0
176
     1
290
     0
176
     1
290
     0
176
     1
290
     0
176
     1
290
     0
176
     1
290
     0
176
     1
 90
       50
176
     1
 40
0.0
176
     1
 40
1.0
176
     1
 90
        0
176
     1
 62
    18
420
        0
176
     1
 90
       50
176
     1
 90
        3
176
     1
 62
     5
420
      255
176
     1
290
     0
176
     1
 90
       50
176
     1
 90
       50
176
     1
 90
       50
176
     1
290
     0
176
     1
 90
       50
176
     1
 62
   256
176
     0
 40
1.0
176
     0
 90
        2
176
     1
  1
strokes_ogs.tif
176
     1
290
     0
176
     1
 40
1.0
176
     1
 40
1.0
176
     1
  0
VISUALSTYLE
  5
3D
102
{ACAD_REACTORS
330
2A
102
}
330
2A
100
AcDbVisualStyle
  2
EdgeColorOff
 70
    22
177
     3
291
     1
 70
    58
 90
        2
176
     1
 90
        2
176
     1
 90
        0
176
     1
 90
        0
176
     1
 40
0.6
176
     1
 40
30.0
176
     1
 62
     7
176
     1
 90
        1
176
     1
 90
        4
176
     1
 62
     7
176
     1
 62
   257
176
     1
 90
        1
176
     1
 90
        1
176
     1
 40
1.0
176
     1
 90
        8
176
     1
 62
     7
176
     1
 40
1.0
176
     1
 90
        1
176
     1
 90
        6
176
     1
 90
        2
176
     1
 62
     7
176
     1
 90
        5
176
     1
 90
        0
176
     1
 90
        0
176
     1
290
     0
176
     1
 90
        1
176
     1
 40
0.0
176
     1
 90
        0
176
     1
290
     0
176
     1
290
     1
176
     1
290
     1
176
     1
290
     0
176
     1
290
     0
176
     1
290
     0
176
     1
290
     0
176
     1
290
     0
176
     1
290
     0
176
     1
 90
       50
176
     1
 40
0.0
176
     1
 40
1.0
176
     1
 90
        0
176
     1
 62
    18
420
        0
176
     1
 90
       50
176
     1
 90
        3
176
     1
 62
     5
420
      255
176
     1
290
     0
176
     1
 90
       50
176
     1
 90
       50
176
     1
 90
       50
176
     1
290
     0
176
     1
 90
       50
176
     1
 62
   256
176
     0
 40
1.0
176
     0
 90
        2
176
     1
  1
strokes_ogs.tif
176
     1
290
     0
176
     1
 40
1.0
176
     1
 40
1.0
176
     1
  0
VISUALSTYLE
  5
39
102
{ACAD_REACTORS
330
2A
102
}
330
2A
100
AcDbVisualStyle
  2
Facepattern
 70
    15
177
     3
291
     1
 70
    58
 90
        2
176
     1
 90
        2
176
     1
 90
        0
176
     1
 90
        0
176
     1
 40
0.6
176
     1
 40
30.0
176
     1
 62
     7
176
     1
 90
        1
176
     1
 90
        4
176
     1
 62
     7
176
     1
 62
   257
176
     1
 90
        1
176
     1
 90
        1
176
     1
 40
1.0
176
     1
 90
        8
176
     1
 62
     7
176
     1
 40
1.0
176
     1
 90
        1
176
     1
 90
        6
176
     1
 90
        2
176
     1
 62
     7
176
     1
 90
        5
176
     1
 90
        0
176
     1
 90
        0
176
     1
290
     0
176
     1
 90
        1
176
     1
 40
0.0
176
     1
 90
        0
176
     1
290
     0
176
     1
290
     1
176
     1
290
     1
176
     1
290
     0
176
     1
290
     0
176
     1
290
     0
176
     1
290
     0
176
     1
290
     0
176
     1
290
     0
176
     1
 90
       50
176
     1
 40
0.0
176
     1
 40
1.0
176
     1
 90
        0
176
     1
 62
    18
420
        0
176
     1
 90
       50
176
     1
 90
        3
176
     1
 62
     5
420
      255
176
     1
290
     0
176
     1
 90
       50
176
     1
 90
       50
176
     1
 90
       50
176
     1
290
     0
176
     1
 90
       50
176
     1
 62
   256
176
     0
 40
1.0
176
     0
 90
        2
176
     1
  1
strokes_ogs.tif
176
     1
290
     0
176
     1
 40
1.0
176
     1
 40
1.0
176
     1
  0
VISUALSTYLE
  5
2B
102
{ACAD_REACTORS
330
2A
102
}
330
2A
100
AcDbVisualStyle
  2
Flat
 70
     0
177
     3
291
     1
 70
    58
 90
        2
176
     1
 90
        1
176
     1
 90
        1
176
     1
 90
        2
176
     1
 40
0.6
176
     1
 40
30.0
176
     1
 62
     7
176
     1
 90
        0
176
     1
 90
        0
176
     1
 62
     7
176
     1
 62
   257
176
     1
 90
        1
176
     1
 90
        1
176
     1
 40
1.0
176
     1
 90
        8
176
     1
 62
     7
176
     1
 40
1.0
176
     1
 90
        1
176
     1
 90
        6
176
     1
 90
        2
176
     1
 62
     7
176
     1
 90
        5
176
     1
 90
        0
176
     1
 90
        0
176
     1
290
     0
176
     1
 90
       13
176
     1
 40
0.0
176
     1
 90
        0
176
     1
290
     0
176
     1
290
     1
176
     1
290
     1
176
     1
290
     0
176
     1
290
     0
176
     1
290
     0
176
     1
290
     0
176
     1
290
     0
176
     1
290
     0
176
     1
 90
       50
176
     1
 40
0.0
176
     1
 40
1.0
176
     1
 90
        0
176
     1
 62
    18
420
        0
176
     1
 90
       50
176
     1
 90
        3
176
     1
 62
     5
420
      255
176
     1
290
     0
176
     1
 90
       50
176
     1
 90
       50
176
     1
 90
       50
176
     1
290
     0
176
     1
 90
       50
176
     1
 62
   256
176
     0
 40
1.0
176
     0
 90
        2
176
     1
  1
strokes_ogs.tif
176
     1
290
     0
176
     1
 40
1.0
176
     1
 40
1.0
176
     1
  0
VISUALSTYLE
  5
2C
102
{ACAD_REACTORS
330
2A
102
}
330
2A
100
AcDbVisualStyle
  2
FlatWithEdges
 70
     1
177
     3
291
     1
 70
    58
 90
        2
176
     1
 90
        1
176
     1
 90
        1
176
     1
 90
        2
176
     1
 40
0.6
176
     1
 40
30.0
176
     1
 62
     7
176
     1
 90
        1
176
     1
 90
        0
176
     1
 62
     7
176
     1
 62
   257
176
     1
 90
        1
176
     1
 90
        1
176
     1
 40
1.0
176
     1
 90
        0
176
     1
 62
   257
176
     1
 40
1.0
176
     1
 90
        1
176
     1
 90
        6
176
     1
 90
        2
176
     1
 62
     7
176
     1
 90
        5
176
     1
 90
        0
176
     1
 90
        0
176
     1
290
     0
176
     1
 90
       13
176
     1
 40
0.0
176
     1
 90
        0
176
     1
290
     0
176
     1
290
     1
176
     1
290
     1
176
     1
290
     0
176
     1
290
     0
176
     1
290
     0
176
     1
290
     0
176
     1
290
     0
176
     1
290
     0
176
     1
 90
       50
176
     1
 40
0.0
176
     1
 40
1.0
176
     1
 90
        0
176
     1
 62
    18
420
        0
176
     1
 90
       50
176
     1
 90
        3
176
     1
 62
     5
420
      255
176
     1
290
     0
176
     1
 90
       50
176
     1
 90
       50
176
     1
 90
       50
176
     1
290
     0
176
     1
 90
       50
176
     1
 62
   256
176
     0
 40
1.0
176
     0
 90
        2
176
     1
  1
strokes_ogs.tif
176
     1
290
     0
176
     1
 40
1.0
176
     1
 40
1.0
176
     1
  0
VISUALSTYLE
  5
2D
102
{ACAD_REACTORS
330
2A
102
}
330
2A
100
AcDbVisualStyle
  2
Gouraud
 70
     2
177
     3
291
     1
 70
    58
 90
        2
176
     1
 90
        2
176
     1
 90
        1
176
     1
 90
        2
176
     1
 40
0.6
176
     1
 40
30.0
176
     1
 62
     7
176
     1
 90
        0
176
     1
 90
        0
176
     1
 62
     7
176
     1
 62
   257
176
     1
 90
        1
176
     1
 90
        1
176
     1
 40
1.0
176
     1
 90
        0
176
     1
 62
     7
176
     1
 40
1.0
176
     1
 90
        1
176
     1
 90
        6
176
     1
 90
        2
176
     1
 62
     7
176
     1
 90
        5
176
     1
 90
        0
176
     1
 90
        0
176
     1
290
     0
176
     1
 90
       13
176
     1
 40
0.0
176
     1
 90
        0
176
     1
290
     0
176
     1
290
     1
176
     1
290
     1
176
     1
290
     0
176
     1
290
     0
176
     1
290
     0
176
     1
290
     0
176
     1
290
     0
176
     1
290
     0
176
     1
 90
       50
176
     1
 40
0.0
176
     1
 40
1.0
176
     1
 90
        0
176
     1
 62
    18
420
        0
176
     1
 90
       50
176
     1
 90
        3
176
     1
 62
     5
420
      255
176
     1
290
     0
176
     1
 90
       50
176
     1
 90
       50
176
     1
 90
       50
176
     1
290
     0
176
     1
 90
       50
176
     1
 62
   256
176
     0
 40
1.0
176
     0
 90
        2
176
     1
  1
strokes_ogs.tif
176
     1
290
     0
176
     1
 40
1.0
176
     1
 40
1.0
176
     1
  0
VISUALSTYLE
  5
2E
102
{ACAD_REACTORS
330
2A
102
}
330
2A
100
AcDbVisualStyle
  2
GouraudWithEdges
 70
     3
177
     3
291
     1
 70
    58
 90
        2
176
     1
 90
        2
176
     1
 90
        1
176
     1
 90
        2
176
     1
 40
0.6
176
     1
 40
30.0
176
     1
 62
     7
176
     1
 90
        1
176
     1
 90
        0
176
     1
 62
     7
176
     1
 62
   257
176
     1
 90
        1
176
     1
 90
        1
176
     1
 40
1.0
176
     1
 90
        0
176
     1
 62
   257
176
     1
 40
1.0
176
     1
 90
        1
176
     1
 90
        6
176
     1
 90
        2
176
     1
 62
     7
176
     1
 90
        5
176
     1
 90
        0
176
     1
 90
        0
176
     1
290
     0
176
     1
 90
       13
176
     1
 40
0.0
176
     1
 90
        0
176
     1
290
     0
176
     1
290
     1
176
     1
290
     1
176
     1
290
     0
176
     1
290
     0
176
     1
290
     0
176
     1
290
     0
176
     1
290
     0
176
     1
290
     0
176
     1
 90
       50
176
     1
 40
0.0
176
     1
 40
1.0
176
     1
 90
        0
176
     1
 62
    18
420
        0
176
     1
 90
       50
176
     1
 90
        3
176
     1
 62
     5
420
      255
176
     1
290
     0
176
     1
 90
       50
176
     1
 90
       50
176
     1
 90
       50
176
     1
290
     0
176
     1
 90
       50
176
     1
 62
   256
176
     0
 40
1.0
176
     0
 90
        2
176
     1
  1
strokes_ogs.tif
176
     1
290
     0
176
     1
 40
1.0
176
     1
 40
1.0
176
     1
  0
VISUALSTYLE
  5
31
102
{ACAD_REACTORS
330
2A
102
}
330
2A
100
AcDbVisualStyle
  2
Hidden
 70
     6
177
     3
291
     0
 70
    58
 90
        1
176
     1
 90
        2
176
     1
 90
        2
176
     1
 90
        0
176
     1
 40
0.6
176
     1
 40
30.0
176
     1
 62
     7
176
     1
 90
        2
176
     1
 90
        2
176
     1
 62
     7
176
     1
 62
   257
176
     1
 90
        2
176
     1
 90
        1
176
     1
 40
40.0
176
     1
 90
        0
176
     1
 62
   257
176
     1
 40
1.0
176
     1
 90
        1
176
     1
 90
        6
176
     1
 90
        2
176
     1
 62
     7
176
     1
 90
        3
176
     1
 90
        0
176
     1
 90
        0
176
     1
290
     0
176
     1
 90
        1
176
     1
 40
0.0
176
     1
 90
        0
176
     1
290
     0
176
     1
290
     1
176
     1
290
     1
176
     1
290
     0
176
     1
290
     0
176
     1
290
     0
176
     1
290
     0
176
     1
290
     0
176
     1
290
     0
176
     1
 90
       50
176
     1
 40
0.0
176
     1
 40
1.0
176
     1
 90
        0
176
     1
 62
    18
420
        0
176
     1
 90
       50
176
     1
 90
        3
176
     1
 62
     5
420
      255
176
     1
290
     0
176
     1
 90
       50
176
     1
 90
       50
176
     1
 90
       50
176
     1
290
     0
176
     1
 90
       50
176
     1
 62
   256
176
     0
 40
1.0
176
     0
 90
        2
176
     1
  1
strokes_ogs.tif
176
     1
290
     0
176
     1
 40
1.0
176
     1
 40
1.0
176
     1
  0
VISUALSTYLE
  5
3B
102
{ACAD_REACTORS
330
2A
102
}
330
2A
100
AcDbVisualStyle
  2
JitterOff
 70
    20
177
     3
291
     1
 70
    58
 90
        2
176
     1
 90
        2
176
     1
 90
        0
176
     1
 90
        0
176
     1
 40
0.6
176
     1
 40
30.0
176
     1
 62
     7
176
     1
 90
        1
176
     1
 90
        4
176
     1
 62
     7
176
     1
 62
   257
176
     1
 90
        1
176
     1
 90
        1
176
     1
 40
1.0
176
     1
 90
       10
176
     1
 62
     7
176
     1
 40
1.0
176
     1
 90
        1
176
     1
 90
        6
176
     1
 90
        2
176
     1
 62
     7
176
     1
 90
        5
176
     1
 90
        0
176
     1
 90
        0
176
     1
290
     0
176
     1
 90
        1
176
     1
 40
0.0
176
     1
 90
        0
176
     1
290
     0
176
     1
290
     1
176
     1
290
     1
176
     1
290
     0
176
     1
290
     0
176
     1
290
     0
176
     1
290
     0
176
     1
290
     0
176
     1
290
     0
176
     1
 90
       50
176
     1
 40
0.0
176
     1
 40
1.0
176
     1
 90
        0
176
     1
 62
    18
420
        0
176
     1
 90
       50
176
     1
 90
        3
176
     1
 62
     5
420
      255
176
     1
290
     0
176
     1
 90
       50
176
     1
 90
       50
176
     1
 90
       50
176
     1
290
     0
176
     1
 90
       50
176
     1
 62
   256
176
     0
 40
1.0
176
     0
 90
        2
176
     1
  1
strokes_ogs.tif
176
     1
290
     0
176
     1
 40
1.0
176
     1
 40
1.0
176
     1
  0
VISUALSTYLE
  5
38
102
{ACAD_REACTORS
330
2A
102
}
330
2A
100
AcDbVisualStyle
  2
Linepattern
 70
    14
177
     3
291
     1
 70
    58
 90
        2
176
     1
 90
        2
176
     1
 90
        0
176
     1
 90
        0
176
     1
 40
0.6
176
     1
 40
30.0
176
     1
 62
     7
176
     1
 90
        1
176
     1
 90
        4
176
     1
 62
     7
176
     1
 62
   257
176
     1
 90
        7
176
     1
 90
        7
176
     1
 40
1.0
176
     1
 90
        8
176
     1
 62
     7
176
     1
 40
1.0
176
     1
 90
        1
176
     1
 90
        6
176
     1
 90
        2
176
     1
 62
     7
176
     1
 90
        5
176
     1
 90
        0
176
     1
 90
        0
176
     1
290
     0
176
     1
 90
        1
176
     1
 40
0.0
176
     1
 90
        0
176
     1
290
     0
176
     1
290
     1
176
     1
290
     1
176
     1
290
     0
176
     1
290
     0
176
     1
290
     0
176
     1
290
     0
176
     1
290
     0
176
     1
290
     0
176
     1
 90
       50
176
     1
 40
0.0
176
     1
 40
1.0
176
     1
 90
        0
176
     1
 62
    18
420
        0
176
     1
 90
       50
176
     1
 90
        3
176
     1
 62
     5
420
      255
176
     1
290
     0
176
     1
 90
       50
176
     1
 90
       50
176
     1
 90
       50
176
     1
290
     0
176
     1
 90
       50
176
     1
 62
   256
176
     0
 40
1.0
176
     0
 90
        2
176
     1
  1
strokes_ogs.tif
176
     1
290
     0
176
     1
 40
1.0
176
     1
 40
1.0
176
     1
  0
VISUALSTYLE
  5
3C
102
{ACAD_REACTORS
330
2A
102
}
330
2A
100
AcDbVisualStyle
  2
OverhangOff
 70
    21
177
     3
291
     1
 70
    58
 90
        2
176
     1
 90
        2
176
     1
 90
        0
176
     1
 90
        0
176
     1
 40
0.6
176
     1
 40
30.0
176
     1
 62
     7
176
     1
 90
        1
176
     1
 90
        4
176
     1
 62
     7
176
     1
 62
   257
176
     1
 90
        1
176
     1
 90
        1
176
     1
 40
1.0
176
     1
 90
        9
176
     1
 62
     7
176
     1
 40
1.0
176
     1
 90
        1
176
     1
 90
        6
176
     1
 90
        2
176
     1
 62
     7
176
     1
 90
        5
176
     1
 90
        0
176
     1
 90
        0
176
     1
290
     0
176
     1
 90
        1
176
     1
 40
0.0
176
     1
 90
        0
176
     1
290
     0
176
     1
290
     1
176
     1
290
     1
176
     1
290
     0
176
     1
290
     0
176
     1
290
     0
176
     1
290
     0
176
     1
290
     0
176
     1
290
     0
176
     1
 90
       50
176
     1
 40
0.0
176
     1
 40
1.0
176
     1
 90
        0
176
     1
 62
    18
420
        0
176
     1
 90
       50
176
     1
 90
        3
176
     1
 62
     5
420
      255
176
     1
290
     0
176
     1
 90
       50
176
     1
 90
       50
176
     1
 90
       50
176
     1
290
     0
176
     1
 90
       50
176
     1
 62
   256
176
     0
 40
1.0
176
     0
 90
        2
176
     1
  1
strokes_ogs.tif
176
     1
290
     0
176
     1
 40
1.0
176
     1
 40
1.0
176
     1
  0
VISUALSTYLE
  5
33
102
{ACAD_REACTORS
330
2A
102
}
330
2A
100
AcDbVisualStyle
  2
Realistic
 70
     8
177
     3
291
     0
 70
    58
 90
        2
176
     1
 90
        3
176
     1
 90
        0
176
     1
 90
        2
176
     1
 40
0.6
176
     1
 40
30.0
176
     1
 62
     7
176
     1
 90
        0
176
     1
 90
        0
176
     1
 62
     7
176
     1
 62
   257
176
     1
 90
        1
176
     1
 90
        1
176
     1
 40
1.0
176
     1
 90
        8
176
     1
 62
   257
176
     1
 40
1.0
176
     1
 90
        1
176
     1
 90
        6
176
     1
 90
        2
176
     1
 62
     7
176
     1
 90
        3
176
     1
 90
        0
176
     1
 90
        0
176
     1
290
     0
176
     1
 90
       13
176
     1
 40
0.0
176
     1
 90
        0
176
     1
290
     0
176
     1
290
     1
176
     1
290
     1
176
     1
290
     0
176
     1
290
     0
176
     1
290
     0
176
     1
290
     0
176
     1
290
     0
176
     1
290
     0
176
     1
 90
       50
176
     1
 40
0.0
176
     1
 40
1.0
176
     1
 90
        0
176
     1
 62
    18
420
        0
176
     1
 90
       50
176
     1
 90
        3
176
     1
 62
     5
420
      255
176
     1
290
     0
176
     1
 90
       50
176
     1
 90
       50
176
     1
 90
       50
176
     1
290
     0
176
     1
 90
       50
176
     1
 62
   256
176
     0
 40
1.0
176
     0
 90
        2
176
     1
  1
strokes_ogs.tif
176
     1
290
     0
176
     1
 40
1.0
176
     1
 40
1.0
176
     1
  0
VISUALSTYLE
  5
42
102
{ACAD_REACTORS
330
2A
102
}
330
2A
100
AcDbVisualStyle
  2
Shaded
 70
    27
177
     3
291
     0
 70
    58
 90
        2
176
     1
 90
        2
176
     1
 90
        1
176
     1
 90
        2
176
     1
 40
0.6
176
     1
 40
30.0
176
     1
 62
     7
176
     1
 90
        0
176
     1
 90
        4
176
     1
 62
     7
176
     1
 62
   257
176
     1
 90
        1
176
     1
 90
        1
176
     1
 40
1.0
176
     1
 90
        8
176
     1
 62
   257
176
     1
 40
1.0
176
     1
 90
        1
176
     1
 90
        6
176
     1
 90
        2
176
     1
 62
     8
176
     1
 90
        3
176
     1
 90
        0
176
     1
 90
        0
176
     1
290
     0
176
     1
 90
        5
176
     1
 40
0.0
176
     1
 90
        0
176
     1
290
     0
176
     1
290
     1
176
     1
290
     1
176
     1
290
     0
176
     1
290
     0
176
     1
290
     0
176
     1
290
     0
176
     1
290
     0
176
     1
290
     0
176
     1
 90
       50
176
     1
 40
0.0
176
     1
 40
1.0
176
     1
 90
        0
176
     1
 62
    18
420
        0
176
     1
 90
       50
176
     1
 90
        3
176
     1
 62
     5
420
      255
176
     1
290
     0
176
     1
 90
       50
176
     1
 90
       50
176
     1
 90
       50
176
     1
290
     0
176
     1
 90
       50
176
     1
 62
   256
176
     0
 40
1.0
176
     0
 90
        2
176
     1
  1
strokes_ogs.tif
176
     1
290
     0
176
     1
 40
1.0
176
     1
 40
1.0
176
     1
  0
VISUALSTYLE
  5
41
102
{ACAD_REACTORS
330
2A
102
}
330
2A
100
AcDbVisualStyle
  2
Shaded with edges
 70
    26
177
     3
291
     0
 70
    58
 90
        2
176
     1
 90
        2
176
     1
 90
        1
176
     1
 90
        2
176
     1
 40
0.6
176
     1
 40
30.0
176
     1
 62
     7
176
     1
 90
        1
176
     1
 90
        2
176
     1
 62
     7
176
     1
 62
   257
176
     1
 90
        2
176
     1
 90
        1
176
     1
 40
1.0
176
     1
 90
        8
176
     1
 62
   257
176
     1
 40
1.0
176
     1
 90
        1
176
     1
 90
        6
176
     1
 90
        2
176
     1
 62
     7
176
     1
 90
        3
176
     1
 90
        0
176
     1
 90
        0
176
     1
290
     0
176
     1
 90
        5
176
     1
 40
0.0
176
     1
 90
        0
176
     1
290
     0
176
     1
290
     1
176
     1
290
     1
176
     1
290
     0
176
     1
290
     0
176
     1
290
     0
176
     1
290
     0
176
     1
290
     0
176
     1
290
     0
176
     1
 90
       50
176
     1
 40
0.0
176
     1
 40
1.0
176
     1
 90
        0
176
     1
 62
    18
420
        0
176
     1
 90
       50
176
     1
 90
        3
176
     1
 62
     5
420
      255
176
     1
290
     0
176
     1
 90
       50
176
     1
 90
       50
176
     1
 90
       50
176
     1
290
     0
176
     1
 90
       50
176
     1
 62
   256
176
     0
 40
1.0
176
     0
 90
        2
176
     1
  1
strokes_ogs.tif
176
     1
290
     0
176
     1
 40
1.0
176
     1
 40
1.0
176
     1
  0
VISUALSTYLE
  5
3E
102
{ACAD_REACTORS
330
2A
102
}
330
2A
100
AcDbVisualStyle
  2
Shades of Gray
 70
    23
177
     3
291
     0
 70
    58
 90
        2
176
     1
 90
        2
176
     1
 90
        3
176
     1
 90
        0
176
     1
 40
0.6
176
     1
 40
30.0
176
     1
 62
     7
176
     1
 90
        2
176
     1
 90
        2
176
     1
 62
     7
176
     1
 62
     7
176
     1
 90
        1
176
     1
 90
        1
176
     1
 40
40.0
176
     1
 90
        8
176
     1
 62
     7
176
     1
 40
1.0
176
     1
 90
        1
176
     1
 90
        6
176
     1
 90
        2
176
     1
 62
     7
176
     1
 90
        3
176
     1
 90
        0
176
     1
 90
        0
176
     1
290
     0
176
     1
 90
        1
176
     1
 40
0.0
176
     1
 90
        0
176
     1
290
     0
176
     1
290
     1
176
     1
290
     1
176
     1
290
     0
176
     1
290
     0
176
     1
290
     0
176
     1
290
     0
176
     1
290
     0
176
     1
290
     0
176
     1
 90
       50
176
     1
 40
0.0
176
     1
 40
1.0
176
     1
 90
        0
176
     1
 62
    18
420
        0
176
     1
 90
       50
176
     1
 90
        3
176
     1
 62
     5
420
      255
176
     1
290
     0
176
     1
 90
       50
176
     1
 90
       50
176
     1
 90
       50
176
     1
290
     0
176
     1
 90
       50
176
     1
 62
   256
176
     0
 40
1.0
176
     0
 90
        2
176
     1
  1
strokes_ogs.tif
176
     1
290
     0
176
     1
 40
1.0
176
     1
 40
1.0
176
     1
  0
VISUALSTYLE
  5
3F
102
{ACAD_REACTORS
330
2A
102
}
330
2A
100
AcDbVisualStyle
  2
Sketchy
 70
    24
177
     3
291
     0
 70
    58
 90
        1
176
     1
 90
        2
176
     1
 90
        2
176
     1
 90
        0
176
     1
 40
0.6
176
     1
 40
30.0
176
     1
 62
     7
176
     1
 90
        2
176
     1
 90
        2
176
     1
 62
     7
176
     1
 62
     7
176
     1
 90
        1
176
     1
 90
        1
176
     1
 40
40.0
176
     1
 90
       11
176
     1
 62
     7
176
     1
 40
1.0
176
     1
 90
        1
176
     1
 90
        6
176
     1
 90
        2
176
     1
 62
     7
176
     1
 90
        6
176
     1
 90
        0
176
     1
 90
        0
176
     1
290
     0
176
     1
 90
        1
176
     1
 40
0.0
176
     1
 90
        0
176
     1
290
     0
176
     1
290
     1
176
     1
290
     1
176
     1
290
     0
176
     1
290
     0
176
     1
290
     0
176
     1
290
     0
176
     1
290
     0
176
     1
290
     0
176
     1
 90
       50
176
     1
 40
0.0
176
     1
 40
1.0
176
     1
 90
        0
176
     1
 62
    18
420
        0
176
     1
 90
       50
176
     1
 90
        3
176
     1
 62
     5
420
      255
176
     1
290
     0
176
     1
 90
       50
176
     1
 90
       50
176
     1
 90
       50
176
     1
290
     0
176
     1
 90
       50
176
     1
 62
   256
176
     0
 40
1.0
176
     0
 90
        2
176
     1
  1
strokes_ogs.tif
176
     1
290
     0
176
     1
 40
1.0
176
     1
 40
1.0
176
     1
  0
VISUALSTYLE
  5
37
102
{ACAD_REACTORS
330
2A
102
}
330
2A
100
AcDbVisualStyle
  2
Thicken
 70
    13
177
     3
291
     1
 70
    58
 90
        2
176
     1
 90
        2
176
     1
 90
        0
176
     1
 90
        0
176
     1
 40
0.6
176
     1
 40
30.0
176
     1
 62
     7
176
     1
 90
        1
176
     1
 90
        4
176
     1
 62
     7
176
     1
 62
   257
176
     1
 90
        1
176
     1
 90
        1
176
     1
 40
1.0
176
     1
 90
       12
176
     1
 62
     7
176
     1
 40
1.0
176
     1
 90
        1
176
     1
 90
        6
176
     1
 90
        2
176
     1
 62
     7
176
     1
 90
        5
176
     1
 90
        0
176
     1
 90
        0
176
     1
290
     0
176
     1
 90
        1
176
     1
 40
0.0
176
     1
 90
        0
176
     1
290
     0
176
     1
290
     1
176
     1
290
     1
176
     1
290
     0
176
     1
290
     0
176
     1
290
     0
176
     1
290
     0
176
     1
290
     0
176
     1
290
     0
176
     1
 90
       50
176
     1
 40
0.0
176
     1
 40
1.0
176
     1
 90
        0
176
     1
 62
    18
420
        0
176
     1
 90
       50
176
     1
 90
        3
176
     1
 62
     5
420
      255
176
     1
290
     0
176
     1
 90
       50
176
     1
 90
       50
176
     1
 90
       50
176
     1
290
     0
176
     1
 90
       50
176
     1
 62
   256
176
     0
 40
1.0
176
     0
 90
        2
176
     1
  1
strokes_ogs.tif
176
     1
290
     0
176
     1
 40
1.0
176
     1
 40
1.0
176
     1
  0
VISUALSTYLE
  5
30
102
{ACAD_REACTORS
330
2A
102
}
330
2A
100
AcDbVisualStyle
  2
Wireframe
 70
     5
177
     3
291
     0
 70
    58
 90
        0
176
     1
 90
        2
176
     1
 90
        0
176
     1
 90
        0
176
     1
 40
0.6
176
     1
 40
30.0
176
     1
 62
     7
176
     1
 90
        1
176
     1
 90
        4
176
     1
 62
     7
176
     1
 62
   257
176
     1
 90
        1
176
     1
 90
        1
176
     1
 40
1.0
176
     1
 90
        0
176
     1
 62
   257
176
     1
 40
1.0
176
     1
 90
        1
176
     1
 90
        6
176
     1
 90
        2
176
     1
 62
     7
176
     1
 90
        3
176
     1
 90
        0
176
     1
 90
        0
176
     1
290
     0
176
     1
 90
        1
176
     1
 40
0.0
176
     1
 90
        0
176
     1
290
     0
176
     1
290
     1
176
     1
290
     1
176
     1
290
     0
176
     1
290
     0
176
     1
290
     0
176
     1
290
     0
176
     1
290
     0
176
     1
290
     0
176
     1
 90
       50
176
     1
 40
0.0
176
     1
 40
1.0
176
     1
 90
        0
176
     1
 62
    18
420
        0
176
     1
 90
       50
176
     1
 90
        3
176
     1
 62
     5
420
      255
176
     1
290
     0
176
     1
 90
       50
176
     1
 90
       50
176
     1
 90
       50
176
     1
290
     0
176
     1
 90
       50
176
     1
 62
   256
176
     0
 40
1.0
176
     0
 90
        2
176
     1
  1
strokes_ogs.tif
176
     1
290
     0
176
     1
 40
1.0
176
     1
 40
1.0
176
     1
  0
VISUALSTYLE
  5
40
102
{ACAD_REACTORS
330
2A
102
}
330
2A
100
AcDbVisualStyle
  2
X-Ray
 70
    25
177
     3
291
     0
 70
    58
 90
        2
176
     1
 90
        2
176
     1
 90
        1
176
     1
 90
        1
176
     1
 40
0.5
176
     1
 40
30.0
176
     1
 62
     7
176
     1
 90
        1
176
     1
 90
        0
176
     1
 62
     7
176
     1
 62
   257
176
     1
 90
        1
176
     1
 90
        1
176
     1
 40
1.0
176
     1
 90
        8
176
     1
 62
     7
176
     1
 40
1.0
176
     1
 90
        1
176
     1
 90
        6
176
     1
 90
        2
176
     1
 62
     7
176
     1
 90
        3
176
     1
 90
        0
176
     1
 90
        0
176
     1
290
     0
176
     1
 90
       13
176
     1
 40
0.0
176
     1
 90
        0
176
     1
290
     0
176
     1
290
     1
176
     1
290
     1
176
     1
290
     0
176
     1
290
     0
176
     1
290
     0
176
     1
290
     0
176
     1
290
     0
176
     1
290
     0
176
     1
 90
       50
176
     1
 40
0.0
176
     1
 40
1.0
176
     1
 90
        0
176
     1
 62
    18
420
        0
176
     1
 90
       50
176
     1
 90
        3
176
     1
 62
     5
420
      255
176
     1
290
     0
176
     1
 90
       50
176
     1
 90
       50
176
     1
 90
       50
176
     1
290
     0
176
     1
 90
       50
176
     1
 62
   256
176
     0
 40
1.0
176
     0
 90
        2
176
     1
  1
strokes_ogs.tif
176
     1
290
     0
176
     1
 40
1.0
176
     1
 40
1.0
176
     1
  0
DICTIONARYVAR
  5
1AF
102
{ACAD_REACTORS
330
18D
102
}
330
18D
100
DictionaryVariables
280
     0
  1
1:1
  0
DICTIONARYVAR
  5
18F
102
{ACAD_REACTORS
330
18D
102
}
330
18D
100
DictionaryVariables
280
     0
  1
STANDARD
  0
DICTIONARYVAR
  5
18E
102
{ACAD_REACTORS
330
18D
102
}
330
18D
100
DictionaryVariables
280
     0
  1
STANDARD
  0
DICTIONARYVAR
  5
C92
102
{ACAD_REACTORS
330
18D
102
}
330
18D
100
DictionaryVariables
280
     0
  1
Metric50
  0
DICTIONARYVAR
  5
C93
102
{ACAD_REACTORS
330
18D
102
}
330
18D
100
DictionaryVariables
280
     0
  1
Metric50
  0
DICTIONARYVAR
  5
192
102
{ACAD_REACTORS
330
18D
102
}
330
18D
100
DictionaryVariables
280
     0
  1
2
  0
DICTIONARYVAR
  5
193
102
{ACAD_REACTORS
330
18D
102
}
330
18D
100
DictionaryVariables
280
     0
  1
1
  0
DICTIONARYVAR
  5
C95
102
{ACAD_REACTORS
330
18D
102
}
330
18D
100
DictionaryVariables
280
     0
  1
1
  0
DICTIONARYVAR
  5
C96
102
{ACAD_REACTORS
330
18D
102
}
330
18D
100
DictionaryVariables
280
     0
  1
15
  0
DICTIONARYVAR
  5
C94
102
{ACAD_REACTORS
330
18D
102
}
330
18D
100
DictionaryVariables
280
     0
  1
0
  0
DICTIONARYVAR
  5
1B0
102
{ACAD_REACTORS
330
18D
102
}
330
18D
100
DictionaryVariables
280
     0
  1
1
  0
XRECORD
  5
1B2
102
{ACAD_REACTORS
330
1B1
102
}
330
1B1
100
AcDbXrecord
280
     1
102
EXTNAMES
  1
NORMAL
  2
Normal
  0
DICTIONARY
  5
1C4
330
5A
100
AcDbDictionary
280
     1
281
     1
  3
ACAD_ROUNDTRIP_2008_TABLESTYLE_CELLSTYLEMAP
360
C97
  0
CELLSTYLEMAP
  5
C97
102
{ACAD_REACTORS
330
1C4
102
}
330
1C4
100
AcDbCellStyleMap
 90
        3
300
CELLSTYLE
  1
TABLEFORMAT_BEGIN
 90
        5
170
     1
 91
        0
 92
    32768
 62
   257
 93
        1
300
CONTENTFORMAT
  1
CONTENTFORMAT_BEGIN
 90
        0
 91
        0
 92
        4
 93
        0
300

 40
0.0
140
1.0
 94
        5
 62
     0
340
11
144
0.25
309
CONTENTFORMAT_END
171
     1
301
MARGIN
  1
CELLMARGIN_BEGIN
 40
0.06
 40
0.06
 40
0.06
 40
0.06
 40
0.06
 40
0.06
309
CELLMARGIN_END
 94
        6
 95
        1
302
GRIDFORMAT
  1
GRIDFORMAT_BEGIN
 90
        0
 91
        1
 62
     0
 92
       -2
340
14
 93
        0
 40
0.045
309
GRIDFORMAT_END
 95
        2
302
GRIDFORMAT
  1
GRIDFORMAT_BEGIN
 90
        0
 91
        1
 62
     0
 92
       -2
340
14
 93
        0
 40
0.045
309
GRIDFORMAT_END
 95
        4
302
GRIDFORMAT
  1
GRIDFORMAT_BEGIN
 90
        0
 91
        1
 62
     0
 92
       -2
340
14
 93
        0
 40
0.045
309
GRIDFORMAT_END
 95
        8
302
GRIDFORMAT
  1
GRIDFORMAT_BEGIN
 90
        0
 91
        1
 62
     0
 92
       -2
340
14
 93
        0
 40
0.045
309
GRIDFORMAT_END
 95
       16
302
GRIDFORMAT
  1
GRIDFORMAT_BEGIN
 90
        0
 91
        1
 62
     0
 92
       -2
340
14
 93
        0
 40
0.045
309
GRIDFORMAT_END
 95
       32
302
GRIDFORMAT
  1
GRIDFORMAT_BEGIN
 90
        0
 91
        1
 62
     0
 92
       -2
340
14
 93
        0
 40
0.045
309
GRIDFORMAT_END
309
TABLEFORMAT_END
  1
CELLSTYLE_BEGIN
 90
        1
 91
        1
300
_TITLE
309
CELLSTYLE_END
300
CELLSTYLE
  1
TABLEFORMAT_BEGIN
 90
        5
170
     1
 91
        0
 92
        0
 62
   257
 93
        1
300
CONTENTFORMAT
  1
CONTENTFORMAT_BEGIN
 90
        0
 91
        0
 92
        4
 93
        0
300

 40
0.0
140
1.0
 94
        5
 62
     0
340
11
144
0.18
309
CONTENTFORMAT_END
171
     1
301
MARGIN
  1
CELLMARGIN_BEGIN
 40
0.06
 40
0.06
 40
0.06
 40
0.06
 40
0.06
 40
0.06
309
CELLMARGIN_END
 94
        6
 95
        1
302
GRIDFORMAT
  1
GRIDFORMAT_BEGIN
 90
        0
 91
        1
 62
     0
 92
       -2
340
14
 93
        0
 40
0.045
309
GRIDFORMAT_END
 95
        2
302
GRIDFORMAT
  1
GRIDFORMAT_BEGIN
 90
        0
 91
        1
 62
     0
 92
       -2
340
14
 93
        0
 40
0.045
309
GRIDFORMAT_END
 95
        4
302
GRIDFORMAT
  1
GRIDFORMAT_BEGIN
 90
        0
 91
        1
 62
     0
 92
       -2
340
14
 93
        0
 40
0.045
309
GRIDFORMAT_END
 95
        8
302
GRIDFORMAT
  1
GRIDFORMAT_BEGIN
 90
        0
 91
        1
 62
     0
 92
       -2
340
14
 93
        0
 40
0.045
309
GRIDFORMAT_END
 95
       16
302
GRIDFORMAT
  1
GRIDFORMAT_BEGIN
 90
        0
 91
        1
 62
     0
 92
       -2
340
14
 93
        0
 40
0.045
309
GRIDFORMAT_END
 95
       32
302
GRIDFORMAT
  1
GRIDFORMAT_BEGIN
 90
        0
 91
        1
 62
     0
 92
       -2
340
14
 93
        0
 40
0.045
309
GRIDFORMAT_END
309
TABLEFORMAT_END
  1
CELLSTYLE_BEGIN
 90
        2
 91
        1
300
_HEADER
309
CELLSTYLE_END
300
CELLSTYLE
  1
TABLEFORMAT_BEGIN
 90
        5
170
     1
 91
        0
 92
        0
 62
   257
 93
        1
300
CONTENTFORMAT
  1
CONTENTFORMAT_BEGIN
 90
        0
 91
        0
 92
        4
 93
        0
300

 40
0.0
140
1.0
 94
        2
 62
     0
340
11
144
0.18
309
CONTENTFORMAT_END
171
     1
301
MARGIN
  1
CELLMARGIN_BEGIN
 40
0.06
 40
0.06
 40
0.06
 40
0.06
 40
0.06
 40
0.06
309
CELLMARGIN_END
 94
        6
 95
        1
302
GRIDFORMAT
  1
GRIDFORMAT_BEGIN
 90
        0
 91
        1
 62
     0
 92
       -2
340
14
 93
        0
 40
0.045
309
GRIDFORMAT_END
 95
        2
302
GRIDFORMAT
  1
GRIDFORMAT_BEGIN
 90
        0
 91
        1
 62
     0
 92
       -2
340
14
 93
        0
 40
0.045
309
GRIDFORMAT_END
 95
        4
302
GRIDFORMAT
  1
GRIDFORMAT_BEGIN
 90
        0
 91
        1
 62
     0
 92
       -2
340
14
 93
        0
 40
0.045
309
GRIDFORMAT_END
 95
        8
302
GRIDFORMAT
  1
GRIDFORMAT_BEGIN
 90
        0
 91
        1
 62
     0
 92
       -2
340
14
 93
        0
 40
0.045
309
GRIDFORMAT_END
 95
       16
302
GRIDFORMAT
  1
GRIDFORMAT_BEGIN
 90
        0
 91
        1
 62
     0
 92
       -2
340
14
 93
        0
 40
0.045
309
GRIDFORMAT_END
 95
       32
302
GRIDFORMAT
  1
GRIDFORMAT_BEGIN
 90
        0
 91
        1
 62
     0
 92
       -2
340
14
 93
        0
 40
0.045
309
GRIDFORMAT_END
309
TABLEFORMAT_END
  1
CELLSTYLE_BEGIN
 90
        3
 91
        2
300
_DATA
309
CELLSTYLE_END
  0
ENDSEC
  0
SECTION
  2
ACDSDATA
 70
     2
 71
     8
  0
ACDSSCHEMA
 90
        0
  1
AcDb_Thumbnail_Schema
  2
AcDbDs::ID
280
    10
 91
        8
  2
Thumbnail_Data
280
    15
 91
        0
101
ACDSRECORD
 95
        0
 90
        1
  2
AcDbDs::TreatedAsObjectData
280
     1
291
     1
101
ACDSRECORD
 95
        0
 90
        2
  2
AcDbDs::Legacy
280
     1
291
     1
101
ACDSRECORD
  1
AcDbDs::ID
 90
        3
  2
AcDs:Indexable
280
     1
291
     1
101
ACDSRECORD
  1
AcDbDs::ID
 90
        4
  2
AcDbDs::HandleAttribute
280
     7
282
     1
  0
ACDSSCHEMA
 90
        1
  1
AcDbDs::TreatedAsObjectDataSchema
  2
AcDbDs::TreatedAsObjectData
280
     1
 91
        0
  0
ACDSSCHEMA
 90
        2
  1
AcDbDs::LegacySchema
  2
AcDbDs::Legacy
280
     1
 91
        0
  0
ACDSSCHEMA
 90
        3
  1
AcDbDs::IndexedPropertySchema
  2
AcDs:Indexable
280
     1
 91
        0
  0
ACDSSCHEMA
 90
        4
  1
AcDbDs::HandleAttributeSchema
  2
AcDbDs::HandleAttribute
280
     7
 91
        1
284
     1
  0
ACDSRECORD
 90
        0
  2
AcDbDs::ID
280
    10
320
22
  2
Thumbnail_Data
280
    15
 94
     1128
310
89504E470D0A1A0A0000000D49484452000001000000006A080300000064B47FDC00000300504C5445212830FFFFFF2128300000000000000000000000000000000000000000000000000000330000660000990000CC0000FF0033000033330033660033990033CC0033FF0066000066330066660066990066CC0066FF0099
310
000099330099660099990099CC0099FF00CC0000CC3300CC6600CC9900CCCC00CCFF00FF0000FF3300FF6600FF9900FFCC00FFFF3300003300333300663300993300CC3300FF3333003333333333663333993333CC3333FF3366003366333366663366993366CC3366FF3399003399333399663399993399CC3399FF33CC00
310
33CC3333CC6633CC9933CCCC33CCFF33FF0033FF3333FF6633FF9933FFCC33FFFF6600006600336600666600996600CC6600FF6633006633336633666633996633CC6633FF6666006666336666666666996666CC6666FF6699006699336699666699996699CC6699FF66CC0066CC3366CC6666CC9966CCCC66CCFF66FF0066
310
FF3366FF6666FF9966FFCC66FFFF9900009900339900669900999900CC9900FF9933009933339933669933999933CC9933FF9966009966339966669966999966CC9966FF9999009999339999669999999999CC9999FF99CC0099CC3399CC6699CC9999CCCC99CCFF99FF0099FF3399FF6699FF9999FFCC99FFFFCC0000CC00
310
33CC0066CC0099CC00CCCC00FFCC3300CC3333CC3366CC3399CC33CCCC33FFCC6600CC6633CC6666CC6699CC66CCCC66FFCC9900CC9933CC9966CC9999CC99CCCC99FFCCCC00CCCC33CCCC66CCCC99CCCCCCCCCCFFCCFF00CCFF33CCFF66CCFF99CCFFCCCCFFFFFF0000FF0033FF0066FF0099FF00CCFF00FFFF3300FF3333
310
FF3366FF3399FF33CCFF33FFFF6600FF6633FF6666FF6699FF66CCFF66FFFF9900FF9933FF9966FF9999FF99CCFF99FFFFCC00FFCC33FFCC66FFCC99FFCCCCFFCCFFFFFF00FFFF33FFFF66FFFF99FFFFCCFFFFFF0000000D0D0D1A1A1A2828283535354343435050505D5D5D6B6B6B787878868686939393A1A1A1AEAEAEBB
310
BBBBC9C9C9D6D6D6E4E4E4F1F1F1FFFFFF0000000000000000000000000000000000000000000000000000000000002E4550F1000001234944415478DAEDDA418EC2301044D1BEFF7D6B0F020C6EC776BCA5EB3F21A18957FD09284E26020000000000000000000000000000006B9A395AAC1260774CB3600EA7C0C95AB1B3
310
E0F57A4EA7C9E27AAD5400C574C82E4EDD026A634E86547E45E56FC04D0011C03480C227405C86FC2459D4A9186018D2214037230176014204F00BA0D8D5A919200DD966AE1C207DC8E390EAD7EB065010E03640DDEDD07980A2057601F21A018A06F8DCE77BBFE7BB7E792D8ADE12D477DAF4677FAC1D55DDDB8200000030
310
55F9E1FFD1F8E3BEC0EDD39FB5300A9043C875FEF6DCC3ED1C48FF11E5F83BA0A34304709ADF2F80E41DE0720548007E036C0B385E0BE647A132BC16D6B82D320E60BA23D6626FE0B81F0AD79B42BFA7E0614BE2D937000000FEC503C1AAA154BB8802E70000000049454E44AE426082
  0
ENDSEC
  0
EOF
