ISO-10303-21;
HEADER;
/* Generated by software containing ST-Developer
 * from STEP Tools, Inc. (www.steptools.com) 
 */

FILE_DESCRIPTION(
/* description */ (''),
/* implementation_level */ '2;1');

FILE_NAME(
/* name */ 'DM-TFTR25-460.step',
/* time_stamp */ '2022-11-25T17:05:24+08:00',
/* author */ (''),
/* organization */ (''),
/* preprocessor_version */ 'ST-DEVELOPER v19.2',
/* originating_system */ 'Autodesk Translation Framework v11.17.0.187',

/* authorisation */ '');

FILE_SCHEMA (('AUTOMOTIVE_DESIGN { 1 0 10303 214 3 1 1 }'));
ENDSEC;

DATA;
#10=MECHANICAL_DESIGN_GEOMETRIC_PRESENTATION_REPRESENTATION('',(#13),#492);
#11=SHAPE_REPRESENTATION_RELATIONSHIP('SRR','None',#499,#12);
#12=ADVANCED_BREP_SHAPE_REPRESENTATION('',(#14),#491);
#13=STYLED_ITEM('',(#508),#14);
#14=MANIFOLD_SOLID_BREP('\X2\5B9E4F53\X0\5',#300);
#15=FACE_BOUND('',#50,.T.);
#16=CIRCLE('',#320,31.32);
#17=CIRCLE('',#321,31.32);
#18=CYLINDRICAL_SURFACE('',#319,31.32);
#19=FACE_OUTER_BOUND('',#35,.T.);
#20=FACE_OUTER_BOUND('',#36,.T.);
#21=FACE_OUTER_BOUND('',#37,.T.);
#22=FACE_OUTER_BOUND('',#38,.T.);
#23=FACE_OUTER_BOUND('',#39,.T.);
#24=FACE_OUTER_BOUND('',#40,.T.);
#25=FACE_OUTER_BOUND('',#41,.T.);
#26=FACE_OUTER_BOUND('',#42,.T.);
#27=FACE_OUTER_BOUND('',#43,.T.);
#28=FACE_OUTER_BOUND('',#44,.T.);
#29=FACE_OUTER_BOUND('',#45,.T.);
#30=FACE_OUTER_BOUND('',#46,.T.);
#31=FACE_OUTER_BOUND('',#47,.T.);
#32=FACE_OUTER_BOUND('',#48,.T.);
#33=FACE_OUTER_BOUND('',#49,.T.);
#34=FACE_OUTER_BOUND('',#51,.T.);
#35=EDGE_LOOP('',(#191,#192,#193,#194));
#36=EDGE_LOOP('',(#195,#196,#197,#198));
#37=EDGE_LOOP('',(#199,#200,#201,#202));
#38=EDGE_LOOP('',(#203,#204,#205,#206));
#39=EDGE_LOOP('',(#207,#208,#209,#210,#211,#212,#213,#214));
#40=EDGE_LOOP('',(#215,#216,#217,#218));
#41=EDGE_LOOP('',(#219));
#42=EDGE_LOOP('',(#220,#221,#222,#223));
#43=EDGE_LOOP('',(#224,#225,#226,#227));
#44=EDGE_LOOP('',(#228,#229,#230,#231));
#45=EDGE_LOOP('',(#232,#233,#234,#235));
#46=EDGE_LOOP('',(#236,#237,#238,#239));
#47=EDGE_LOOP('',(#240,#241,#242,#243));
#48=EDGE_LOOP('',(#244,#245,#246,#247));
#49=EDGE_LOOP('',(#248,#249,#250,#251,#252,#253,#254,#255,#256,#257,#258,
#259));
#50=EDGE_LOOP('',(#260));
#51=EDGE_LOOP('',(#261,#262,#263,#264,#265,#266,#267,#268));
#52=LINE('',#411,#89);
#53=LINE('',#413,#90);
#54=LINE('',#415,#91);
#55=LINE('',#416,#92);
#56=LINE('',#419,#93);
#57=LINE('',#421,#94);
#58=LINE('',#422,#95);
#59=LINE('',#425,#96);
#60=LINE('',#426,#97);
#61=LINE('',#429,#98);
#62=LINE('',#430,#99);
#63=LINE('',#433,#100);
#64=LINE('',#435,#101);
#65=LINE('',#437,#102);
#66=LINE('',#439,#103);
#67=LINE('',#440,#104);
#68=LINE('',#445,#105);
#69=LINE('',#450,#106);
#70=LINE('',#452,#107);
#71=LINE('',#453,#108);
#72=LINE('',#456,#109);
#73=LINE('',#458,#110);
#74=LINE('',#459,#111);
#75=LINE('',#462,#112);
#76=LINE('',#464,#113);
#77=LINE('',#465,#114);
#78=LINE('',#468,#115);
#79=LINE('',#470,#116);
#80=LINE('',#471,#117);
#81=LINE('',#474,#118);
#82=LINE('',#476,#119);
#83=LINE('',#477,#120);
#84=LINE('',#480,#121);
#85=LINE('',#482,#122);
#86=LINE('',#483,#123);
#87=LINE('',#485,#124);
#88=LINE('',#486,#125);
#89=VECTOR('',#336,10.);
#90=VECTOR('',#337,10.);
#91=VECTOR('',#338,10.);
#92=VECTOR('',#339,10.);
#93=VECTOR('',#342,10.);
#94=VECTOR('',#343,10.);
#95=VECTOR('',#344,10.);
#96=VECTOR('',#347,10.);
#97=VECTOR('',#348,10.);
#98=VECTOR('',#351,10.);
#99=VECTOR('',#352,10.);
#100=VECTOR('',#355,10.);
#101=VECTOR('',#356,10.);
#102=VECTOR('',#357,10.);
#103=VECTOR('',#358,10.);
#104=VECTOR('',#359,10.);
#105=VECTOR('',#364,31.32);
#106=VECTOR('',#371,10.);
#107=VECTOR('',#372,10.);
#108=VECTOR('',#373,10.);
#109=VECTOR('',#376,10.);
#110=VECTOR('',#377,10.);
#111=VECTOR('',#378,10.);
#112=VECTOR('',#381,10.);
#113=VECTOR('',#382,10.);
#114=VECTOR('',#383,10.);
#115=VECTOR('',#386,10.);
#116=VECTOR('',#387,10.);
#117=VECTOR('',#388,10.);
#118=VECTOR('',#391,10.);
#119=VECTOR('',#392,10.);
#120=VECTOR('',#393,10.);
#121=VECTOR('',#396,10.);
#122=VECTOR('',#397,10.);
#123=VECTOR('',#398,10.);
#124=VECTOR('',#401,10.);
#125=VECTOR('',#402,10.);
#126=VERTEX_POINT('',#409);
#127=VERTEX_POINT('',#410);
#128=VERTEX_POINT('',#412);
#129=VERTEX_POINT('',#414);
#130=VERTEX_POINT('',#418);
#131=VERTEX_POINT('',#420);
#132=VERTEX_POINT('',#424);
#133=VERTEX_POINT('',#428);
#134=VERTEX_POINT('',#432);
#135=VERTEX_POINT('',#434);
#136=VERTEX_POINT('',#436);
#137=VERTEX_POINT('',#438);
#138=VERTEX_POINT('',#442);
#139=VERTEX_POINT('',#444);
#140=VERTEX_POINT('',#449);
#141=VERTEX_POINT('',#451);
#142=VERTEX_POINT('',#455);
#143=VERTEX_POINT('',#457);
#144=VERTEX_POINT('',#461);
#145=VERTEX_POINT('',#463);
#146=VERTEX_POINT('',#467);
#147=VERTEX_POINT('',#469);
#148=VERTEX_POINT('',#473);
#149=VERTEX_POINT('',#475);
#150=VERTEX_POINT('',#479);
#151=VERTEX_POINT('',#481);
#152=EDGE_CURVE('',#126,#127,#52,.T.);
#153=EDGE_CURVE('',#128,#126,#53,.T.);
#154=EDGE_CURVE('',#129,#128,#54,.T.);
#155=EDGE_CURVE('',#127,#129,#55,.T.);
#156=EDGE_CURVE('',#126,#130,#56,.T.);
#157=EDGE_CURVE('',#131,#130,#57,.T.);
#158=EDGE_CURVE('',#128,#131,#58,.T.);
#159=EDGE_CURVE('',#127,#132,#59,.T.);
#160=EDGE_CURVE('',#130,#132,#60,.T.);
#161=EDGE_CURVE('',#133,#129,#61,.T.);
#162=EDGE_CURVE('',#132,#133,#62,.T.);
#163=EDGE_CURVE('',#134,#131,#63,.T.);
#164=EDGE_CURVE('',#135,#134,#64,.T.);
#165=EDGE_CURVE('',#135,#136,#65,.T.);
#166=EDGE_CURVE('',#136,#137,#66,.T.);
#167=EDGE_CURVE('',#133,#137,#67,.T.);
#168=EDGE_CURVE('',#138,#138,#16,.T.);
#169=EDGE_CURVE('',#138,#139,#68,.T.);
#170=EDGE_CURVE('',#139,#139,#17,.T.);
#171=EDGE_CURVE('',#135,#140,#69,.T.);
#172=EDGE_CURVE('',#141,#134,#70,.T.);
#173=EDGE_CURVE('',#140,#141,#71,.T.);
#174=EDGE_CURVE('',#140,#142,#72,.T.);
#175=EDGE_CURVE('',#143,#141,#73,.T.);
#176=EDGE_CURVE('',#142,#143,#74,.T.);
#177=EDGE_CURVE('',#144,#142,#75,.T.);
#178=EDGE_CURVE('',#145,#143,#76,.T.);
#179=EDGE_CURVE('',#144,#145,#77,.T.);
#180=EDGE_CURVE('',#144,#146,#78,.T.);
#181=EDGE_CURVE('',#147,#145,#79,.T.);
#182=EDGE_CURVE('',#146,#147,#80,.T.);
#183=EDGE_CURVE('',#146,#148,#81,.T.);
#184=EDGE_CURVE('',#149,#147,#82,.T.);
#185=EDGE_CURVE('',#148,#149,#83,.T.);
#186=EDGE_CURVE('',#148,#150,#84,.T.);
#187=EDGE_CURVE('',#151,#149,#85,.T.);
#188=EDGE_CURVE('',#150,#151,#86,.T.);
#189=EDGE_CURVE('',#150,#136,#87,.T.);
#190=EDGE_CURVE('',#137,#151,#88,.T.);
#191=ORIENTED_EDGE('',*,*,#152,.F.);
#192=ORIENTED_EDGE('',*,*,#153,.F.);
#193=ORIENTED_EDGE('',*,*,#154,.F.);
#194=ORIENTED_EDGE('',*,*,#155,.F.);
#195=ORIENTED_EDGE('',*,*,#153,.T.);
#196=ORIENTED_EDGE('',*,*,#156,.T.);
#197=ORIENTED_EDGE('',*,*,#157,.F.);
#198=ORIENTED_EDGE('',*,*,#158,.F.);
#199=ORIENTED_EDGE('',*,*,#152,.T.);
#200=ORIENTED_EDGE('',*,*,#159,.T.);
#201=ORIENTED_EDGE('',*,*,#160,.F.);
#202=ORIENTED_EDGE('',*,*,#156,.F.);
#203=ORIENTED_EDGE('',*,*,#155,.T.);
#204=ORIENTED_EDGE('',*,*,#161,.F.);
#205=ORIENTED_EDGE('',*,*,#162,.F.);
#206=ORIENTED_EDGE('',*,*,#159,.F.);
#207=ORIENTED_EDGE('',*,*,#158,.T.);
#208=ORIENTED_EDGE('',*,*,#163,.F.);
#209=ORIENTED_EDGE('',*,*,#164,.F.);
#210=ORIENTED_EDGE('',*,*,#165,.T.);
#211=ORIENTED_EDGE('',*,*,#166,.T.);
#212=ORIENTED_EDGE('',*,*,#167,.F.);
#213=ORIENTED_EDGE('',*,*,#161,.T.);
#214=ORIENTED_EDGE('',*,*,#154,.T.);
#215=ORIENTED_EDGE('',*,*,#168,.F.);
#216=ORIENTED_EDGE('',*,*,#169,.T.);
#217=ORIENTED_EDGE('',*,*,#170,.F.);
#218=ORIENTED_EDGE('',*,*,#169,.F.);
#219=ORIENTED_EDGE('',*,*,#168,.T.);
#220=ORIENTED_EDGE('',*,*,#171,.F.);
#221=ORIENTED_EDGE('',*,*,#164,.T.);
#222=ORIENTED_EDGE('',*,*,#172,.F.);
#223=ORIENTED_EDGE('',*,*,#173,.F.);
#224=ORIENTED_EDGE('',*,*,#174,.F.);
#225=ORIENTED_EDGE('',*,*,#173,.T.);
#226=ORIENTED_EDGE('',*,*,#175,.F.);
#227=ORIENTED_EDGE('',*,*,#176,.F.);
#228=ORIENTED_EDGE('',*,*,#177,.T.);
#229=ORIENTED_EDGE('',*,*,#176,.T.);
#230=ORIENTED_EDGE('',*,*,#178,.F.);
#231=ORIENTED_EDGE('',*,*,#179,.F.);
#232=ORIENTED_EDGE('',*,*,#180,.F.);
#233=ORIENTED_EDGE('',*,*,#179,.T.);
#234=ORIENTED_EDGE('',*,*,#181,.F.);
#235=ORIENTED_EDGE('',*,*,#182,.F.);
#236=ORIENTED_EDGE('',*,*,#183,.F.);
#237=ORIENTED_EDGE('',*,*,#182,.T.);
#238=ORIENTED_EDGE('',*,*,#184,.F.);
#239=ORIENTED_EDGE('',*,*,#185,.F.);
#240=ORIENTED_EDGE('',*,*,#186,.F.);
#241=ORIENTED_EDGE('',*,*,#185,.T.);
#242=ORIENTED_EDGE('',*,*,#187,.F.);
#243=ORIENTED_EDGE('',*,*,#188,.F.);
#244=ORIENTED_EDGE('',*,*,#189,.F.);
#245=ORIENTED_EDGE('',*,*,#188,.T.);
#246=ORIENTED_EDGE('',*,*,#190,.F.);
#247=ORIENTED_EDGE('',*,*,#166,.F.);
#248=ORIENTED_EDGE('',*,*,#163,.T.);
#249=ORIENTED_EDGE('',*,*,#157,.T.);
#250=ORIENTED_EDGE('',*,*,#160,.T.);
#251=ORIENTED_EDGE('',*,*,#162,.T.);
#252=ORIENTED_EDGE('',*,*,#167,.T.);
#253=ORIENTED_EDGE('',*,*,#190,.T.);
#254=ORIENTED_EDGE('',*,*,#187,.T.);
#255=ORIENTED_EDGE('',*,*,#184,.T.);
#256=ORIENTED_EDGE('',*,*,#181,.T.);
#257=ORIENTED_EDGE('',*,*,#178,.T.);
#258=ORIENTED_EDGE('',*,*,#175,.T.);
#259=ORIENTED_EDGE('',*,*,#172,.T.);
#260=ORIENTED_EDGE('',*,*,#170,.T.);
#261=ORIENTED_EDGE('',*,*,#165,.F.);
#262=ORIENTED_EDGE('',*,*,#171,.T.);
#263=ORIENTED_EDGE('',*,*,#174,.T.);
#264=ORIENTED_EDGE('',*,*,#177,.F.);
#265=ORIENTED_EDGE('',*,*,#180,.T.);
#266=ORIENTED_EDGE('',*,*,#183,.T.);
#267=ORIENTED_EDGE('',*,*,#186,.T.);
#268=ORIENTED_EDGE('',*,*,#189,.T.);
#269=PLANE('',#314);
#270=PLANE('',#315);
#271=PLANE('',#316);
#272=PLANE('',#317);
#273=PLANE('',#318);
#274=PLANE('',#322);
#275=PLANE('',#323);
#276=PLANE('',#324);
#277=PLANE('',#325);
#278=PLANE('',#326);
#279=PLANE('',#327);
#280=PLANE('',#328);
#281=PLANE('',#329);
#282=PLANE('',#330);
#283=PLANE('',#331);
#284=ADVANCED_FACE('',(#19),#269,.F.);
#285=ADVANCED_FACE('',(#20),#270,.T.);
#286=ADVANCED_FACE('',(#21),#271,.T.);
#287=ADVANCED_FACE('',(#22),#272,.T.);
#288=ADVANCED_FACE('',(#23),#273,.T.);
#289=ADVANCED_FACE('',(#24),#18,.T.);
#290=ADVANCED_FACE('',(#25),#274,.T.);
#291=ADVANCED_FACE('',(#26),#275,.T.);
#292=ADVANCED_FACE('',(#27),#276,.T.);
#293=ADVANCED_FACE('',(#28),#277,.T.);
#294=ADVANCED_FACE('',(#29),#278,.T.);
#295=ADVANCED_FACE('',(#30),#279,.T.);
#296=ADVANCED_FACE('',(#31),#280,.T.);
#297=ADVANCED_FACE('',(#32),#281,.T.);
#298=ADVANCED_FACE('',(#33,#15),#282,.T.);
#299=ADVANCED_FACE('',(#34),#283,.F.);
#300=CLOSED_SHELL('',(#284,#285,#286,#287,#288,#289,#290,#291,#292,#293,
#294,#295,#296,#297,#298,#299));
#301=DERIVED_UNIT_ELEMENT(#303,1.);
#302=DERIVED_UNIT_ELEMENT(#494,-3.);
#303=(
MASS_UNIT()
NAMED_UNIT(*)
SI_UNIT(.KILO.,.GRAM.)
);
#304=DERIVED_UNIT((#301,#302));
#305=MEASURE_REPRESENTATION_ITEM('density measure',
POSITIVE_RATIO_MEASURE(1320.),#304);
#306=PROPERTY_DEFINITION_REPRESENTATION(#311,#308);
#307=PROPERTY_DEFINITION_REPRESENTATION(#312,#309);
#308=REPRESENTATION('material name',(#310),#491);
#309=REPRESENTATION('density',(#305),#491);
#310=DESCRIPTIVE_REPRESENTATION_ITEM('PEEK','PEEK');
#311=PROPERTY_DEFINITION('material property','material name',#501);
#312=PROPERTY_DEFINITION('material property','density of part',#501);
#313=AXIS2_PLACEMENT_3D('placement',#407,#332,#333);
#314=AXIS2_PLACEMENT_3D('',#408,#334,#335);
#315=AXIS2_PLACEMENT_3D('',#417,#340,#341);
#316=AXIS2_PLACEMENT_3D('',#423,#345,#346);
#317=AXIS2_PLACEMENT_3D('',#427,#349,#350);
#318=AXIS2_PLACEMENT_3D('',#431,#353,#354);
#319=AXIS2_PLACEMENT_3D('',#441,#360,#361);
#320=AXIS2_PLACEMENT_3D('',#443,#362,#363);
#321=AXIS2_PLACEMENT_3D('',#446,#365,#366);
#322=AXIS2_PLACEMENT_3D('',#447,#367,#368);
#323=AXIS2_PLACEMENT_3D('',#448,#369,#370);
#324=AXIS2_PLACEMENT_3D('',#454,#374,#375);
#325=AXIS2_PLACEMENT_3D('',#460,#379,#380);
#326=AXIS2_PLACEMENT_3D('',#466,#384,#385);
#327=AXIS2_PLACEMENT_3D('',#472,#389,#390);
#328=AXIS2_PLACEMENT_3D('',#478,#394,#395);
#329=AXIS2_PLACEMENT_3D('',#484,#399,#400);
#330=AXIS2_PLACEMENT_3D('',#487,#403,#404);
#331=AXIS2_PLACEMENT_3D('',#488,#405,#406);
#332=DIRECTION('axis',(0.,0.,1.));
#333=DIRECTION('refdir',(1.,0.,0.));
#334=DIRECTION('center_axis',(0.,1.,0.));
#335=DIRECTION('ref_axis',(0.,0.,1.));
#336=DIRECTION('',(-1.,0.,0.));
#337=DIRECTION('',(0.,0.,-1.));
#338=DIRECTION('',(1.,0.,0.));
#339=DIRECTION('',(0.,0.,1.));
#340=DIRECTION('center_axis',(1.,0.,0.));
#341=DIRECTION('ref_axis',(0.,0.,-1.));
#342=DIRECTION('',(0.,1.,0.));
#343=DIRECTION('',(0.,0.,-1.));
#344=DIRECTION('',(0.,1.,0.));
#345=DIRECTION('center_axis',(0.,0.,-1.));
#346=DIRECTION('ref_axis',(-1.,0.,0.));
#347=DIRECTION('',(0.,1.,0.));
#348=DIRECTION('',(-1.,0.,0.));
#349=DIRECTION('center_axis',(-1.,0.,0.));
#350=DIRECTION('ref_axis',(0.,0.,1.));
#351=DIRECTION('',(0.,-1.,0.));
#352=DIRECTION('',(0.,0.,1.));
#353=DIRECTION('center_axis',(0.,0.,-1.));
#354=DIRECTION('ref_axis',(-1.,0.,0.));
#355=DIRECTION('',(-1.,0.,0.));
#356=DIRECTION('',(0.,1.,0.));
#357=DIRECTION('',(-1.,0.,0.));
#358=DIRECTION('',(0.,1.,0.));
#359=DIRECTION('',(-1.,0.,0.));
#360=DIRECTION('center_axis',(0.,1.,0.));
#361=DIRECTION('ref_axis',(1.,0.,0.));
#362=DIRECTION('center_axis',(0.,1.,0.));
#363=DIRECTION('ref_axis',(1.,0.,0.));
#364=DIRECTION('',(0.,-1.,0.));
#365=DIRECTION('center_axis',(0.,-1.,0.));
#366=DIRECTION('ref_axis',(1.,0.,0.));
#367=DIRECTION('center_axis',(0.,1.,0.));
#368=DIRECTION('ref_axis',(1.,0.,0.));
#369=DIRECTION('center_axis',(0.698044417877356,0.,-0.716054460687359));
#370=DIRECTION('ref_axis',(-0.716054460687358,0.,-0.698044417877355));
#371=DIRECTION('',(0.716054460687358,0.,0.698044417877355));
#372=DIRECTION('',(-0.716054460687358,0.,-0.698044417877355));
#373=DIRECTION('',(0.,1.,0.));
#374=DIRECTION('center_axis',(1.,0.,0.));
#375=DIRECTION('ref_axis',(0.,0.,-1.));
#376=DIRECTION('',(0.,0.,1.));
#377=DIRECTION('',(0.,0.,-1.));
#378=DIRECTION('',(0.,1.,0.));
#379=DIRECTION('center_axis',(0.669577669367835,0.,0.742742044510702));
#380=DIRECTION('ref_axis',(0.742742044510702,0.,-0.669577669367835));
#381=DIRECTION('',(0.742742044510702,0.,-0.669577669367835));
#382=DIRECTION('',(0.742742044510702,0.,-0.669577669367835));
#383=DIRECTION('',(0.,1.,0.));
#384=DIRECTION('center_axis',(0.,0.,1.));
#385=DIRECTION('ref_axis',(1.,0.,0.));
#386=DIRECTION('',(-1.,0.,0.));
#387=DIRECTION('',(1.,0.,0.));
#388=DIRECTION('',(0.,1.,0.));
#389=DIRECTION('center_axis',(-0.697940953508414,0.,0.716155308166997));
#390=DIRECTION('ref_axis',(0.716155308166997,0.,0.697940953508414));
#391=DIRECTION('',(-0.716155308166997,0.,-0.697940953508414));
#392=DIRECTION('',(0.716155308166997,0.,0.697940953508414));
#393=DIRECTION('',(0.,1.,0.));
#394=DIRECTION('center_axis',(-1.,0.,0.));
#395=DIRECTION('ref_axis',(0.,0.,1.));
#396=DIRECTION('',(0.,0.,-1.));
#397=DIRECTION('',(0.,0.,1.));
#398=DIRECTION('',(0.,1.,0.));
#399=DIRECTION('center_axis',(-0.774275112545137,0.,-0.632849152715886));
#400=DIRECTION('ref_axis',(-0.632849152715886,0.,0.774275112545137));
#401=DIRECTION('',(0.632849152715886,0.,-0.774275112545137));
#402=DIRECTION('',(-0.632849152715886,0.,0.774275112545137));
#403=DIRECTION('center_axis',(0.,1.,0.));
#404=DIRECTION('ref_axis',(1.,0.,0.));
#405=DIRECTION('center_axis',(0.,1.,0.));
#406=DIRECTION('ref_axis',(1.,0.,0.));
#407=CARTESIAN_POINT('',(0.,0.,0.));
#408=CARTESIAN_POINT('Origin',(34.555,0.2,-16.49));
#409=CARTESIAN_POINT('',(46.895,0.2,-32.98));
#410=CARTESIAN_POINT('',(22.215,0.2,-32.98));
#411=CARTESIAN_POINT('',(40.725,0.2,-32.98));
#412=CARTESIAN_POINT('',(46.895,0.2,0.));
#413=CARTESIAN_POINT('',(46.895,0.2,-8.245));
#414=CARTESIAN_POINT('',(22.215,0.2,0.));
#415=CARTESIAN_POINT('',(46.895,0.2,0.));
#416=CARTESIAN_POINT('',(22.215,0.2,-24.735));
#417=CARTESIAN_POINT('Origin',(46.895,0.,0.));
#418=CARTESIAN_POINT('',(46.895,1.,-32.98));
#419=CARTESIAN_POINT('',(46.895,0.,-32.98));
#420=CARTESIAN_POINT('',(46.895,1.,0.));
#421=CARTESIAN_POINT('',(46.895,1.,-32.98));
#422=CARTESIAN_POINT('',(46.895,0.,0.));
#423=CARTESIAN_POINT('Origin',(46.895,0.,-32.98));
#424=CARTESIAN_POINT('',(22.215,1.,-32.98));
#425=CARTESIAN_POINT('',(22.215,0.,-32.98));
#426=CARTESIAN_POINT('',(22.215,1.,-32.98));
#427=CARTESIAN_POINT('Origin',(22.215,0.,-32.98));
#428=CARTESIAN_POINT('',(22.215,1.,0.));
#429=CARTESIAN_POINT('',(22.215,0.,0.));
#430=CARTESIAN_POINT('',(22.215,1.,0.));
#431=CARTESIAN_POINT('Origin',(51.895,0.,0.));
#432=CARTESIAN_POINT('',(51.895,1.,0.));
#433=CARTESIAN_POINT('',(51.895,1.,0.));
#434=CARTESIAN_POINT('',(51.895,0.,0.));
#435=CARTESIAN_POINT('',(51.895,0.,0.));
#436=CARTESIAN_POINT('',(17.295,0.,0.));
#437=CARTESIAN_POINT('',(51.895,0.,0.));
#438=CARTESIAN_POINT('',(17.295,1.,0.));
#439=CARTESIAN_POINT('',(17.295,0.,0.));
#440=CARTESIAN_POINT('',(51.895,1.,0.));
#441=CARTESIAN_POINT('Origin',(34.6,0.,38.02));
#442=CARTESIAN_POINT('',(3.28,1.2,38.02));
#443=CARTESIAN_POINT('Origin',(34.6,1.2,38.02));
#444=CARTESIAN_POINT('',(3.28,1.,38.02));
#445=CARTESIAN_POINT('',(3.28,0.,38.02));
#446=CARTESIAN_POINT('Origin',(34.6,1.,38.02));
#447=CARTESIAN_POINT('Origin',(34.6,1.2,38.02));
#448=CARTESIAN_POINT('Origin',(69.19,0.,16.86));
#449=CARTESIAN_POINT('',(69.19,0.,16.86));
#450=CARTESIAN_POINT('',(51.895,0.,0.));
#451=CARTESIAN_POINT('',(69.19,1.,16.86));
#452=CARTESIAN_POINT('',(51.895,1.,0.));
#453=CARTESIAN_POINT('',(69.19,0.,16.86));
#454=CARTESIAN_POINT('Origin',(69.19,0.,54.88));
#455=CARTESIAN_POINT('',(69.19,0.,54.88));
#456=CARTESIAN_POINT('',(69.19,0.,16.86));
#457=CARTESIAN_POINT('',(69.19,1.,54.88));
#458=CARTESIAN_POINT('',(69.19,1.,16.86));
#459=CARTESIAN_POINT('',(69.19,0.,54.88));
#460=CARTESIAN_POINT('Origin',(50.4877172875652,0.,71.74));
#461=CARTESIAN_POINT('',(50.4877172875652,0.,71.74));
#462=CARTESIAN_POINT('',(50.4877172875652,0.,71.74));
#463=CARTESIAN_POINT('',(50.4877172875652,1.,71.74));
#464=CARTESIAN_POINT('',(50.4877172875652,1.,71.74));
#465=CARTESIAN_POINT('',(50.4877172875652,0.,71.74));
#466=CARTESIAN_POINT('Origin',(17.3,0.,71.74));
#467=CARTESIAN_POINT('',(17.3,0.,71.74));
#468=CARTESIAN_POINT('',(34.6,0.,71.74));
#469=CARTESIAN_POINT('',(17.3,1.,71.74));
#470=CARTESIAN_POINT('',(34.6,1.,71.74));
#471=CARTESIAN_POINT('',(17.3,0.,71.74));
#472=CARTESIAN_POINT('Origin',(-2.22044604925031E-15,0.,54.88));
#473=CARTESIAN_POINT('',(0.,0.,54.88));
#474=CARTESIAN_POINT('',(17.3,0.,71.74));
#475=CARTESIAN_POINT('',(0.,1.,54.88));
#476=CARTESIAN_POINT('',(17.3,1.,71.74));
#477=CARTESIAN_POINT('',(0.,0.,54.88));
#478=CARTESIAN_POINT('Origin',(0.,0.,21.16));
#479=CARTESIAN_POINT('',(0.,0.,21.16));
#480=CARTESIAN_POINT('',(0.,0.,54.88));
#481=CARTESIAN_POINT('',(0.,1.,21.16));
#482=CARTESIAN_POINT('',(0.,1.,54.88));
#483=CARTESIAN_POINT('',(0.,0.,21.16));
#484=CARTESIAN_POINT('Origin',(17.295,0.,0.));
#485=CARTESIAN_POINT('',(0.,0.,21.16));
#486=CARTESIAN_POINT('',(0.,1.,21.16));
#487=CARTESIAN_POINT('Origin',(34.595,1.,35.87));
#488=CARTESIAN_POINT('Origin',(34.595,0.,35.87));
#489=UNCERTAINTY_MEASURE_WITH_UNIT(LENGTH_MEASURE(0.01),#493,
'DISTANCE_ACCURACY_VALUE',
'Maximum model space distance between geometric entities at asserted c
onnectivities');
#490=UNCERTAINTY_MEASURE_WITH_UNIT(LENGTH_MEASURE(0.01),#493,
'DISTANCE_ACCURACY_VALUE',
'Maximum model space distance between geometric entities at asserted c
onnectivities');
#491=(
GEOMETRIC_REPRESENTATION_CONTEXT(3)
GLOBAL_UNCERTAINTY_ASSIGNED_CONTEXT((#489))
GLOBAL_UNIT_ASSIGNED_CONTEXT((#493,#495,#496))
REPRESENTATION_CONTEXT('','3D')
);
#492=(
GEOMETRIC_REPRESENTATION_CONTEXT(3)
GLOBAL_UNCERTAINTY_ASSIGNED_CONTEXT((#490))
GLOBAL_UNIT_ASSIGNED_CONTEXT((#493,#495,#496))
REPRESENTATION_CONTEXT('','3D')
);
#493=(
LENGTH_UNIT()
NAMED_UNIT(*)
SI_UNIT(.MILLI.,.METRE.)
);
#494=(
LENGTH_UNIT()
NAMED_UNIT(*)
SI_UNIT($,.METRE.)
);
#495=(
NAMED_UNIT(*)
PLANE_ANGLE_UNIT()
SI_UNIT($,.RADIAN.)
);
#496=(
NAMED_UNIT(*)
SI_UNIT($,.STERADIAN.)
SOLID_ANGLE_UNIT()
);
#497=SHAPE_DEFINITION_REPRESENTATION(#498,#499);
#498=PRODUCT_DEFINITION_SHAPE('',$,#501);
#499=SHAPE_REPRESENTATION('',(#313),#491);
#500=PRODUCT_DEFINITION_CONTEXT('part definition',#505,'design');
#501=PRODUCT_DEFINITION('DM-TFTR25-460','DM-TFTR25-460 v5',#502,#500);
#502=PRODUCT_DEFINITION_FORMATION('',$,#507);
#503=PRODUCT_RELATED_PRODUCT_CATEGORY('DM-TFTR25-460 v5',
'DM-TFTR25-460 v5',(#507));
#504=APPLICATION_PROTOCOL_DEFINITION('international standard',
'automotive_design',2009,#505);
#505=APPLICATION_CONTEXT(
'Core Data for Automotive Mechanical Design Process');
#506=PRODUCT_CONTEXT('part definition',#505,'mechanical');
#507=PRODUCT('DM-TFTR25-460','DM-TFTR25-460 v5',$,(#506));
#508=PRESENTATION_STYLE_ASSIGNMENT((#509));
#509=SURFACE_STYLE_USAGE(.BOTH.,#510);
#510=SURFACE_SIDE_STYLE('',(#511));
#511=SURFACE_STYLE_FILL_AREA(#512);
#512=FILL_AREA_STYLE('PEEK',(#513));
#513=FILL_AREA_STYLE_COLOUR('PEEK',#514);
#514=COLOUR_RGB('PEEK',0.6,0.509803921568627,0.368627450980392);
ENDSEC;
END-ISO-10303-21;
