999
DXF file: 2108bsn801-xxxx-xx.dxf
999
Pro/ENGINEER 2015070 by Parametric Technology Corporation
  0
SECTION
  2
HEADER
  9
$ACADVER
  1
AC1021
  9
$DWGCODEPAGE
  3
ANSI_936
  9
$EXTMAX
 10
40.0
 20
28.0
 30
0.0
  9
$EXTMIN
 10
0.0
 20
0.0
 30
0.0
  9
$LIMMIN
 10
0.0
 20
0.0
  9
$LIMMAX
 10
40.0
 20
28.0
  9
$VIEWCTR
 10
20.0
 20
14.0
  9
$VIEWSIZE
 40
28.0
  9
$CLAYER
  8
0
  9
$LTSCALE
 40
2.2
  9
$CELTYPE
  6
BYLAYER
  9
$DIMSCALE
 40
1.0
  9
$DIMASZ
 40
0.125
  9
$DIMEXO
 40
0.0625
  9
$DIMDLI
 40
1.52
  9
$DIMEXE
 40
0.125
  9
$DIMCEN
 40
0.36
  9
$DIMLFAC
 40
1.0
  9
$DIMBLK
  1
_FILLED
  9
$DIMTXT
 40
0.12
  9
$DIMTOL
 70
1
  9
$DIMLIM
 70
0
  9
$DIMTFAC
 40
1.0
  9
$DIMTP
 40
0.001
  9
$DIMTM
 40
0.001
  9
$DIMGAP
 40
0.09
  9
$DIMDSEP
 70
46
  9
$PDMODE
 70
3
  9
$PDSIZE
 40
0.125
  9
$HANDSEED
  5
55A
  9
$TILEMODE
 70
1
  9
$MEASUREMENT
 70
0
  9
$INSUNITS
 70
1
  0
ENDSEC
  0
SECTION
  2
CLASSES
  0
CLASS
  1
ACDBDICTIONARYWDFLT
  2
AcDbDictionaryWithDefault
  3
AutoCAD 2000
 90
0
 91
1
280
0
281
0
  0
CLASS
  1
ACDBPLACEHOLDER
  2
AcDbPlaceHolder
  3
AutoCAD 2000
 90
0
 91
1
280
0
281
0
  0
CLASS
  1
LAYOUT
  2
AcDbLayout
  3
AutoCAD 2000
 90
0
 91
0
280
0
281
0
  0
ENDSEC
  0
SECTION
  2
TABLES
  0
TABLE
  2
VPORT
  5
8
100
AcDbSymbolTable
 70
2
  0
VPORT
  5
1F4
100
AcDbSymbolTableRecord
100
AcDbViewportTableRecord
  2
*ACTIVE
 70
0
 10
0.0
 20
0.0
 11
1.0
 21
1.0
 12
20.0
 22
14.0
 13
0.0
 23
0.0
 14
1.0
 24
1.0
 15
0.0
 25
0.0
 16
0.0
 26
0.0
 36
1.0
 17
0.0
 27
0.0
 37
0.0
 40
28.0
 41
1.4285714286
 42
50.0
 43
0.0
 44
0.0
 50
0.0
 51
0.0
 71
0
 72
100
 73
1
 74
1
 75
0
 76
0
 77
0
 78
0
  0
ENDTAB
  0
TABLE
  2
LTYPE
  5
5
100
AcDbSymbolTable
 70
6
  0
LTYPE
  5
14
100
AcDbSymbolTableRecord
100
AcDbLinetypeTableRecord
  2
BYBLOCK
 70
0
  3

 72
65
 73
0
 40
0.0
  0
LTYPE
  5
15
100
AcDbSymbolTableRecord
100
AcDbLinetypeTableRecord
  2
BYLAYER
 70
0
  3

 72
65
 73
0
 40
0.0
  0
LTYPE
  5
16
100
AcDbSymbolTableRecord
100
AcDbLinetypeTableRecord
  2
CONTINUOUS
 70
64
  3
Solid line
 72
65
 73
0
 40
0.0
  0
LTYPE
  5
1F5
100
AcDbSymbolTableRecord
100
AcDbLinetypeTableRecord
  2
CENTER
 70
64
  3
____ _ ____ _ ____ _ ____ _ ____ _ ____ _ ____
 72
65
 73
4
 40
0.6
 49
0.375
 74
0
 49
-0.075
 74
0
 49
0.075
 74
0
 49
-0.075
 74
0
  0
LTYPE
  5
1F6
100
AcDbSymbolTableRecord
100
AcDbLinetypeTableRecord
  2
HIDDEN
 70
64
  3
- - - - - - - - - - - - - - - - - - - -
 72
65
 73
2
 40
0.2
 49
0.1
 74
0
 49
-0.1
 74
0
  0
LTYPE
  5
1F7
100
AcDbSymbolTableRecord
100
AcDbLinetypeTableRecord
  2
PHANTOM
 70
64
  3
_____ _ _ _____ _ _ _____ _ _ _____
 72
65
 73
6
 40
0.8
 49
0.45
 74
0
 49
-0.05
 74
0
 49
0.1
 74
0
 49
-0.05
 74
0
 49
0.1
 74
0
 49
-0.05
 74
0
  0
LTYPE
  5
1F8
100
AcDbSymbolTableRecord
100
AcDbLinetypeTableRecord
  2
DOT
 70
64
  3
. . . . . . . . . . . . . . . . . . . .
 72
65
 73
2
 40
0.2
 49
0.1
 74
0
 49
-0.1
 74
0
  0
LTYPE
  5
1F9
100
AcDbSymbolTableRecord
100
AcDbLinetypeTableRecord
  2
DASHED
 70
64
  3
- - - - - - - - - - - - - - - - - - - -
 72
65
 73
2
 40
0.2
 49
0.1
 74
0
 49
-0.1
 74
0
  0
ENDTAB
  0
TABLE
  2
LAYER
  5
2
100
AcDbSymbolTable
 70
36
  0
LAYER
  5
10
100
AcDbSymbolTableRecord
100
AcDbLayerTableRecord
  2
0
 70
0
 62
7
  6
CONTINUOUS
370
-3
390
F
  0
LAYER
  5
1FA
100
AcDbSymbolTableRecord
100
AcDbLayerTableRecord
  2
DEFAULT_1
 70
0
 62
7
  6
CENTER
370
-3
390
F
  0
LAYER
  5
1FB
100
AcDbSymbolTableRecord
100
AcDbLayerTableRecord
  2
DEFAULT_2
 70
0
 62
8
  6
HIDDEN
370
-3
390
F
  0
LAYER
  5
1FC
100
AcDbSymbolTableRecord
100
AcDbLayerTableRecord
  2
DEFAULT_3
 70
0
 62
7
  6
PHANTOM
370
-3
390
F
  0
ENDTAB
  0
TABLE
  2
STYLE
  5
3
100
AcDbSymbolTable
 70
1
  0
STYLE
  5
11
100
AcDbSymbolTableRecord
100
AcDbTextStyleTableRecord
  2
STANDARD
 70
0
 40
0.0
 41
1.0
 50
0.0
 71
0
 42
0.2
  3
txt
  4

  0
STYLE
  5
1FD
100
AcDbSymbolTableRecord
100
AcDbTextStyleTableRecord
  2
TEXTSTYLE_1
 70
0
 40
0.0
 41
0.8
 50
0.0
 71
0
 42
0.2
  3
gdt
  4

  0
ENDTAB
  0
TABLE
  2
VIEW
  5
6
100
AcDbSymbolTable
 70
0
  0
ENDTAB
  0
TABLE
  2
UCS
  5
7
100
AcDbSymbolTable
 70
0
  0
ENDTAB
  0
TABLE
  2
APPID
  5
9
100
AcDbSymbolTable
 70
1
  0
APPID
  5
1FE
100
AcDbSymbolTableRecord
100
AcDbRegAppTableRecord
  2
ACAD
 70
0
  0
ENDTAB
  0
TABLE
  2
BLOCK_RECORD
  5
1
100
AcDbSymbolTable
 70
0
  0
BLOCK_RECORD
  5
1FF
100
AcDbSymbolTableRecord
100
AcDbBlockTableRecord
  2
*Model_Space
  0
BLOCK_RECORD
  5
200
100
AcDbSymbolTableRecord
100
AcDbBlockTableRecord
  2
*Paper_Space
  0
ENDTAB
  0
TABLE
  2
DIMSTYLE
  5
A
100
AcDbSymbolTable
 70
1
100
AcDbDimStyleTable
 71
0
  0
DIMSTYLE
105
201
100
AcDbSymbolTableRecord
100
AcDbDimStyleTableRecord
  2
STANDARD
 70
0
  3

  4

 40
1.0
 41
0.125
 42
0.0625
 43
0.38
 44
0.125
 45
0.0
 46
0.0
 47
0.001
 48
0.001
140
0.12
141
0.09
142
0.0
143
25.4
144
1.0
145
0.0
146
1.0
147
0.09
 71
1.0
 72
0.0
 73
1
 74
1
 75
0
 76
0
 77
0
 78
4
170
0
171
2
172
0
173
0
174
0
175
0
176
0
177
0
178
0
270
2
271
3
272
3
273
2
274
2
275
0
280
0
281
0
282
0
283
1
284
4
285
0
286
0
287
3
288
0
340
11
278
46
  0
ENDTAB
  0
ENDSEC
  0
SECTION
  2
BLOCKS
  0
BLOCK
  5
20
100
AcDbEntity
  8
0
100
AcDbBlockBegin
  2
*Model_Space
 70
0
 10
0.0
 20
0.0
 30
0.0
  3
*Model_Space
  1

  0
ENDBLK
  5
21
100
AcDbEntity
  8
0
100
AcDbBlockEnd
  0
BLOCK
  5
1C
100
AcDbEntity
  8
0
100
AcDbBlockBegin
  2
*Paper_Space
 70
0
 10
0.0
 20
0.0
 30
0.0
  3
*Paper_Space
  1

  0
ENDBLK
  5
1D
100
AcDbEntity
  8
0
100
AcDbBlockEnd
  0
ENDSEC
  0
SECTION
  2
ENTITIES
  0
LINE
  5
202
100
AcDbEntity
  8
0
100
AcDbLine
 62
7
  6
CONTINUOUS
 10
0.0
 20
0.0
 11
0.0
 21
28.0
  0
LINE
  5
203
100
AcDbEntity
  8
0
100
AcDbLine
 62
7
  6
CONTINUOUS
 10
0.0
 20
0.0
 11
40.0
 21
0.0
  0
LINE
  5
204
100
AcDbEntity
  8
0
100
AcDbLine
 62
7
  6
CONTINUOUS
 10
0.0
 20
28.0
 11
40.0
 21
28.0
  0
LINE
  5
205
100
AcDbEntity
  8
0
100
AcDbLine
 62
7
  6
CONTINUOUS
 10
40.0
 20
0.0
 11
40.0
 21
28.0
  0
LINE
  5
206
100
AcDbEntity
  8
0
100
AcDbLine
 62
7
  6
CONTINUOUS
 10
4.8386557106
 20
7.3226664533
 11
4.8386557106
 21
7.5976664533
  0
LINE
  5
207
100
AcDbEntity
  8
0
100
AcDbLine
 62
9
  6
CONTINUOUS
 10
5.5686832174
 20
7.5976664533
 11
5.5686832175
 21
7.3226664533
  0
LINE
  5
208
100
AcDbEntity
  8
0
100
AcDbLine
 62
9
  6
CONTINUOUS
 10
5.646553883
 20
7.3226664533
 11
5.646553883
 21
7.5976664533
  0
LINE
  5
209
100
AcDbEntity
  8
0
100
AcDbLine
 62
7
  6
CONTINUOUS
 10
5.8761557106
 20
7.3226664533
 11
5.8761557106
 21
7.5976664533
  0
LINE
  5
20A
100
AcDbEntity
  8
0
100
AcDbLine
 62
9
  6
CONTINUOUS
 10
6.484807713
 20
7.5976664533
 11
6.4848077131
 21
7.3226664533
  0
LINE
  5
20B
100
AcDbEntity
  8
0
100
AcDbLine
 62
9
  6
CONTINUOUS
 10
6.5585284698
 20
7.5976664533
 11
6.5585284698
 21
7.3226664533
  0
LINE
  5
20C
100
AcDbEntity
  8
0
100
AcDbLine
 62
7
  6
CONTINUOUS
 10
8.4786557106
 20
4.9076664533
 11
8.4786557106
 21
6.2576664533
  0
LINE
  5
20D
100
AcDbEntity
  8
0
100
AcDbLine
 62
7
  6
CONTINUOUS
 10
8.9936557106
 20
6.7926664533
 11
8.9936557106
 21
6.8726664533
  0
LINE
  5
20E
100
AcDbEntity
  8
0
100
AcDbLine
 62
7
  6
CONTINUOUS
 10
8.9936557106
 20
7.0526664533
 11
8.9936557106
 21
7.1326664533
  0
LINE
  5
20F
100
AcDbEntity
  8
0
100
AcDbLine
 62
9
  6
CONTINUOUS
 10
9.0426789743
 20
7.5976664533
 11
9.0426789743
 21
7.3226664533
  0
LINE
  5
210
100
AcDbEntity
  8
0
100
AcDbLine
 62
9
  6
CONTINUOUS
 10
9.1034453654
 20
7.5976664533
 11
9.1034453654
 21
7.3226664533
  0
LINE
  5
211
100
AcDbEntity
  8
0
100
AcDbLine
 62
7
  6
CONTINUOUS
 10
9.1236557106
 20
6.2576664533
 11
9.1236557106
 21
6.4576664533
  0
LINE
  5
212
100
AcDbEntity
  8
0
100
AcDbLine
 62
7
  6
CONTINUOUS
 10
9.1561557106
 20
7.3026664533
 11
9.1561557106
 21
7.1918116163
  0
LINE
  5
213
100
AcDbEntity
  8
0
100
AcDbLine
 62
7
  6
CONTINUOUS
 10
9.1561557106
 20
6.9935212902
 11
9.1561557106
 21
6.9318116163
  0
LINE
  5
214
100
AcDbEntity
  8
0
100
AcDbLine
 62
7
  6
CONTINUOUS
 10
9.1561557106
 20
6.7326664533
 11
9.1561557106
 21
6.6796664533
  0
LINE
  5
215
100
AcDbEntity
  8
0
100
AcDbLine
 62
7
  6
CONTINUOUS
 10
9.1561557106
 20
6.5196664533
 11
9.1561557106
 21
6.4576664533
  0
LINE
  5
216
100
AcDbEntity
  8
0
100
AcDbLine
 62
7
  6
CONTINUOUS
 10
9.9711557106
 20
6.7326664533
 11
9.9711557106
 21
6.4576664533
  0
LINE
  5
217
100
AcDbEntity
  8
0
100
AcDbLine
 62
7
  6
CONTINUOUS
 10
9.9711557106
 20
6.9318116163
 11
9.9711557106
 21
6.9935212902
  0
LINE
  5
218
100
AcDbEntity
  8
0
100
AcDbLine
 62
7
  6
CONTINUOUS
 10
9.9711557106
 20
7.1918116163
 11
9.9711557106
 21
7.3026664533
  0
LINE
  5
219
100
AcDbEntity
  8
0
100
AcDbLine
 62
7
  6
CONTINUOUS
 10
10.0036557106
 20
6.2576664533
 11
10.0036557106
 21
6.4576664533
  0
LINE
  5
21A
100
AcDbEntity
  8
0
100
AcDbLine
 62
7
  6
CONTINUOUS
 10
10.1336557106
 20
6.7926664533
 11
10.1336557106
 21
6.8726664533
  0
LINE
  5
21B
100
AcDbEntity
  8
0
100
AcDbLine
 62
7
  6
CONTINUOUS
 10
10.1336557106
 20
7.0526664533
 11
10.1336557106
 21
7.1326664533
  0
LINE
  5
21C
100
AcDbEntity
  8
0
100
AcDbLine
 62
7
  6
CONTINUOUS
 10
10.1911557106
 20
7.3226664533
 11
10.1911557106
 21
7.5976664533
  0
LINE
  5
21D
100
AcDbEntity
  8
0
100
AcDbLine
 62
7
  6
CONTINUOUS
 10
10.6486557106
 20
4.9076664533
 11
10.6486557106
 21
6.2576664533
  0
LINE
  5
21E
100
AcDbEntity
  8
0
100
AcDbLine
 62
7
  6
CONTINUOUS
 10
8.9936557106
 20
7.1326664533
 11
9.1561557106
 21
7.1918116163
  0
LINE
  5
21F
100
AcDbEntity
  8
0
100
AcDbLine
 62
7
  6
CONTINUOUS
 10
8.9936557106
 20
6.8726664533
 11
9.1561557106
 21
6.9318116163
  0
LINE
  5
220
100
AcDbEntity
  8
0
100
AcDbLine
 62
7
  6
CONTINUOUS
 10
8.4786557106
 20
4.9076664533
 11
10.6486557106
 21
4.9076664533
  0
LINE
  5
221
100
AcDbEntity
  8
0
100
AcDbLine
 62
7
  6
CONTINUOUS
 10
12.6936557106
 20
4.9076664533
 11
14.4336557106
 21
4.9076664533
  0
LINE
  5
222
100
AcDbEntity
  8
0
100
AcDbLine
 62
7
  6
CONTINUOUS
 10
16.4786557106
 20
4.9076664533
 11
18.6486557106
 21
4.9076664533
  0
LINE
  5
223
100
AcDbEntity
  8
0
100
AcDbLine
 62
7
  6
CONTINUOUS
 10
12.3136557106
 20
6.2476664533
 11
12.3136557106
 21
7.0676664533
  0
LINE
  5
224
100
AcDbEntity
  8
0
100
AcDbLine
 62
7
  6
CONTINUOUS
 10
10.1336557106
 20
6.7926664533
 11
9.9711557106
 21
6.7326664533
  0
LINE
  5
225
100
AcDbEntity
  8
0
100
AcDbLine
 62
7
  6
CONTINUOUS
 10
10.1336557106
 20
7.0526664533
 11
9.9711557106
 21
6.9935212902
  0
LINE
  5
226
100
AcDbEntity
  8
0
100
AcDbLine
 62
7
  6
CONTINUOUS
 10
9.1561557106
 20
6.9935212902
 11
8.9936557106
 21
7.0526664533
  0
LINE
  5
227
100
AcDbEntity
  8
0
100
AcDbLine
 62
7
  6
CONTINUOUS
 10
9.1561557106
 20
6.7326664533
 11
8.9936557106
 21
6.7926664533
  0
LINE
  5
228
100
AcDbEntity
  8
0
100
AcDbLine
 62
7
  6
CONTINUOUS
 10
12.4986557106
 20
6.8846664533
 11
12.4986557106
 21
7.0676664533
  0
LINE
  5
229
100
AcDbEntity
  8
0
100
AcDbLine
 62
7
  6
CONTINUOUS
 10
12.6886557106
 20
6.8846664533
 11
12.6886557106
 21
7.1966664533
  0
LINE
  5
22A
100
AcDbEntity
  8
0
100
AcDbLine
 62
7
  6
CONTINUOUS
 10
12.6936557106
 20
4.9076664533
 11
12.6936557106
 21
6.2476664533
  0
LINE
  5
22B
100
AcDbEntity
  8
0
100
AcDbLine
 62
7
  6
CONTINUOUS
 10
12.6936557106
 20
7.1966664533
 11
12.6936557106
 21
7.4076664533
  0
LINE
  5
22C
100
AcDbEntity
  8
0
100
AcDbLine
 62
7
  6
CONTINUOUS
 10
12.9961557106
 20
8.5076664533
 11
12.9961557106
 21
7.8826664533
  0
LINE
  5
22D
100
AcDbEntity
  8
0
100
AcDbLine
 62
7
  6
CONTINUOUS
 10
13.063658575
 20
6.0476664533
 11
14.0636528463
 21
6.0476664533
  0
LINE
  5
22E
100
AcDbEntity
  8
0
100
AcDbLine
 62
7
  6
CONTINUOUS
 10
10.1336557106
 20
6.8726664533
 11
9.9711557106
 21
6.9318116163
  0
LINE
  5
22F
100
AcDbEntity
  8
0
100
AcDbLine
 62
7
  6
CONTINUOUS
 10
10.1336557106
 20
7.1326664533
 11
9.9711557106
 21
7.1918116163
  0
LINE
  5
230
100
AcDbEntity
  8
0
100
AcDbLine
 62
7
  6
CONTINUOUS
 10
13.2178233813
 20
7.8826664533
 11
13.2178233813
 21
7.8726664533
  0
LINE
  5
231
100
AcDbEntity
  8
0
100
AcDbLine
 62
7
  6
CONTINUOUS
 10
13.3111557106
 20
8.5076664533
 11
13.3111557106
 21
7.8826664533
  0
LINE
  5
232
100
AcDbEntity
  8
0
100
AcDbLine
 62
7
  6
CONTINUOUS
 10
13.3586557106
 20
8.5076664533
 11
13.3586557106
 21
7.8826664533
  0
LINE
  5
233
100
AcDbEntity
  8
0
100
AcDbLine
 62
7
  6
CONTINUOUS
 10
13.4446557106
 20
7.4076664533
 11
13.4446557106
 21
7.8726664533
  0
LINE
  5
234
100
AcDbEntity
  8
0
100
AcDbLine
 62
7
  6
CONTINUOUS
 10
14.8136557106
 20
6.2476664533
 11
12.3136557106
 21
6.2476664533
  0
LINE
  5
235
100
AcDbEntity
  8
0
100
AcDbLine
 62
7
  6
CONTINUOUS
 10
8.4786557106
 20
6.2576664533
 11
10.6486557106
 21
6.2576664533
  0
LINE
  5
236
100
AcDbEntity
  8
0
100
AcDbLine
 62
7
  6
CONTINUOUS
 10
16.4786557106
 20
6.2576664533
 11
18.6486557106
 21
6.2576664533
  0
LINE
  5
237
100
AcDbEntity
  8
0
100
AcDbLine
 62
7
  6
CONTINUOUS
 10
18.00365319
 20
6.4576664533
 11
17.1236582313
 21
6.4576664533
  0
LINE
  5
238
100
AcDbEntity
  8
0
100
AcDbLine
 62
7
  6
CONTINUOUS
 10
10.00365319
 20
6.4576664533
 11
9.1236582313
 21
6.4576664533
  0
LINE
  5
239
100
AcDbEntity
  8
0
100
AcDbLine
 62
7
  6
CONTINUOUS
 10
9.9711557106
 20
6.7326664533
 11
9.1561557106
 21
6.7326664533
  0
LINE
  5
23A
100
AcDbEntity
  8
0
100
AcDbLine
 62
7
  6
CONTINUOUS
 10
17.1561557106
 20
6.7326664533
 11
17.9711557106
 21
6.7326664533
  0
LINE
  5
23B
100
AcDbEntity
  8
0
100
AcDbLine
 62
7
  6
CONTINUOUS
 10
13.6826557106
 20
7.4076664533
 11
13.6826557106
 21
7.8726664533
  0
LINE
  5
23C
100
AcDbEntity
  8
0
100
AcDbLine
 62
7
  6
CONTINUOUS
 10
13.7686557106
 20
7.8826664533
 11
13.7686557106
 21
8.5076664533
  0
LINE
  5
23D
100
AcDbEntity
  8
0
100
AcDbLine
 62
7
  6
CONTINUOUS
 10
13.8161557106
 20
7.8826664533
 11
13.8161557106
 21
8.5076664533
  0
LINE
  5
23E
100
AcDbEntity
  8
0
100
AcDbLine
 62
7
  6
CONTINUOUS
 10
13.90948804
 20
7.8726664533
 11
13.90948804
 21
7.8826664533
  0
LINE
  5
23F
100
AcDbEntity
  8
0
100
AcDbLine
 62
7
  6
CONTINUOUS
 10
14.1311557106
 20
8.5076664533
 11
14.1311557106
 21
7.8826664533
  0
LINE
  5
240
100
AcDbEntity
  8
0
100
AcDbLine
 62
7
  6
CONTINUOUS
 10
8.9936557106
 20
6.7926664533
 11
10.1336557106
 21
6.7926664533
  0
LINE
  5
241
100
AcDbEntity
  8
0
100
AcDbLine
 62
7
  6
CONTINUOUS
 10
16.9936557106
 20
6.7926664533
 11
18.1336557106
 21
6.7926664533
  0
LINE
  5
242
100
AcDbEntity
  8
0
100
AcDbLine
 62
7
  6
CONTINUOUS
 10
18.1336557106
 20
6.8726664533
 11
16.9936557106
 21
6.8726664533
  0
LINE
  5
243
100
AcDbEntity
  8
0
100
AcDbLine
 62
7
  6
CONTINUOUS
 10
10.1336557106
 20
6.8726664533
 11
8.9936557106
 21
6.8726664533
  0
LINE
  5
244
100
AcDbEntity
  8
0
100
AcDbLine
 62
7
  6
CONTINUOUS
 10
12.4986557106
 20
6.8846664533
 11
14.6286557106
 21
6.8846664533
  0
LINE
  5
245
100
AcDbEntity
  8
0
100
AcDbLine
 62
7
  6
CONTINUOUS
 10
17.9711557106
 20
6.9318116163
 11
17.1561557106
 21
6.9318116163
  0
LINE
  5
246
100
AcDbEntity
  8
0
100
AcDbLine
 62
7
  6
CONTINUOUS
 10
9.9711557106
 20
6.9318116163
 11
9.1561557106
 21
6.9318116163
  0
LINE
  5
247
100
AcDbEntity
  8
0
100
AcDbLine
 62
7
  6
CONTINUOUS
 10
17.9711557106
 20
6.9935212902
 11
17.1561557106
 21
6.9935212902
  0
LINE
  5
248
100
AcDbEntity
  8
0
100
AcDbLine
 62
7
  6
CONTINUOUS
 10
9.9711557106
 20
6.9935212902
 11
9.1561557106
 21
6.9935212902
  0
LINE
  5
249
100
AcDbEntity
  8
0
100
AcDbLine
 62
7
  6
CONTINUOUS
 10
8.9936557106
 20
7.0526664533
 11
10.1336557106
 21
7.0526664533
  0
LINE
  5
24A
100
AcDbEntity
  8
0
100
AcDbLine
 62
7
  6
CONTINUOUS
 10
16.9936557106
 20
7.0526664533
 11
18.1336557106
 21
7.0526664533
  0
LINE
  5
24B
100
AcDbEntity
  8
0
100
AcDbLine
 62
7
  6
CONTINUOUS
 10
14.8136557106
 20
7.0676664533
 11
14.6286557106
 21
7.0676664533
  0
LINE
  5
24C
100
AcDbEntity
  8
0
100
AcDbLine
 62
7
  6
CONTINUOUS
 10
12.4986557106
 20
7.0676664533
 11
12.3136557106
 21
7.0676664533
  0
LINE
  5
24D
100
AcDbEntity
  8
0
100
AcDbLine
 62
7
  6
CONTINUOUS
 10
18.1336557106
 20
7.1326664533
 11
16.9936557106
 21
7.1326664533
  0
LINE
  5
24E
100
AcDbEntity
  8
0
100
AcDbLine
 62
7
  6
CONTINUOUS
 10
10.1336557106
 20
7.1326664533
 11
8.9936557106
 21
7.1326664533
  0
LINE
  5
24F
100
AcDbEntity
  8
0
100
AcDbLine
 62
7
  6
CONTINUOUS
 10
17.9711557106
 20
7.1918116163
 11
17.1561557106
 21
7.1918116163
  0
LINE
  5
250
100
AcDbEntity
  8
0
100
AcDbLine
 62
7
  6
CONTINUOUS
 10
9.9711557106
 20
7.1918116163
 11
9.1561557106
 21
7.1918116163
  0
LINE
  5
251
100
AcDbEntity
  8
0
100
AcDbLine
 62
7
  6
CONTINUOUS
 10
12.6886557106
 20
7.1966664533
 11
14.4386557106
 21
7.1966664533
  0
LINE
  5
252
100
AcDbEntity
  8
0
100
AcDbLine
 62
7
  6
CONTINUOUS
 10
4.8586604792
 20
7.3026664533
 11
10.1711023655
 21
7.3026664533
  0
LINE
  5
253
100
AcDbEntity
  8
0
100
AcDbLine
 62
7
  6
CONTINUOUS
 10
16.9562094383
 20
7.3026664533
 11
22.2636512704
 21
7.3026664533
  0
LINE
  5
254
100
AcDbEntity
  8
0
100
AcDbLine
 62
9
  6
CONTINUOUS
 10
22.2836557106
 20
7.3226664533
 11
16.9361557106
 21
7.3226664533
  0
LINE
  5
255
100
AcDbEntity
  8
0
100
AcDbLine
 62
9
  6
CONTINUOUS
 10
10.1911557106
 20
7.3226664533
 11
4.8386557106
 21
7.3226664533
  0
LINE
  5
256
100
AcDbEntity
  8
0
100
AcDbLine
 62
7
  6
CONTINUOUS
 10
14.4336557106
 20
7.4076664533
 11
14.4336557106
 21
7.1966664533
  0
LINE
  5
257
100
AcDbEntity
  8
0
100
AcDbLine
 62
7
  6
CONTINUOUS
 10
14.4336557106
 20
6.2476664533
 11
14.4336557106
 21
4.9076664533
  0
LINE
  5
258
100
AcDbEntity
  8
0
100
AcDbLine
 62
7
  6
CONTINUOUS
 10
14.4386557106
 20
6.8846664533
 11
14.4386557106
 21
7.1966664533
  0
LINE
  5
259
100
AcDbEntity
  8
0
100
AcDbLine
 62
7
  6
CONTINUOUS
 10
14.6286557106
 20
7.0676664533
 11
14.6286557106
 21
6.8846664533
  0
LINE
  5
25A
100
AcDbEntity
  8
0
100
AcDbLine
 62
7
  6
CONTINUOUS
 10
14.8136557106
 20
6.2476664533
 11
14.8136557106
 21
7.0676664533
  0
LINE
  5
25B
100
AcDbEntity
  8
0
100
AcDbLine
 62
7
  6
CONTINUOUS
 10
17.1561557106
 20
7.1918116163
 11
16.9936557106
 21
7.1326664533
  0
LINE
  5
25C
100
AcDbEntity
  8
0
100
AcDbLine
 62
7
  6
CONTINUOUS
 10
17.1561557106
 20
6.9318116163
 11
16.9936557106
 21
6.8726664533
  0
LINE
  5
25D
100
AcDbEntity
  8
0
100
AcDbLine
 62
7
  6
CONTINUOUS
 10
18.1336557106
 20
7.0526664533
 11
17.9711557106
 21
6.9935212902
  0
LINE
  5
25E
100
AcDbEntity
  8
0
100
AcDbLine
 62
7
  6
CONTINUOUS
 10
12.6936557106
 20
7.4076664533
 11
14.4336557106
 21
7.4076664533
  0
LINE
  5
25F
100
AcDbEntity
  8
0
100
AcDbLine
 62
9
  6
CONTINUOUS
 10
4.8386557106
 20
7.5976664533
 11
10.1911557106
 21
7.5976664533
  0
LINE
  5
260
100
AcDbEntity
  8
0
100
AcDbLine
 62
9
  6
CONTINUOUS
 10
16.9361557106
 20
7.5976664533
 11
22.2836557106
 21
7.5976664533
  0
LINE
  5
261
100
AcDbEntity
  8
0
100
AcDbLine
 62
7
  6
CONTINUOUS
 10
22.263651015
 20
7.6176664533
 11
16.9562090558
 21
7.6176664533
  0
LINE
  5
262
100
AcDbEntity
  8
0
100
AcDbLine
 62
7
  6
CONTINUOUS
 10
10.1711019829
 20
7.6176664533
 11
4.8586602268
 21
7.6176664533
  0
LINE
  5
263
100
AcDbEntity
  8
0
100
AcDbLine
 62
7
  6
CONTINUOUS
 10
13.2178233813
 20
7.8726664533
 11
13.90948804
 21
7.8726664533
  0
LINE
  5
264
100
AcDbEntity
  8
0
100
AcDbLine
 62
7
  6
CONTINUOUS
 10
12.9961557106
 20
7.8826664533
 11
13.3586557106
 21
7.8826664533
  0
LINE
  5
265
100
AcDbEntity
  8
0
100
AcDbLine
 62
7
  6
CONTINUOUS
 10
13.7686557106
 20
7.8826664533
 11
14.1311069409
 21
7.8826664533
  0
LINE
  5
266
100
AcDbEntity
  8
0
100
AcDbLine
 62
7
  6
CONTINUOUS
 10
18.1336557106
 20
6.7926664533
 11
17.9711557106
 21
6.7326664533
  0
LINE
  5
267
100
AcDbEntity
  8
0
100
AcDbLine
 62
7
  6
CONTINUOUS
 10
13.7686557106
 20
8.4946664533
 11
13.3605028973
 21
8.4946664533
  0
LINE
  5
268
100
AcDbEntity
  8
0
100
AcDbLine
 62
7
  6
CONTINUOUS
 10
14.1311069409
 20
8.5076664533
 11
13.7686557106
 21
8.5076664533
  0
LINE
  5
269
100
AcDbEntity
  8
0
100
AcDbLine
 62
7
  6
CONTINUOUS
 10
13.3586557106
 20
8.5076664533
 11
12.9961557106
 21
8.5076664533
  0
LINE
  5
26A
100
AcDbEntity
  8
0
100
AcDbLine
 62
7
  6
CONTINUOUS
 10
17.1561557106
 20
6.9935212902
 11
16.9936557106
 21
7.0526664533
  0
LINE
  5
26B
100
AcDbEntity
  8
0
100
AcDbLine
 62
7
  6
CONTINUOUS
 10
17.9711557106
 20
6.9318116163
 11
18.1336557106
 21
6.8726664533
  0
LINE
  5
26C
100
AcDbEntity
  8
0
100
AcDbLine
 62
7
  6
CONTINUOUS
 10
16.9936557106
 20
6.7926664533
 11
17.1561557106
 21
6.7326664533
  0
LINE
  5
26D
100
AcDbEntity
  8
0
100
AcDbLine
 62
7
  6
CONTINUOUS
 10
18.1336557106
 20
7.1326664533
 11
17.9711557106
 21
7.1918116163
  0
LINE
  5
26E
100
AcDbEntity
  8
0
100
AcDbLine
 62
7
  6
CONTINUOUS
 10
16.4786557106
 20
4.9076664533
 11
16.4786557106
 21
6.2576664533
  0
LINE
  5
26F
100
AcDbEntity
  8
0
100
AcDbLine
 62
7
  6
CONTINUOUS
 10
16.9361557106
 20
7.3226664533
 11
16.9361557106
 21
7.5976664533
  0
LINE
  5
270
100
AcDbEntity
  8
0
100
AcDbLine
 62
7
  6
CONTINUOUS
 10
16.9936557106
 20
6.7926664533
 11
16.9936557106
 21
6.8726664533
  0
LINE
  5
271
100
AcDbEntity
  8
0
100
AcDbLine
 62
7
  6
CONTINUOUS
 10
16.9936557106
 20
7.0526664533
 11
16.9936557106
 21
7.1326664533
  0
LINE
  5
272
100
AcDbEntity
  8
0
100
AcDbLine
 62
7
  6
CONTINUOUS
 10
17.1236557106
 20
6.2576664533
 11
17.1236557106
 21
6.4576664533
  0
LINE
  5
273
100
AcDbEntity
  8
0
100
AcDbLine
 62
7
  6
CONTINUOUS
 10
17.1561557106
 20
7.3026664533
 11
17.1561557106
 21
7.1918116163
  0
LINE
  5
274
100
AcDbEntity
  8
0
100
AcDbLine
 62
7
  6
CONTINUOUS
 10
17.1561557106
 20
6.9935212902
 11
17.1561557106
 21
6.9318116163
  0
LINE
  5
275
100
AcDbEntity
  8
0
100
AcDbLine
 62
7
  6
CONTINUOUS
 10
17.1561557106
 20
6.7326664533
 11
17.1561557106
 21
6.4576664533
  0
LINE
  5
276
100
AcDbEntity
  8
0
100
AcDbLine
 62
7
  6
CONTINUOUS
 10
17.9711557106
 20
7.3026664533
 11
17.9711557106
 21
7.1918116163
  0
LINE
  5
277
100
AcDbEntity
  8
0
100
AcDbLine
 62
7
  6
CONTINUOUS
 10
17.9711557106
 20
6.9935212902
 11
17.9711557106
 21
6.9318116163
  0
LINE
  5
278
100
AcDbEntity
  8
0
100
AcDbLine
 62
7
  6
CONTINUOUS
 10
17.9711557106
 20
6.7326664533
 11
17.9711557106
 21
6.4576664533
  0
LINE
  5
279
100
AcDbEntity
  8
0
100
AcDbLine
 62
7
  6
CONTINUOUS
 10
18.0036557106
 20
6.2576664533
 11
18.0036557106
 21
6.4576664533
  0
LINE
  5
27A
100
AcDbEntity
  8
0
100
AcDbLine
 62
9
  6
CONTINUOUS
 10
18.0238660558
 20
7.5976664533
 11
18.0238660558
 21
7.3226664533
  0
LINE
  5
27B
100
AcDbEntity
  8
0
100
AcDbLine
 62
9
  6
CONTINUOUS
 10
18.0846324469
 20
7.5976664533
 11
18.0846324469
 21
7.3226664533
  0
LINE
  5
27C
100
AcDbEntity
  8
0
100
AcDbLine
 62
7
  6
CONTINUOUS
 10
18.1336557106
 20
6.7926664533
 11
18.1336557106
 21
6.8726664533
  0
LINE
  5
27D
100
AcDbEntity
  8
0
100
AcDbLine
 62
7
  6
CONTINUOUS
 10
18.1336557106
 20
7.0526664533
 11
18.1336557106
 21
7.1326664533
  0
LINE
  5
27E
100
AcDbEntity
  8
0
100
AcDbLine
 62
7
  6
CONTINUOUS
 10
18.6486557106
 20
4.9076664533
 11
18.6486557106
 21
6.2576664533
  0
LINE
  5
27F
100
AcDbEntity
  8
0
100
AcDbLine
 62
9
  6
CONTINUOUS
 10
20.5767778437
 20
7.5976664533
 11
20.5767778437
 21
7.3226664533
  0
LINE
  5
280
100
AcDbEntity
  8
0
100
AcDbLine
 62
9
  6
CONTINUOUS
 10
20.650314238
 20
7.5976664533
 11
20.650314238
 21
7.3226664533
  0
LINE
  5
281
100
AcDbEntity
  8
0
100
AcDbLine
 62
7
  6
CONTINUOUS
 10
21.2436557106
 20
7.3226664533
 11
21.2436557106
 21
7.5976664533
  0
LINE
  5
282
100
AcDbEntity
  8
0
100
AcDbLine
 62
9
  6
CONTINUOUS
 10
21.4859941836
 20
7.5976664533
 11
21.4859941836
 21
7.3226664533
  0
LINE
  5
283
100
AcDbEntity
  8
0
100
AcDbLine
 62
9
  6
CONTINUOUS
 10
21.5637754367
 20
7.5976664533
 11
21.5637754367
 21
7.3226664533
  0
LINE
  5
284
100
AcDbEntity
  8
0
100
AcDbLine
 62
7
  6
CONTINUOUS
 10
22.2836557106
 20
7.3226664533
 11
22.2836557106
 21
7.5976664533
  0
LINE
  5
285
100
AcDbEntity
  8
0
100
AcDbLine
 62
7
  6
CONTINUOUS
 10
28.5979715974
 20
6.8846664533
 11
28.5979715974
 21
7.1966664533
  0
LINE
  5
286
100
AcDbEntity
  8
0
100
AcDbLine
 62
7
  6
CONTINUOUS
 10
28.8479715974
 20
6.2476664533
 11
28.8479715974
 21
7.0676664533
  0
LINE
  5
287
100
AcDbEntity
  8
0
100
AcDbLine
 62
7
  6
CONTINUOUS
 10
34.0079715974
 20
4.9076664533
 11
36.1779715974
 21
4.9076664533
  0
LINE
  5
288
100
AcDbEntity
  8
0
100
AcDbLine
 62
7
  6
CONTINUOUS
 10
29.2479715974
 20
6.0476664533
 11
30.2479715974
 21
6.0476664533
  0
LINE
  5
289
100
AcDbEntity
  8
0
100
AcDbLine
 62
7
  6
CONTINUOUS
 10
34.0079715974
 20
6.2476664533
 11
28.8479715974
 21
6.2476664533
  0
LINE
  5
28A
100
AcDbEntity
  8
0
100
AcDbLine
 62
7
  6
CONTINUOUS
 10
34.0079715974
 20
6.2576664533
 11
36.1779715974
 21
6.2576664533
  0
LINE
  5
28B
100
AcDbEntity
  8
0
100
AcDbLine
 62
7
  6
CONTINUOUS
 10
35.5329715974
 20
6.4576664533
 11
34.6529715974
 21
6.4576664533
  0
LINE
  5
28C
100
AcDbEntity
  8
0
100
AcDbLine
 62
7
  6
CONTINUOUS
 10
34.6854715974
 20
6.7326664533
 11
35.5004715974
 21
6.7326664533
  0
LINE
  5
28D
100
AcDbEntity
  8
0
100
AcDbLine
 62
7
  6
CONTINUOUS
 10
34.5229715974
 20
6.7926664533
 11
35.6629715974
 21
6.7926664533
  0
LINE
  5
28E
100
AcDbEntity
  8
0
100
AcDbLine
 62
7
  6
CONTINUOUS
 10
35.6629715974
 20
6.8726664533
 11
34.5229715974
 21
6.8726664533
  0
LINE
  5
28F
100
AcDbEntity
  8
0
100
AcDbLine
 62
7
  6
CONTINUOUS
 10
28.5979715974
 20
6.8846664533
 11
28.8479715974
 21
6.8846664533
  0
LINE
  5
290
100
AcDbEntity
  8
0
100
AcDbLine
 62
7
  6
CONTINUOUS
 10
35.5004715974
 20
6.9318116163
 11
34.6854715974
 21
6.9318116163
  0
LINE
  5
291
100
AcDbEntity
  8
0
100
AcDbLine
 62
7
  6
CONTINUOUS
 10
35.5004715974
 20
6.9935212902
 11
34.6854715974
 21
6.9935212902
  0
LINE
  5
292
100
AcDbEntity
  8
0
100
AcDbLine
 62
7
  6
CONTINUOUS
 10
34.6854715974
 20
7.1918116163
 11
34.5229715974
 21
7.1326664533
  0
LINE
  5
293
100
AcDbEntity
  8
0
100
AcDbLine
 62
7
  6
CONTINUOUS
 10
34.6854715974
 20
6.9318116163
 11
34.5229715974
 21
6.8726664533
  0
LINE
  5
294
100
AcDbEntity
  8
0
100
AcDbLine
 62
7
  6
CONTINUOUS
 10
34.5229715974
 20
7.0526664533
 11
35.6629715974
 21
7.0526664533
  0
LINE
  5
295
100
AcDbEntity
  8
0
100
AcDbLine
 62
7
  6
CONTINUOUS
 10
28.8479715974
 20
7.0676664533
 11
34.5229715974
 21
7.0676664533
  0
LINE
  5
296
100
AcDbEntity
  8
0
100
AcDbLine
 62
7
  6
CONTINUOUS
 10
35.6629715974
 20
7.0676664533
 11
35.8479715974
 21
7.0676664533
  0
LINE
  5
297
100
AcDbEntity
  8
0
100
AcDbLine
 62
7
  6
CONTINUOUS
 10
35.6629715974
 20
7.1326664533
 11
34.5229715974
 21
7.1326664533
  0
LINE
  5
298
100
AcDbEntity
  8
0
100
AcDbLine
 62
7
  6
CONTINUOUS
 10
35.5004715974
 20
7.1918116163
 11
34.6854715974
 21
7.1918116163
  0
LINE
  5
299
100
AcDbEntity
  8
0
100
AcDbLine
 62
7
  6
CONTINUOUS
 10
28.5979715974
 20
7.1966664533
 11
33.8479715974
 21
7.1966664533
  0
LINE
  5
29A
100
AcDbEntity
  8
0
100
AcDbLine
 62
7
  6
CONTINUOUS
 10
34.3873302435
 20
7.3026664533
 11
35.7879140256
 21
7.3026664533
  0
LINE
  5
29B
100
AcDbEntity
  8
0
100
AcDbLine
 62
7
  6
CONTINUOUS
 10
35.6629715974
 20
7.0526664533
 11
35.5004715974
 21
6.9935212902
  0
LINE
  5
29C
100
AcDbEntity
  8
0
100
AcDbLine
 62
9
  6
CONTINUOUS
 10
35.8079715972
 20
7.3226664533
 11
34.3672546037
 21
7.3226664533
  0
LINE
  5
29D
100
AcDbEntity
  8
0
100
AcDbLine
 62
7
  6
CONTINUOUS
 10
34.0979715974
 20
7.4076664533
 11
34.3672545719
 21
7.4076664533
  0
LINE
  5
29E
100
AcDbEntity
  8
0
100
AcDbLine
 62
7
  6
CONTINUOUS
 10
35.8079715974
 20
7.4076664533
 11
36.0979715974
 21
7.4076664533
  0
LINE
  5
29F
100
AcDbEntity
  8
0
100
AcDbLine
 62
7
  6
CONTINUOUS
 10
34.5229715974
 20
6.7926664533
 11
34.6854715974
 21
6.7326664533
  0
LINE
  5
2A0
100
AcDbEntity
  8
0
100
AcDbLine
 62
7
  6
CONTINUOUS
 10
35.6629715974
 20
6.7926664533
 11
35.5004715974
 21
6.7326664533
  0
LINE
  5
2A1
100
AcDbEntity
  8
0
100
AcDbLine
 62
9
  6
CONTINUOUS
 10
34.3597545719
 20
7.5976664533
 11
35.8079715974
 21
7.5976664533
  0
LINE
  5
2A2
100
AcDbEntity
  8
0
100
AcDbLine
 62
9
  6
CONTINUOUS
 10
35.809639073
 20
7.5976664533
 11
35.8129715974
 21
7.5976664533
  0
LINE
  5
2A3
100
AcDbEntity
  8
0
100
AcDbLine
 62
7
  6
CONTINUOUS
 10
34.957263115
 20
7.6176664533
 11
34.379841666
 21
7.6176664533
  0
LINE
  5
2A4
100
AcDbEntity
  8
0
100
AcDbLine
 62
7
  6
CONTINUOUS
 10
34.9661064203
 20
7.6176664533
 11
35.7929139837
 21
7.6176664533
  0
LINE
  5
2A5
100
AcDbEntity
  8
0
100
AcDbLine
 62
7
  6
CONTINUOUS
 10
34.5229715974
 20
7.0526664533
 11
34.6854715974
 21
6.9935212902
  0
LINE
  5
2A6
100
AcDbEntity
  8
0
100
AcDbLine
 62
7
  6
CONTINUOUS
 10
34.7179715974
 20
7.8726664533
 11
34.9479715974
 21
7.8726664533
  0
LINE
  5
2A7
100
AcDbEntity
  8
0
100
AcDbLine
 62
7
  6
CONTINUOUS
 10
35.2379715974
 20
7.8726664533
 11
35.4679715974
 21
7.8726664533
  0
LINE
  5
2A8
100
AcDbEntity
  8
0
100
AcDbLine
 62
7
  6
CONTINUOUS
 10
34.5847393671
 20
7.8826664533
 11
35.6012038278
 21
7.8826664533
  0
LINE
  5
2A9
100
AcDbEntity
  8
0
100
AcDbLine
 62
7
  6
CONTINUOUS
 10
35.5004715974
 20
6.9318116163
 11
35.6629715974
 21
6.8726664533
  0
LINE
  5
2AA
100
AcDbEntity
  8
0
100
AcDbLine
 62
7
  6
CONTINUOUS
 10
33.8479715974
 20
7.0676664533
 11
33.8479715974
 21
7.1966664533
  0
LINE
  5
2AB
100
AcDbEntity
  8
0
100
AcDbLine
 62
7
  6
CONTINUOUS
 10
34.0079715974
 20
4.9076664533
 11
34.0079715974
 21
6.2576664533
  0
LINE
  5
2AC
100
AcDbEntity
  8
0
100
AcDbLine
 62
7
  6
CONTINUOUS
 10
34.0979715974
 20
7.4076664533
 11
34.0979715974
 21
7.0676664533
  0
LINE
  5
2AD
100
AcDbEntity
  8
0
100
AcDbLine
 62
7
  6
CONTINUOUS
 10
35.5004715974
 20
7.1918116163
 11
35.6629715974
 21
7.1326664533
  0
LINE
  5
2AE
100
AcDbEntity
  8
0
100
AcDbLine
 62
7
  6
CONTINUOUS
 10
34.3597545719
 20
7.4076664533
 11
34.3597545719
 21
7.5976664533
  0
LINE
  5
2AF
100
AcDbEntity
  8
0
100
AcDbLine
 62
7
  6
CONTINUOUS
 10
34.3672545719
 20
7.3226664533
 11
34.3672545719
 21
7.5976664533
  0
LINE
  5
2B0
100
AcDbEntity
  8
0
100
AcDbLine
 62
7
  6
CONTINUOUS
 10
35.6012038278
 20
8.5076664533
 11
34.5847393671
 21
8.5076664533
  0
LINE
  5
2B1
100
AcDbEntity
  8
0
100
AcDbLine
 62
7
  6
CONTINUOUS
 10
34.5229715974
 20
7.1326664533
 11
34.5229715974
 21
7.0526664533
  0
LINE
  5
2B2
100
AcDbEntity
  8
0
100
AcDbLine
 62
7
  6
CONTINUOUS
 10
34.5229715974
 20
6.8726664533
 11
34.5229715974
 21
6.7926664533
  0
LINE
  5
2B3
100
AcDbEntity
  8
0
100
AcDbLine
 62
7
  6
CONTINUOUS
 10
34.5847393671
 20
7.8826664533
 11
34.5847393671
 21
8.5076664533
  0
LINE
  5
2B4
100
AcDbEntity
  8
0
100
AcDbLine
 62
7
  6
CONTINUOUS
 10
34.6529715974
 20
6.4576664533
 11
34.6529715974
 21
6.2576664533
  0
LINE
  5
2B5
100
AcDbEntity
  8
0
100
AcDbLine
 62
7
  6
CONTINUOUS
 10
34.6854715974
 20
7.3026664533
 11
34.6854715974
 21
7.1918116163
  0
LINE
  5
2B6
100
AcDbEntity
  8
0
100
AcDbLine
 62
7
  6
CONTINUOUS
 10
34.6854715974
 20
6.9935212902
 11
34.6854715974
 21
6.9318116163
  0
LINE
  5
2B7
100
AcDbEntity
  8
0
100
AcDbLine
 62
7
  6
CONTINUOUS
 10
34.6854715974
 20
6.7326664533
 11
34.6854715974
 21
6.4576664533
  0
LINE
  5
2B8
100
AcDbEntity
  8
0
100
AcDbLine
 62
7
  6
CONTINUOUS
 10
34.7179715974
 20
7.8726664533
 11
34.7179715974
 21
7.8826664533
  0
LINE
  5
2B9
100
AcDbEntity
  8
0
100
AcDbLine
 62
7
  6
CONTINUOUS
 10
34.9479715974
 20
7.8726664533
 11
34.9479715974
 21
7.8826664533
  0
LINE
  5
2BA
100
AcDbEntity
  8
0
100
AcDbLine
 62
7
  6
CONTINUOUS
 10
34.9739715974
 20
7.8826664533
 11
34.9739715974
 21
7.6176664533
  0
LINE
  5
2BB
100
AcDbEntity
  8
0
100
AcDbLine
 62
7
  6
CONTINUOUS
 10
34.9772545719
 20
7.3226664533
 11
34.9772545719
 21
7.5976664533
  0
LINE
  5
2BC
100
AcDbEntity
  8
0
100
AcDbLine
 62
7
  6
CONTINUOUS
 10
35.0679715974
 20
7.3226664533
 11
35.0679715974
 21
7.5976664533
  0
LINE
  5
2BD
100
AcDbEntity
  8
0
100
AcDbLine
 62
7
  6
CONTINUOUS
 10
35.2119715974
 20
7.6176664533
 11
35.2119715974
 21
7.8826664533
  0
LINE
  5
2BE
100
AcDbEntity
  8
0
100
AcDbLine
 62
7
  6
CONTINUOUS
 10
35.2379715974
 20
7.8726664533
 11
35.2379715974
 21
7.8826664533
  0
LINE
  5
2BF
100
AcDbEntity
  8
0
100
AcDbLine
 62
7
  6
CONTINUOUS
 10
35.4679715974
 20
7.8826664533
 11
35.4679715974
 21
7.8726664533
  0
LINE
  5
2C0
100
AcDbEntity
  8
0
100
AcDbLine
 62
7
  6
CONTINUOUS
 10
35.5004715974
 20
7.3026664533
 11
35.5004715974
 21
7.1918116163
  0
LINE
  5
2C1
100
AcDbEntity
  8
0
100
AcDbLine
 62
7
  6
CONTINUOUS
 10
35.5004715974
 20
6.9935212902
 11
35.5004715974
 21
6.9318116163
  0
LINE
  5
2C2
100
AcDbEntity
  8
0
100
AcDbLine
 62
7
  6
CONTINUOUS
 10
35.5004715974
 20
6.7326664533
 11
35.5004715974
 21
6.7056664533
  0
LINE
  5
2C3
100
AcDbEntity
  8
0
100
AcDbLine
 62
7
  6
CONTINUOUS
 10
35.5004715974
 20
6.5496664533
 11
35.5004715974
 21
6.4576664533
  0
LINE
  5
2C4
100
AcDbEntity
  8
0
100
AcDbLine
 62
7
  6
CONTINUOUS
 10
35.5329715974
 20
6.2576664533
 11
35.5329715974
 21
6.4576664533
  0
LINE
  5
2C5
100
AcDbEntity
  8
0
100
AcDbLine
 62
7
  6
CONTINUOUS
 10
35.6012038278
 20
8.5076664533
 11
35.6012038278
 21
7.8826664533
  0
LINE
  5
2C6
100
AcDbEntity
  8
0
100
AcDbLine
 62
7
  6
CONTINUOUS
 10
35.6629715974
 20
6.7926664533
 11
35.6629715974
 21
6.8726664533
  0
LINE
  5
2C7
100
AcDbEntity
  8
0
100
AcDbLine
 62
7
  6
CONTINUOUS
 10
35.6629715974
 20
7.0526664533
 11
35.6629715974
 21
7.1326664533
  0
LINE
  5
2C8
100
AcDbEntity
  8
0
100
AcDbLine
 62
7
  6
CONTINUOUS
 10
35.8079715974
 20
7.3226664533
 11
35.8079715974
 21
7.5976664533
  0
LINE
  5
2C9
100
AcDbEntity
  8
0
100
AcDbLine
 62
7
  6
CONTINUOUS
 10
35.8129715974
 20
7.4076664533
 11
35.8129715974
 21
7.5976664533
  0
LINE
  5
2CA
100
AcDbEntity
  8
0
100
AcDbLine
 62
7
  6
CONTINUOUS
 10
35.8479715974
 20
7.0676664533
 11
35.8479715974
 21
6.2576664533
  0
LINE
  5
2CB
100
AcDbEntity
  8
0
100
AcDbLine
 62
7
  6
CONTINUOUS
 10
36.0979715974
 20
7.4076664533
 11
36.0979715974
 21
6.2576664533
  0
LINE
  5
2CC
100
AcDbEntity
  8
0
100
AcDbLine
 62
7
  6
CONTINUOUS
 10
36.1779715974
 20
4.9076664533
 11
36.1779715974
 21
6.2576664533
  0
LINE
  5
2CD
100
AcDbEntity
  8
0
100
AcDbLine
 62
9
  6
CONTINUOUS
 10
5.6481669303
 20
21.5204905024
 11
5.6481669303
 21
21.5004905024
  0
LINE
  5
2CE
100
AcDbEntity
  8
0
100
AcDbLine
 62
9
  6
CONTINUOUS
 10
5.646553883
 20
21.3989525703
 11
5.6470867489
 21
21.4189454704
  0
LINE
  5
2CF
100
AcDbEntity
  8
0
100
AcDbLine
 62
9
  6
CONTINUOUS
 10
6.5585284698
 20
20.654458936
 11
6.5580049308
 21
20.6744520825
  0
LINE
  5
2D0
100
AcDbEntity
  8
0
100
AcDbLine
 62
9
  6
CONTINUOUS
 10
6.5543097739
 20
20.7578709117
 11
6.553046763
 21
20.7778309919
  0
LINE
  5
2D1
100
AcDbEntity
  8
0
100
AcDbLine
 62
7
  6
CONTINUOUS
 10
8.4786557106
 20
22.2054905024
 11
8.4786557106
 21
21.5204905024
  0
LINE
  5
2D2
100
AcDbEntity
  8
0
100
AcDbLine
 62
7
  6
CONTINUOUS
 10
8.4786557106
 20
21.3234692334
 11
8.4786557106
 21
20.8996774447
  0
LINE
  5
2D3
100
AcDbEntity
  8
0
100
AcDbLine
 62
7
  6
CONTINUOUS
 10
8.4786557106
 20
20.7047392373
 11
8.4786557106
 21
20.0354905024
  0
LINE
  5
2D4
100
AcDbEntity
  8
0
100
AcDbLine
 62
9
  6
CONTINUOUS
 10
6.4564433798
 20
20.8174425649
 11
6.4747536477
 21
20.8254883145
  0
LINE
  5
2D5
100
AcDbEntity
  8
0
100
AcDbLine
 62
9
  6
CONTINUOUS
 10
5.5717693532
 20
21.5767542387
 11
5.5526698662
 21
21.5708201439
  0
LINE
  5
2D6
100
AcDbEntity
  8
0
100
AcDbLine
 62
9
  6
CONTINUOUS
 10
8.7499788302
 20
20.8968059153
 11
8.7487158193
 21
20.9167659955
  0
LINE
  5
2D7
100
AcDbEntity
  8
0
100
AcDbLine
 62
9
  6
CONTINUOUS
 10
9.0426789743
 20
20.7195087063
 11
9.0421554354
 21
20.7395018528
  0
LINE
  5
2D8
100
AcDbEntity
  8
0
100
AcDbLine
 62
9
  6
CONTINUOUS
 10
9.0438901385
 20
21.5204905024
 11
9.0438901385
 21
21.5004905024
  0
LINE
  5
2D9
100
AcDbEntity
  8
0
100
AcDbLine
 62
9
  6
CONTINUOUS
 10
8.7419441254
 20
21.3364589722
 11
8.7414112593
 21
21.3164660722
  0
LINE
  5
2DA
100
AcDbEntity
  8
0
100
AcDbLine
 62
9
  6
CONTINUOUS
 10
9.1034453654
 20
20.6939196547
 11
9.118113428
 21
20.7075155417
  0
LINE
  5
2DB
100
AcDbEntity
  8
0
100
AcDbLine
 62
7
  6
CONTINUOUS
 10
12.6886557106
 20
14.6254905024
 11
14.4386557106
 21
14.6254905024
  0
LINE
  5
2DC
100
AcDbEntity
  8
0
100
AcDbLine
 62
7
  6
CONTINUOUS
 10
14.8136557106
 20
14.8754905024
 11
14.4386557106
 21
14.8754905024
  0
LINE
  5
2DD
100
AcDbEntity
  8
0
100
AcDbLine
 62
7
  6
CONTINUOUS
 10
12.6886557106
 20
14.8754905024
 11
12.3136557106
 21
14.8754905024
  0
LINE
  5
2DE
100
AcDbEntity
  8
0
100
AcDbLine
 62
7
  6
CONTINUOUS
 10
10.6486557106
 20
20.0354905024
 11
10.6486557106
 21
22.2054905024
  0
LINE
  5
2DF
100
AcDbEntity
  8
0
100
AcDbLine
 62
7
  6
CONTINUOUS
 10
12.3136557106
 20
14.8754905024
 11
12.3136557106
 21
21.8754905024
  0
LINE
  5
2E0
100
AcDbEntity
  8
0
100
AcDbLine
 62
7
  6
CONTINUOUS
 10
13.7686557106
 20
21.5462031403
 11
13.8161557106
 21
21.6287227328
  0
LINE
  5
2E1
100
AcDbEntity
  8
0
100
AcDbLine
 62
7
  6
CONTINUOUS
 10
13.3586557106
 20
20.6947778646
 11
13.3111557106
 21
20.612258272
  0
LINE
  5
2E2
100
AcDbEntity
  8
0
100
AcDbLine
 62
7
  6
CONTINUOUS
 10
12.4986557106
 20
21.8754905024
 11
12.4986557106
 21
14.8754905024
  0
LINE
  5
2E3
100
AcDbEntity
  8
0
100
AcDbLine
 62
7
  6
CONTINUOUS
 10
12.6886557106
 20
19.8754905024
 11
12.6886557106
 21
14.6254905024
  0
LINE
  5
2E4
100
AcDbEntity
  8
0
100
AcDbLine
 62
7
  6
CONTINUOUS
 10
12.6936557106
 20
22.1254905024
 11
12.6936557106
 21
20.1254905024
  0
LINE
  5
2E5
100
AcDbEntity
  8
0
100
AcDbLine
 62
9
  6
CONTINUOUS
 10
9.1026622173
 20
21.5462148841
 11
9.1173551974
 21
21.532646016
  0
LINE
  5
2E6
100
AcDbEntity
  8
0
100
AcDbLine
 62
9
  6
CONTINUOUS
 10
21.5637754367
 20
21.3451418675
 11
21.5826879766
 21
21.351647231
  0
LINE
  5
2E7
100
AcDbEntity
  8
0
100
AcDbLine
 62
9
  6
CONTINUOUS
 10
6.484807713
 20
20.6000225797
 11
6.4658546158
 21
20.6064064246
  0
LINE
  5
2E8
100
AcDbEntity
  8
0
100
AcDbLine
 62
9
  6
CONTINUOUS
 10
20.650314238
 20
20.6003541871
 11
20.6692219951
 21
20.6068735261
  0
LINE
  5
2E9
100
AcDbEntity
  8
0
100
AcDbLine
 62
9
  6
CONTINUOUS
 10
5.5497483251
 20
21.3511808985
 11
5.5686832174
 21
21.3447408878
  0
LINE
  5
2EA
100
AcDbEntity
  8
0
100
AcDbLine
 62
7
  6
CONTINUOUS
 10
14.4336557106
 20
20.1254905024
 11
14.4336557106
 21
22.1254905024
  0
LINE
  5
2EB
100
AcDbEntity
  8
0
100
AcDbLine
 62
7
  6
CONTINUOUS
 10
14.4386557106
 20
14.6254905024
 11
14.4386557106
 21
19.8754905024
  0
LINE
  5
2EC
100
AcDbEntity
  8
0
100
AcDbLine
 62
7
  6
CONTINUOUS
 10
14.6286557106
 20
14.8754905024
 11
14.6286557106
 21
21.8754905024
  0
LINE
  5
2ED
100
AcDbEntity
  8
0
100
AcDbLine
 62
7
  6
CONTINUOUS
 10
14.8136557106
 20
14.8754905024
 11
14.8136557106
 21
21.8754905024
  0
LINE
  5
2EE
100
AcDbEntity
  8
0
100
AcDbLine
 62
9
  6
CONTINUOUS
 10
18.024649204
 20
21.5462148841
 11
18.0099561806
 21
21.532645976
  0
LINE
  5
2EF
100
AcDbEntity
  8
0
100
AcDbLine
 62
7
  6
CONTINUOUS
 10
13.8161557106
 20
20.612258272
 11
13.7686557106
 21
20.6947778646
  0
LINE
  5
2F0
100
AcDbEntity
  8
0
100
AcDbLine
 62
7
  6
CONTINUOUS
 10
14.4386557106
 20
19.8754905024
 11
12.6886557106
 21
19.8754905024
  0
LINE
  5
2F1
100
AcDbEntity
  8
0
100
AcDbLine
 62
7
  6
CONTINUOUS
 10
8.4786557106
 20
20.0354905024
 11
10.6486557106
 21
20.0354905024
  0
LINE
  5
2F2
100
AcDbEntity
  8
0
100
AcDbLine
 62
7
  6
CONTINUOUS
 10
16.4786557106
 20
20.0354905024
 11
18.6486557106
 21
20.0354905024
  0
LINE
  5
2F3
100
AcDbEntity
  8
0
100
AcDbLine
 62
7
  6
CONTINUOUS
 10
12.6936557106
 20
20.1254905024
 11
14.4336557106
 21
20.1254905024
  0
LINE
  5
2F4
100
AcDbEntity
  8
0
100
AcDbLine
 62
7
  6
CONTINUOUS
 10
13.3111557106
 20
21.6287227328
 11
13.3586557106
 21
21.5462031403
  0
LINE
  5
2F5
100
AcDbEntity
  8
0
100
AcDbLine
 62
7
  6
CONTINUOUS
 10
6.5585284698
 20
20.654458936
 11
9.0426789743
 21
20.7195087063
  0
LINE
  5
2F6
100
AcDbEntity
  8
0
100
AcDbLine
 62
9
  6
CONTINUOUS
 10
9.0421554365
 20
20.7395018088
 11
6.5580049308
 21
20.6744520825
  0
LINE
  5
2F7
100
AcDbEntity
  8
0
100
AcDbLine
 62
7
  6
CONTINUOUS
 10
13.1697090137
 20
20.9819905024
 11
13.2151693407
 21
20.9819905024
  0
LINE
  5
2F8
100
AcDbEntity
  8
0
100
AcDbLine
 62
7
  6
CONTINUOUS
 10
13.9121420805
 20
20.9819905024
 11
13.9576024075
 21
20.9819905024
  0
LINE
  5
2F9
100
AcDbEntity
  8
0
100
AcDbLine
 62
7
  6
CONTINUOUS
 10
18.0846324469
 20
20.7195087063
 11
20.5767778437
 21
20.6542495824
  0
LINE
  5
2FA
100
AcDbEntity
  8
0
100
AcDbLine
 62
9
  6
CONTINUOUS
 10
20.5773013655
 20
20.6742420739
 11
18.0851559859
 21
20.7395018528
  0
LINE
  5
2FB
100
AcDbEntity
  8
0
100
AcDbLine
 62
7
  6
CONTINUOUS
 10
16.4786557106
 20
22.2054905024
 11
16.4786557106
 21
20.0354905024
  0
LINE
  5
2FC
100
AcDbEntity
  8
0
100
AcDbLine
 62
9
  6
CONTINUOUS
 10
6.5543097315
 20
20.7578715805
 11
8.7499788302
 21
20.8968059153
  0
LINE
  5
2FD
100
AcDbEntity
  8
0
100
AcDbLine
 62
7
  6
CONTINUOUS
 10
8.7487158193
 20
20.9167659955
 11
6.5530467631
 21
20.7778309919
  0
LINE
  5
2FE
100
AcDbEntity
  8
0
100
AcDbLine
 62
7
  6
CONTINUOUS
 10
18.385900162
 20
21.3164660722
 11
21.4859941836
 21
21.3990921414
  0
LINE
  5
2FF
100
AcDbEntity
  8
0
100
AcDbLine
 62
9
  6
CONTINUOUS
 10
21.485461338
 20
21.4190842785
 11
18.3853672959
 21
21.3364589722
  0
LINE
  5
300
100
AcDbEntity
  8
0
100
AcDbLine
 62
7
  6
CONTINUOUS
 10
13.1697090137
 20
21.2589905024
 11
13.2151693407
 21
21.2589905024
  0
LINE
  5
301
100
AcDbEntity
  8
0
100
AcDbLine
 62
7
  6
CONTINUOUS
 10
13.9121420805
 20
21.2589905024
 11
13.9576024075
 21
21.2589905024
  0
LINE
  5
302
100
AcDbEntity
  8
0
100
AcDbLine
 62
9
  6
CONTINUOUS
 10
9.0438901385
 20
21.5004905024
 11
5.6481669303
 21
21.5004912736
  0
LINE
  5
303
100
AcDbEntity
  8
0
100
AcDbLine
 62
9
  6
CONTINUOUS
 10
18.0834212828
 20
21.5004905544
 11
21.48438307
 21
21.5004905025
  0
LINE
  5
304
100
AcDbEntity
  8
0
100
AcDbLine
 62
7
  6
CONTINUOUS
 10
9.0438901385
 20
21.5204905024
 11
5.6481669304
 21
21.5204905024
  0
LINE
  5
305
100
AcDbEntity
  8
0
100
AcDbLine
 62
7
  6
CONTINUOUS
 10
18.0834212828
 20
21.5204905024
 11
21.48438307
 21
21.5204905024
  0
LINE
  5
306
100
AcDbEntity
  8
0
100
AcDbLine
 62
7
  6
CONTINUOUS
 10
5.646553883
 20
21.3989525703
 11
8.7414112592
 21
21.3164660722
  0
LINE
  5
307
100
AcDbEntity
  8
0
100
AcDbLine
 62
9
  6
CONTINUOUS
 10
8.7419441204
 20
21.336458787
 11
5.6470867489
 21
21.4189454704
  0
LINE
  5
308
100
AcDbEntity
  8
0
100
AcDbLine
 62
9
  6
CONTINUOUS
 10
18.3773326027
 20
20.8968060996
 11
20.5809825802
 21
20.7573659035
  0
LINE
  5
309
100
AcDbEntity
  8
0
100
AcDbLine
 62
7
  6
CONTINUOUS
 10
20.582245591
 20
20.7773259837
 11
18.378595602
 21
20.9167659955
  0
LINE
  5
30A
100
AcDbEntity
  8
0
100
AcDbLine
 62
7
  6
CONTINUOUS
 10
12.3136557106
 20
21.8754905024
 11
12.6936557106
 21
21.8754905024
  0
LINE
  5
30B
100
AcDbEntity
  8
0
100
AcDbLine
 62
7
  6
CONTINUOUS
 10
14.4336557106
 20
21.8754905024
 11
14.8136557106
 21
21.8754905024
  0
LINE
  5
30C
100
AcDbEntity
  8
0
100
AcDbLine
 62
7
  6
CONTINUOUS
 10
14.4336557106
 20
22.1254905024
 11
12.6936557106
 21
22.1254905024
  0
LINE
  5
30D
100
AcDbEntity
  8
0
100
AcDbLine
 62
7
  6
CONTINUOUS
 10
18.6486557106
 20
22.2054905024
 11
16.4786557106
 21
22.2054905024
  0
LINE
  5
30E
100
AcDbEntity
  8
0
100
AcDbLine
 62
7
  6
CONTINUOUS
 10
10.6486557106
 20
22.2054905024
 11
8.4786557106
 21
22.2054905024
  0
LINE
  5
30F
100
AcDbEntity
  8
0
100
AcDbLine
 62
9
  6
CONTINUOUS
 10
18.0834212828
 20
21.5204905024
 11
18.0834212828
 21
21.5004905024
  0
LINE
  5
310
100
AcDbEntity
  8
0
100
AcDbLine
 62
9
  6
CONTINUOUS
 10
18.0846324469
 20
20.7195087063
 11
18.0851559859
 21
20.7395018528
  0
LINE
  5
311
100
AcDbEntity
  8
0
100
AcDbLine
 62
9
  6
CONTINUOUS
 10
18.385900162
 20
21.3164660722
 11
18.3853672959
 21
21.3364589722
  0
LINE
  5
312
100
AcDbEntity
  8
0
100
AcDbLine
 62
7
  6
CONTINUOUS
 10
18.6486557106
 20
20.0354905024
 11
18.6486557106
 21
20.7047392373
  0
LINE
  5
313
100
AcDbEntity
  8
0
100
AcDbLine
 62
7
  6
CONTINUOUS
 10
18.6486557106
 20
20.8996774447
 11
18.6486557106
 21
21.3234692334
  0
LINE
  5
314
100
AcDbEntity
  8
0
100
AcDbLine
 62
7
  6
CONTINUOUS
 10
18.6486557106
 20
21.5204905024
 11
18.6486557106
 21
22.2054905024
  0
LINE
  5
315
100
AcDbEntity
  8
0
100
AcDbLine
 62
9
  6
CONTINUOUS
 10
18.3785956019
 20
20.9167659955
 11
18.3773325911
 21
20.8968059153
  0
LINE
  5
316
100
AcDbEntity
  8
0
100
AcDbLine
 62
9
  6
CONTINUOUS
 10
20.6603071048
 20
20.8244613015
 11
20.6785588767
 21
20.8162853176
  0
LINE
  5
317
100
AcDbEntity
  8
0
100
AcDbLine
 62
9
  6
CONTINUOUS
 10
18.0238660558
 20
20.6939196547
 11
18.0091980291
 21
20.7075155085
  0
LINE
  5
318
100
AcDbEntity
  8
0
100
AcDbLine
 62
9
  6
CONTINUOUS
 10
21.5606982061
 20
21.5764905024
 11
21.5797762675
 21
21.5704907297
  0
LINE
  5
319
100
AcDbEntity
  8
0
100
AcDbLine
 62
9
  6
CONTINUOUS
 10
20.5767778437
 20
20.6542495824
 11
20.5773013827
 21
20.6742427289
  0
LINE
  5
31A
100
AcDbEntity
  8
0
100
AcDbLine
 62
9
  6
CONTINUOUS
 10
20.582245591
 20
20.7773259837
 11
20.5809825801
 21
20.7573659035
  0
LINE
  5
31B
100
AcDbEntity
  8
0
100
AcDbLine
 62
9
  6
CONTINUOUS
 10
21.4859941837
 20
21.3990921414
 11
21.4854613177
 21
21.4190850415
  0
LINE
  5
31C
100
AcDbEntity
  8
0
100
AcDbLine
 62
9
  6
CONTINUOUS
 10
21.48438307
 20
21.5004905024
 11
21.48438307
 21
21.5204905024
  0
LINE
  5
31D
100
AcDbEntity
  8
0
100
AcDbLine
 62
9
  6
CONTINUOUS
 10
23.5390292821
 20
16.3362805402
 11
23.5390297701
 21
16.3359312545
  0
LINE
  5
31E
100
AcDbEntity
  8
0
100
AcDbLine
 62
7
  6
CONTINUOUS
 10
23.5390292821
 20
16.1117439805
 11
23.5390292821
 21
16.3362805402
  0
LINE
  5
31F
100
AcDbEntity
  8
0
100
AcDbLine
 62
9
  6
CONTINUOUS
 10
24.2671839383
 20
16.405815891
 11
24.2671839383
 21
16.485846482
  0
LINE
  5
320
100
AcDbEntity
  8
0
100
AcDbLine
 62
7
  6
CONTINUOUS
 10
24.2890292821
 20
16.1117439805
 11
24.2890292821
 21
16.3362805402
  0
LINE
  5
321
100
AcDbEntity
  8
0
100
AcDbLine
 62
7
  6
CONTINUOUS
 10
24.8324020949
 20
16.197183397
 11
24.8324020949
 21
16.4217199568
  0
LINE
  5
322
100
AcDbEntity
  8
0
100
AcDbLine
 62
7
  6
CONTINUOUS
 10
25.6994739046
 20
15.7749391408
 11
27.2338956197
 21
14.8890403505
  0
LINE
  5
323
100
AcDbEntity
  8
0
100
AcDbLine
 62
9
  6
CONTINUOUS
 10
25.4384838503
 20
16.5542202945
 11
25.4384838503
 21
16.481091064
  0
LINE
  5
324
100
AcDbEntity
  8
0
100
AcDbLine
 62
7
  6
CONTINUOUS
 10
25.4574020949
 20
16.197183397
 11
25.4574020949
 21
16.4217199568
  0
LINE
  5
325
100
AcDbEntity
  8
0
100
AcDbLine
 62
7
  6
CONTINUOUS
 10
25.6994739046
 20
16.8772095251
 11
25.6994739046
 21
16.8395447439
  0
LINE
  5
326
100
AcDbEntity
  8
0
100
AcDbLine
 62
7
  6
CONTINUOUS
 10
25.6994739046
 20
16.4818342504
 11
25.6994739046
 21
15.7749391408
  0
LINE
  5
327
100
AcDbEntity
  8
0
100
AcDbLine
 62
7
  6
CONTINUOUS
 10
25.6994739046
 20
16.8772095251
 11
25.7300285563
 21
16.8595687887
  0
LINE
  5
328
100
AcDbEntity
  8
0
100
AcDbLine
 62
7
  6
CONTINUOUS
 10
26.0329127452
 20
16.6846985207
 11
27.2338956197
 21
15.9913107348
  0
LINE
  5
329
100
AcDbEntity
  8
0
100
AcDbLine
 62
9
  6
CONTINUOUS
 10
26.6063956197
 20
17.9713149435
 11
26.6069546041
 21
17.9550807167
  0
LINE
  5
32A
100
AcDbEntity
  8
0
100
AcDbLine
 62
9
  6
CONTINUOUS
 10
26.513905338
 20
17.7156417432
 11
26.5139053381
 21
17.4911051835
  0
LINE
  5
32B
100
AcDbEntity
  8
0
100
AcDbLine
 62
7
  6
CONTINUOUS
 10
26.6063956197
 20
17.9529141934
 11
26.6063956197
 21
17.9713149435
  0
LINE
  5
32C
100
AcDbEntity
  8
0
100
AcDbLine
 62
7
  6
CONTINUOUS
 10
26.7938956197
 20
16.8772095251
 11
26.7938956197
 21
17.0405088413
  0
LINE
  5
32D
100
AcDbEntity
  8
0
100
AcDbLine
 62
7
  6
CONTINUOUS
 10
26.8263956197
 20
17.0813336703
 11
26.8263956197
 21
17.0405088413
  0
LINE
  5
32E
100
AcDbEntity
  8
0
100
AcDbLine
 62
9
  6
CONTINUOUS
 10
27.1490463838
 20
17.5949269488
 11
27.1490463838
 21
17.370390389
  0
LINE
  5
32F
100
AcDbEntity
  8
0
100
AcDbLine
 62
9
  6
CONTINUOUS
 10
27.210108903
 20
17.6092880375
 11
27.210108903
 21
17.3847514777
  0
LINE
  5
330
100
AcDbEntity
  8
0
100
AcDbLine
 62
7
  6
CONTINUOUS
 10
27.2338956197
 20
14.8890403505
 11
27.2338956197
 21
15.9913107348
  0
LINE
  5
331
100
AcDbEntity
  8
0
100
AcDbLine
 62
7
  6
CONTINUOUS
 10
28.7683173349
 20
16.8772095251
 11
27.7901247272
 21
17.4419692905
  0
LINE
  5
332
100
AcDbEntity
  8
0
100
AcDbLine
 62
7
  6
CONTINUOUS
 10
27.6413956197
 20
17.0813336703
 11
27.6413956197
 21
17.0405088413
  0
LINE
  5
333
100
AcDbEntity
  8
0
100
AcDbLine
 62
7
  6
CONTINUOUS
 10
27.6738956197
 20
16.8772095251
 11
27.6738956197
 21
17.0405088413
  0
LINE
  5
334
100
AcDbEntity
  8
0
100
AcDbLine
 62
7
  6
CONTINUOUS
 10
27.8038956197
 20
17.3140351959
 11
27.8038956197
 21
17.3793549224
  0
LINE
  5
335
100
AcDbEntity
  8
0
100
AcDbLine
 62
7
  6
CONTINUOUS
 10
27.8038956197
 20
17.5263243069
 11
27.8038956197
 21
17.5916440334
  0
LINE
  5
336
100
AcDbEntity
  8
0
100
AcDbLine
 62
7
  6
CONTINUOUS
 10
27.8613956197
 20
17.7467783838
 11
27.8613956197
 21
17.9713149435
  0
LINE
  5
337
100
AcDbEntity
  8
0
100
AcDbLine
 62
9
  6
CONTINUOUS
 10
27.8613956187
 20
17.7467988385
 11
27.8613953225
 21
17.7464257805
  0
LINE
  5
338
100
AcDbEntity
  8
0
100
AcDbLine
 62
7
  6
CONTINUOUS
 10
28.7364975298
 20
17.4630458219
 11
30.1507110921
 21
16.646549241
  0
LINE
  5
339
100
AcDbEntity
  8
0
100
AcDbLine
 62
7
  6
CONTINUOUS
 10
28.6445736482
 20
18.9694820137
 11
28.6445736482
 21
18.2999548174
  0
LINE
  5
33A
100
AcDbEntity
  8
0
100
AcDbLine
 62
7
  6
CONTINUOUS
 10
28.7364975298
 20
17.4630458219
 11
28.7364975298
 21
18.2468825396
  0
LINE
  5
33B
100
AcDbEntity
  8
0
100
AcDbLine
 62
7
  6
CONTINUOUS
 10
28.7364975298
 20
19.0225542915
 11
28.7364975298
 21
19.5042872742
  0
LINE
  5
33C
100
AcDbEntity
  8
0
100
AcDbLine
 62
7
  6
CONTINUOUS
 10
28.7683173349
 20
15.7749391408
 11
28.7683173349
 21
16.8772095251
  0
LINE
  5
33D
100
AcDbEntity
  8
0
100
AcDbLine
 62
7
  6
CONTINUOUS
 10
28.6445736482
 20
18.2999548174
 11
33.5943211165
 21
15.4422167841
  0
LINE
  5
33E
100
AcDbEntity
  8
0
100
AcDbLine
 62
7
  6
CONTINUOUS
 10
28.9203452929
 20
18.9711150069
 11
28.9203452929
 21
18.9817294624
  0
LINE
  5
33F
100
AcDbEntity
  8
0
100
AcDbLine
 62
7
  6
CONTINUOUS
 10
29.4948227445
 20
19.9421065411
 11
28.7364975298
 21
19.5042872742
  0
LINE
  5
340
100
AcDbEntity
  8
0
100
AcDbLine
 62
7
  6
CONTINUOUS
 10
35.3844221954
 20
23.0103863675
 11
32.9795790531
 21
21.621949532
  0
LINE
  5
341
100
AcDbEntity
  8
0
100
AcDbLine
 62
7
  6
CONTINUOUS
 10
26.5876652822
 20
17.9315763957
 11
24.1865263746
 21
16.5452782011
  0
LINE
  5
342
100
AcDbEntity
  8
0
100
AcDbLine
 62
9
  6
CONTINUOUS
 10
32.9895790163
 20
21.6209589767
 11
35.3944221953
 21
23.0093957911
  0
LINE
  5
343
100
AcDbEntity
  8
0
100
AcDbLine
 62
9
  6
CONTINUOUS
 10
26.5976652822
 20
17.9305858193
 11
24.1965258293
 21
16.5442879395
  0
LINE
  5
344
100
AcDbEntity
  8
0
100
AcDbLine
 62
7
  6
CONTINUOUS
 10
28.6445736482
 20
18.9694820137
 11
28.7753884027
 21
19.0450079475
  0
LINE
  5
345
100
AcDbEntity
  8
0
100
AcDbLine
 62
7
  6
CONTINUOUS
 10
33.5943211165
 20
16.1117439805
 11
28.6445736482
 21
18.9694820137
  0
LINE
  5
346
100
AcDbEntity
  8
0
100
AcDbLine
 62
7
  6
CONTINUOUS
 10
28.7753884027
 20
19.0450079475
 11
33.725135871
 21
16.1872699142
  0
LINE
  5
347
100
AcDbEntity
  8
0
100
AcDbLine
 62
7
  6
CONTINUOUS
 10
30.3239522535
 20
18.1566596674
 11
34.0362628548
 21
16.0133561425
  0
LINE
  5
348
100
AcDbEntity
  8
0
100
AcDbLine
 62
7
  6
CONTINUOUS
 10
28.9132742251
 20
18.9751974898
 11
28.9203452929
 21
18.9711150069
  0
LINE
  5
349
100
AcDbEntity
  8
0
100
AcDbLine
 62
7
  6
CONTINUOUS
 10
28.9203452929
 20
18.9817294624
 11
30.1507110921
 21
18.271377437
  0
LINE
  5
34A
100
AcDbEntity
  8
0
100
AcDbLine
 62
7
  6
CONTINUOUS
 10
29.4948227445
 20
20.347319994
 11
29.4948227445
 21
19.837009631
  0
LINE
  5
34B
100
AcDbEntity
  8
0
100
AcDbLine
 62
7
  6
CONTINUOUS
 10
29.6163415613
 20
20.2572303533
 11
29.6163415613
 21
20.4374255511
  0
LINE
  5
34C
100
AcDbEntity
  8
0
100
AcDbLine
 62
7
  6
CONTINUOUS
 10
29.6873227445
 20
20.1840390324
 11
29.6873227445
 21
20.3367055385
  0
LINE
  5
34D
100
AcDbEntity
  8
0
100
AcDbLine
 62
7
  6
CONTINUOUS
 10
29.8814927502
 20
20.6578876266
 11
29.8814927502
 21
20.5262199389
  0
LINE
  5
34E
100
AcDbEntity
  8
0
100
AcDbLine
 62
7
  6
CONTINUOUS
 10
26.8057454442
 20
17.564541745
 11
25.3514148484
 21
16.6114436286
  0
LINE
  5
34F
100
AcDbEntity
  8
0
100
AcDbLine
 62
9
  6
CONTINUOUS
 10
25.3623769697
 20
16.6110459688
 11
26.8167080683
 21
17.5641438294
  0
LINE
  5
350
100
AcDbEntity
  8
0
100
AcDbLine
 62
9
  6
CONTINUOUS
 10
35.452747539
 20
22.9766020404
 11
33.3190749339
 21
21.6772623074
  0
LINE
  5
351
100
AcDbEntity
  8
0
100
AcDbLine
 62
9
  6
CONTINUOUS
 10
33.3335888423
 20
21.6529878502
 11
35.4672608934
 21
22.9523278863
  0
LINE
  5
352
100
AcDbEntity
  8
0
100
AcDbLine
 62
9
  6
CONTINUOUS
 10
35.4672608934
 20
22.7277913265
 11
33.4087476297
 21
21.4742206585
  0
LINE
  5
353
100
AcDbEntity
  8
0
100
AcDbLine
 62
7
  6
CONTINUOUS
 10
35.4631493302
 20
22.7186539549
 11
33.4174579108
 21
21.472891392
  0
LINE
  5
354
100
AcDbEntity
  8
0
100
AcDbLine
 62
9
  6
CONTINUOUS
 10
27.1345389284
 20
17.6192052969
 11
25.4239763628
 21
16.5784986601
  0
LINE
  5
355
100
AcDbEntity
  8
0
100
AcDbLine
 62
9
  6
CONTINUOUS
 10
25.4384838503
 20
16.5542202945
 11
27.1490463838
 21
17.5949269488
  0
LINE
  5
356
100
AcDbEntity
  8
0
100
AcDbLine
 62
7
  6
CONTINUOUS
 10
28.9047889437
 20
18.9702985103
 11
28.9132742251
 21
18.9751974898
  0
LINE
  5
357
100
AcDbEntity
  8
0
100
AcDbLine
 62
7
  6
CONTINUOUS
 10
28.9203452929
 20
18.9711150069
 11
28.929537681
 21
18.9764222347
  0
LINE
  5
358
100
AcDbEntity
  8
0
100
AcDbLine
 62
7
  6
CONTINUOUS
 10
32.3345207617
 20
20.7079556142
 11
31.3563281541
 21
20.1431958488
  0
LINE
  5
359
100
AcDbEntity
  8
0
100
AcDbLine
 62
7
  6
CONTINUOUS
 10
26.1823464826
 20
17.155996138
 11
25.6994739046
 21
16.8772095251
  0
LINE
  5
35A
100
AcDbEntity
  8
0
100
AcDbLine
 62
9
  6
CONTINUOUS
 10
35.3372644378
 20
22.3017667275
 11
33.528905908
 21
21.3109948298
  0
LINE
  5
35B
100
AcDbEntity
  8
0
100
AcDbLine
 62
9
  6
CONTINUOUS
 10
33.5426729995
 20
21.2862889964
 11
35.3510310783
 21
22.2770611685
  0
LINE
  5
35C
100
AcDbEntity
  8
0
100
AcDbLine
 62
9
  6
CONTINUOUS
 10
26.5001451435
 20
17.7403512062
 11
24.2534236162
 21
16.5105560225
  0
LINE
  5
35D
100
AcDbEntity
  8
0
100
AcDbLine
 62
9
  6
CONTINUOUS
 10
24.2671839383
 20
16.485846482
 11
26.513905338
 21
17.7156417432
  0
LINE
  5
35E
100
AcDbEntity
  8
0
100
AcDbLine
 62
9
  6
CONTINUOUS
 10
26.5139053381
 20
17.4911051835
 11
24.2890292821
 21
16.2732674797
  0
LINE
  5
35F
100
AcDbEntity
  8
0
100
AcDbLine
 62
7
  6
CONTINUOUS
 10
26.5097479914
 20
17.4819410509
 11
24.2890292821
 21
16.2663789677
  0
LINE
  5
360
100
AcDbEntity
  8
0
100
AcDbLine
 62
7
  6
CONTINUOUS
 10
35.2720228529
 20
22.3387013704
 11
33.6152080244
 21
21.495991176
  0
LINE
  5
361
100
AcDbEntity
  8
0
100
AcDbLine
 62
9
  6
CONTINUOUS
 10
33.6242750754
 20
21.494494624
 11
35.281090026
 21
22.3372047384
  0
LINE
  5
362
100
AcDbEntity
  8
0
100
AcDbLine
 62
7
  6
CONTINUOUS
 10
30.3239522535
 20
18.4114066007
 11
34.0362628548
 21
16.2681030757
  0
LINE
  5
363
100
AcDbEntity
  8
0
100
AcDbLine
 62
7
  6
CONTINUOUS
 10
28.7364975298
 20
19.5042872742
 11
30.1507110921
 21
18.6877906933
  0
LINE
  5
364
100
AcDbEntity
  8
0
100
AcDbLine
 62
7
  6
CONTINUOUS
 10
29.9062553416
 20
20.5318285705
 11
29.9062553416
 21
20.6048073502
  0
LINE
  5
365
100
AcDbEntity
  8
0
100
AcDbLine
 62
7
  6
CONTINUOUS
 10
29.9433227445
 20
19.449173755
 11
29.9433227445
 21
19.5186493856
  0
LINE
  5
366
100
AcDbEntity
  8
0
100
AcDbLine
 62
7
  6
CONTINUOUS
 10
30.1507110921
 20
16.646549241
 11
30.1507110921
 21
17.4303859587
  0
LINE
  5
367
100
AcDbEntity
  8
0
100
AcDbLine
 62
7
  6
CONTINUOUS
 10
30.1507110921
 20
18.271377437
 11
30.1507110921
 21
18.6877906933
  0
LINE
  5
368
100
AcDbEntity
  8
0
100
AcDbLine
 62
7
  6
CONTINUOUS
 10
30.1813227445
 20
19.449173755
 11
30.1813227445
 21
19.5187158389
  0
LINE
  5
369
100
AcDbEntity
  8
0
100
AcDbLine
 62
7
  6
CONTINUOUS
 10
30.2431527388
 20
20.0367523615
 11
30.2431527388
 21
19.5264419984
  0
LINE
  5
36A
100
AcDbEntity
  8
0
100
AcDbLine
 62
7
  6
CONTINUOUS
 10
30.3239522535
 20
18.4114066007
 11
30.3239522535
 21
18.1566596674
  0
LINE
  5
36B
100
AcDbEntity
  8
0
100
AcDbLine
 62
9
  6
CONTINUOUS
 10
27.1490463838
 20
17.370390389
 11
25.4574020949
 21
16.3411935993
  0
LINE
  5
36C
100
AcDbEntity
  8
0
100
AcDbLine
 62
7
  6
CONTINUOUS
 10
27.1449341522
 20
17.3612526105
 11
25.4574020949
 21
16.3345577036
  0
LINE
  5
36D
100
AcDbEntity
  8
0
100
AcDbLine
 62
7
  6
CONTINUOUS
 10
30.1507110921
 20
18.6877906933
 11
31.3810768914
 21
19.3981427187
  0
LINE
  5
36E
100
AcDbEntity
  8
0
100
AcDbLine
 62
9
  6
CONTINUOUS
 10
35.3510310783
 20
22.0525246087
 11
33.5426729995
 21
21.0617524367
  0
LINE
  5
36F
100
AcDbEntity
  8
0
100
AcDbLine
 62
7
  6
CONTINUOUS
 10
35.346873867
 20
22.0433605503
 11
33.5385157882
 21
21.0525883783
  0
LINE
  5
370
100
AcDbEntity
  8
0
100
AcDbLine
 62
7
  6
CONTINUOUS
 10
30.4373227445
 20
19.8288446651
 11
30.4373227445
 21
20.3367055385
  0
LINE
  5
371
100
AcDbEntity
  8
0
100
AcDbLine
 62
9
  6
CONTINUOUS
 10
30.4388194145
 20
20.0719347612
 11
30.4388194145
 21
19.9412953083
  0
LINE
  5
372
100
AcDbEntity
  8
0
100
AcDbLine
 62
9
  6
CONTINUOUS
 10
30.5045400734
 20
20.063739465
 11
30.5045400734
 21
19.9331000121
  0
LINE
  5
373
100
AcDbEntity
  8
0
100
AcDbLine
 62
7
  6
CONTINUOUS
 10
30.5083039277
 20
19.7469040739
 11
30.5083039277
 21
20.257214437
  0
LINE
  5
374
100
AcDbEntity
  8
0
100
AcDbLine
 62
7
  6
CONTINUOUS
 10
30.6002416633
 20
19.7326073851
 11
30.6002416633
 21
20.2429177482
  0
LINE
  5
375
100
AcDbEntity
  8
0
100
AcDbLine
 62
7
  6
CONTINUOUS
 10
30.6298227445
 20
20.347319994
 11
30.6298227445
 21
19.837009631
  0
LINE
  5
376
100
AcDbEntity
  8
0
100
AcDbLine
 62
7
  6
CONTINUOUS
 10
31.5613891206
 20
19.125841109
 11
30.3239522535
 21
18.4114066007
  0
LINE
  5
377
100
AcDbEntity
  8
0
100
AcDbLine
 62
7
  6
CONTINUOUS
 10
30.3239522535
 20
18.3713982682
 11
30.1507110921
 21
18.271377437
  0
LINE
  5
378
100
AcDbEntity
  8
0
100
AcDbLine
 62
7
  6
CONTINUOUS
 10
30.5083039277
 20
19.7469040739
 11
30.6002416633
 21
19.7326073851
  0
LINE
  5
379
100
AcDbEntity
  8
0
100
AcDbLine
 62
7
  6
CONTINUOUS
 10
31.3810768914
 20
19.1303318402
 11
31.4751220933
 21
19.0760348175
  0
LINE
  5
37A
100
AcDbEntity
  8
0
100
AcDbLine
 62
7
  6
CONTINUOUS
 10
35.2736997218
 20
16.982537584
 11
31.5613891206
 21
19.125841109
  0
LINE
  5
37B
100
AcDbEntity
  8
0
100
AcDbLine
 62
7
  6
CONTINUOUS
 10
35.231273315
 20
17.0568387729
 11
31.3810768914
 21
19.2797507145
  0
LINE
  5
37C
100
AcDbEntity
  8
0
100
AcDbLine
 62
7
  6
CONTINUOUS
 10
31.3810768914
 20
19.3981427187
 11
30.6294710475
 21
19.832082555
  0
LINE
  5
37D
100
AcDbEntity
  8
0
100
AcDbLine
 62
7
  6
CONTINUOUS
 10
30.5083039277
 20
19.9020384243
 11
30.4391918134
 21
19.9419403221
  0
LINE
  5
37E
100
AcDbEntity
  8
0
100
AcDbLine
 62
7
  6
CONTINUOUS
 10
35.3620880695
 20
17.1323647066
 11
30.6298227445
 21
19.8645393659
  0
LINE
  5
37F
100
AcDbEntity
  8
0
100
AcDbLine
 62
7
  6
CONTINUOUS
 10
29.9062553416
 20
20.6048073502
 11
29.8814927502
 21
20.6578876266
  0
LINE
  5
380
100
AcDbEntity
  8
0
100
AcDbLine
 62
7
  6
CONTINUOUS
 10
30.2183901474
 20
20.0898326379
 11
30.2431527388
 21
20.0367523615
  0
LINE
  5
381
100
AcDbEntity
  8
0
100
AcDbLine
 62
7
  6
CONTINUOUS
 10
31.3563281541
 20
20.1431958488
 11
31.3563281541
 21
19.4450912721
  0
LINE
  5
382
100
AcDbEntity
  8
0
100
AcDbLine
 62
7
  6
CONTINUOUS
 10
31.3810768914
 20
19.3981427187
 11
31.3810768914
 21
19.0217377949
  0
LINE
  5
383
100
AcDbEntity
  8
0
100
AcDbLine
 62
7
  6
CONTINUOUS
 10
27.2338956197
 20
15.9913107348
 11
28.7683173349
 21
16.8772095251
  0
LINE
  5
384
100
AcDbEntity
  8
0
100
AcDbLine
 62
7
  6
CONTINUOUS
 10
32.8907498692
 20
19.2572970585
 11
34.4251715844
 21
20.1431958488
  0
LINE
  5
385
100
AcDbEntity
  8
0
100
AcDbLine
 62
7
  6
CONTINUOUS
 10
30.6002416633
 20
20.2429177482
 11
30.5083039277
 21
20.257214437
  0
LINE
  5
386
100
AcDbEntity
  8
0
100
AcDbLine
 62
7
  6
CONTINUOUS
 10
29.5244038257
 20
20.4517222399
 11
29.6163415613
 21
20.4374255511
  0
LINE
  5
387
100
AcDbEntity
  8
0
100
AcDbLine
 62
7
  6
CONTINUOUS
 10
31.3563281541
 20
20.1431958488
 11
32.8907498692
 21
19.2572970585
  0
LINE
  5
388
100
AcDbEntity
  8
0
100
AcDbLine
 62
7
  6
CONTINUOUS
 10
32.2632498692
 20
21.0127647075
 11
32.2632498692
 21
21.2373012672
  0
LINE
  5
389
100
AcDbEntity
  8
0
100
AcDbLine
 62
7
  6
CONTINUOUS
 10
32.3207498692
 20
20.5800215196
 11
32.3207498692
 21
20.6453412461
  0
LINE
  5
38A
100
AcDbEntity
  8
0
100
AcDbLine
 62
7
  6
CONTINUOUS
 10
32.3207498692
 20
20.7923106306
 11
32.3207498692
 21
20.8576303571
  0
LINE
  5
38B
100
AcDbEntity
  8
0
100
AcDbLine
 62
7
  6
CONTINUOUS
 10
30.1507110921
 20
16.646549241
 11
30.8295336021
 21
17.0384675998
  0
LINE
  5
38C
100
AcDbEntity
  8
0
100
AcDbLine
 62
7
  6
CONTINUOUS
 10
27.2338956197
 20
14.8890403505
 11
28.7683173349
 21
15.7749391408
  0
LINE
  5
38D
100
AcDbEntity
  8
0
100
AcDbLine
 62
7
  6
CONTINUOUS
 10
33.2407677259
 20
18.357109578
 11
34.4251715844
 21
19.0409254646
  0
LINE
  5
38E
100
AcDbEntity
  8
0
100
AcDbLine
 62
7
  6
CONTINUOUS
 10
32.4507498692
 20
20.1431958488
 11
32.4507498692
 21
20.306495165
  0
LINE
  5
38F
100
AcDbEntity
  8
0
100
AcDbLine
 62
7
  6
CONTINUOUS
 10
32.4832498692
 20
20.347319994
 11
32.4832498692
 21
20.306495165
  0
LINE
  5
390
100
AcDbEntity
  8
0
100
AcDbLine
 62
7
  6
CONTINUOUS
 10
32.8907498692
 20
18.5591924818
 11
32.8907498692
 21
19.2572970585
  0
LINE
  5
391
100
AcDbEntity
  8
0
100
AcDbLine
 62
7
  6
CONTINUOUS
 10
33.2982498692
 20
20.347319994
 11
33.2982498692
 21
20.306495165
  0
LINE
  5
392
100
AcDbEntity
  8
0
100
AcDbLine
 62
7
  6
CONTINUOUS
 10
33.3307498692
 20
20.1431958488
 11
33.3307498692
 21
20.306495165
  0
LINE
  5
393
100
AcDbEntity
  8
0
100
AcDbLine
 62
9
  6
CONTINUOUS
 10
33.3335888423
 20
21.6529878502
 11
33.3335888423
 21
21.5022585571
  0
LINE
  5
394
100
AcDbEntity
  8
0
100
AcDbLine
 62
7
  6
CONTINUOUS
 10
34.4251715844
 20
20.1431958488
 11
33.4469789767
 21
20.7079556142
  0
LINE
  5
395
100
AcDbEntity
  8
0
100
AcDbLine
 62
7
  6
CONTINUOUS
 10
33.5182487536
 20
21.2379844265
 11
33.5177988642
 21
21.2510345346
  0
LINE
  5
396
100
AcDbEntity
  8
0
100
AcDbLine
 62
7
  6
CONTINUOUS
 10
33.4607498692
 20
20.5800215196
 11
33.4607498692
 21
20.6453412461
  0
LINE
  5
397
100
AcDbEntity
  8
0
100
AcDbLine
 62
7
  6
CONTINUOUS
 10
33.4607498692
 20
20.7923106306
 11
33.4607498692
 21
20.8576303571
  0
LINE
  5
398
100
AcDbEntity
  8
0
100
AcDbLine
 62
7
  6
CONTINUOUS
 10
33.5182498692
 20
21.0127647075
 11
33.5182498692
 21
21.2373012672
  0
LINE
  5
399
100
AcDbEntity
  8
0
100
AcDbLine
 62
9
  6
CONTINUOUS
 10
33.5426729995
 20
21.2862889964
 11
33.5426729995
 21
21.0617524367
  0
LINE
  5
39A
100
AcDbEntity
  8
0
100
AcDbLine
 62
7
  6
CONTINUOUS
 10
33.5943211165
 20
15.4422167841
 11
33.5943211165
 21
16.1117439805
  0
LINE
  5
39B
100
AcDbEntity
  8
0
100
AcDbLine
 62
7
  6
CONTINUOUS
 10
33.725135871
 20
16.0378510399
 11
33.725135871
 21
16.1872699142
  0
LINE
  5
39C
100
AcDbEntity
  8
0
100
AcDbLine
 62
7
  6
CONTINUOUS
 10
34.0362628548
 20
16.0133561425
 11
34.0362628548
 21
16.2681030757
  0
LINE
  5
39D
100
AcDbEntity
  8
0
100
AcDbLine
 62
7
  6
CONTINUOUS
 10
34.4251715844
 20
19.0409254646
 11
34.4251715844
 21
20.1431958488
  0
LINE
  5
39E
100
AcDbEntity
  8
0
100
AcDbLine
 62
7
  6
CONTINUOUS
 10
35.3620880695
 20
17.1323647066
 11
35.231273315
 21
17.0568387729
  0
LINE
  5
39F
100
AcDbEntity
  8
0
100
AcDbLine
 62
7
  6
CONTINUOUS
 10
33.725135871
 20
16.1872699142
 11
33.5943211165
 21
16.1117439805
  0
LINE
  5
3A0
100
AcDbEntity
  8
0
100
AcDbLine
 62
7
  6
CONTINUOUS
 10
34.0362628548
 20
16.2681030757
 11
35.2736997218
 21
16.982537584
  0
LINE
  5
3A1
100
AcDbEntity
  8
0
100
AcDbLine
 62
7
  6
CONTINUOUS
 10
33.8594861595
 20
16.1154182151
 11
33.725135871
 21
16.0378510399
  0
LINE
  5
3A2
100
AcDbEntity
  8
0
100
AcDbLine
 62
7
  6
CONTINUOUS
 10
34.0362628548
 20
16.0133561425
 11
35.2736997218
 21
16.7277906508
  0
LINE
  5
3A3
100
AcDbEntity
  8
0
100
AcDbLine
 62
7
  6
CONTINUOUS
 10
35.3620880695
 20
16.4628375103
 11
33.5943211165
 21
15.4422167841
  0
LINE
  5
3A4
100
AcDbEntity
  8
0
100
AcDbLine
 62
7
  6
CONTINUOUS
 10
35.231273315
 20
17.0568387729
 11
35.231273315
 21
17.0070324815
  0
LINE
  5
3A5
100
AcDbEntity
  8
0
100
AcDbLine
 62
7
  6
CONTINUOUS
 10
35.2697271174
 20
22.3387013704
 11
35.2697271174
 21
22.4433822411
  0
LINE
  5
3A6
100
AcDbEntity
  8
0
100
AcDbLine
 62
9
  6
CONTINUOUS
 10
35.2697271174
 20
22.4433822411
 11
35.2697271178
 21
22.4433740159
  0
LINE
  5
3A7
100
AcDbEntity
  8
0
100
AcDbLine
 62
7
  6
CONTINUOUS
 10
35.2736997218
 20
16.7277906508
 11
35.2736997218
 21
16.982537584
  0
LINE
  5
3A8
100
AcDbEntity
  8
0
100
AcDbLine
 62
9
  6
CONTINUOUS
 10
35.2897373244
 20
22.3806504899
 11
35.2897373244
 21
22.3527598529
  0
LINE
  5
3A9
100
AcDbEntity
  8
0
100
AcDbLine
 62
9
  6
CONTINUOUS
 10
35.3510310783
 20
22.2770611685
 11
35.3510310783
 21
22.0525246087
  0
LINE
  5
3AA
100
AcDbEntity
  8
0
100
AcDbLine
 62
7
  6
CONTINUOUS
 10
35.3527125279
 20
22.9920787825
 11
35.3527125279
 21
23.154026991
  0
LINE
  5
3AB
100
AcDbEntity
  8
0
100
AcDbLine
 62
9
  6
CONTINUOUS
 10
35.3527125279
 20
23.154026991
 11
35.3527125281
 21
23.1540192108
  0
LINE
  5
3AC
100
AcDbEntity
  8
0
100
AcDbLine
 62
7
  6
CONTINUOUS
 10
35.3620880695
 20
16.4628375103
 11
35.3620880695
 21
17.1323647066
  0
LINE
  5
3AD
100
AcDbEntity
  8
0
100
AcDbLine
 62
9
  6
CONTINUOUS
 10
35.3946450302
 20
23.0552482534
 11
35.3946450303
 21
23.0178973313
  0
LINE
  5
3AE
100
AcDbEntity
  8
0
100
AcDbLine
 62
9
  6
CONTINUOUS
 10
35.4411389608
 20
22.2850795728
 11
35.4411389607
 21
22.0605430131
  0
LINE
  5
3AF
100
AcDbEntity
  8
0
100
AcDbLine
 62
9
  6
CONTINUOUS
 10
35.4672608934
 20
22.9523278863
 11
35.4672608934
 21
22.7277913265
  0
LINE
  5
3B0
100
AcDbEntity
  8
0
100
AcDbLine
 62
9
  6
CONTINUOUS
 10
35.5604091494
 20
22.9620568428
 11
35.5604091493
 21
22.7375202831
  0
LINE
  5
3B1
100
AcDbEntity
  8
0
100
AcDbLine
 62
7
  6
CONTINUOUS
 10
35.8797271174
 20
22.2188456814
 11
35.8797271174
 21
22.4433822411
  0
LINE
  5
3B2
100
AcDbEntity
  8
0
100
AcDbLine
 62
9
  6
CONTINUOUS
 10
35.8797271174
 20
22.2188458674
 11
35.879726942
 21
22.2186568306
  0
LINE
  5
3B3
100
AcDbEntity
  8
0
100
AcDbLine
 62
7
  6
CONTINUOUS
 10
36.0927125279
 20
22.9294904312
 11
36.0927125279
 21
23.154026991
  0
LINE
  5
3B4
100
AcDbEntity
  8
0
100
AcDbLine
 62
9
  6
CONTINUOUS
 10
35.2897373244
 20
22.3806504899
 11
35.2949859032
 21
22.36419626
  0
ARC
  5
3B5
100
AcDbEntity
  8
0
100
AcDbCircle
 62
7
  6
CONTINUOUS
 10
13.449545605
 20
6.3656114004
 40
0.5
100
AcDbArc
 50
193.6440847955
 51
219.4860175587
  0
ARC
  5
3B6
100
AcDbEntity
  8
0
100
AcDbCircle
 62
7
  6
CONTINUOUS
 10
13.6777658163
 20
6.3656114004
 40
0.5
100
AcDbArc
 50
320.5139824413
 51
346.3559152045
  0
ARC
  5
3B7
100
AcDbEntity
  8
0
100
AcDbCircle
 62
7
  6
CONTINUOUS
 10
4.8586557106
 20
7.5976664533
 40
0.02
100
AcDbArc
 50
89.9997217211
 51
180.0
  0
ARC
  5
3B8
100
AcDbEntity
  8
0
100
AcDbCircle
 62
7
  6
CONTINUOUS
 10
10.1711557106
 20
7.5976664533
 40
0.02
100
AcDbArc
 50
0.0
 51
90.0000145317
  0
ARC
  5
3B9
100
AcDbEntity
  8
0
100
AcDbCircle
 62
7
  6
CONTINUOUS
 10
5.8961557106
 20
7.5976664533
 40
0.02
100
AcDbArc
 50
89.9996431148
 51
180.0
  0
ARC
  5
3BA
100
AcDbEntity
  8
0
100
AcDbCircle
 62
7
  6
CONTINUOUS
 10
5.8961557106
 20
7.3226664533
 40
0.02
100
AcDbArc
 50
180.0
 51
270.0003570631
  0
ARC
  5
3BB
100
AcDbEntity
  8
0
100
AcDbCircle
 62
7
  6
CONTINUOUS
 10
10.1711557106
 20
7.3226664533
 40
0.02
100
AcDbArc
 50
269.9999854297
 51
360.0
  0
ARC
  5
3BC
100
AcDbEntity
  8
0
100
AcDbCircle
 62
7
  6
CONTINUOUS
 10
4.8586557106
 20
7.3226664533
 40
0.02
100
AcDbArc
 50
180.0
 51
270.0002784161
  0
ARC
  5
3BD
100
AcDbEntity
  8
0
100
AcDbCircle
 62
7
  6
CONTINUOUS
 10
22.2636557106
 20
7.5976664533
 40
0.02
100
AcDbArc
 50
0.0
 51
90.0002805672
  0
ARC
  5
3BE
100
AcDbEntity
  8
0
100
AcDbCircle
 62
7
  6
CONTINUOUS
 10
21.2236557106
 20
7.5976664533
 40
0.02
100
AcDbArc
 50
0.0
 51
90.000362251
  0
ARC
  5
3BF
100
AcDbEntity
  8
0
100
AcDbCircle
 62
7
  6
CONTINUOUS
 10
16.9561557106
 20
7.5976664533
 40
0.02
100
AcDbArc
 50
89.9999855344
 51
180.0
  0
ARC
  5
3C0
100
AcDbEntity
  8
0
100
AcDbCircle
 62
7
  6
CONTINUOUS
 10
16.9561557106
 20
7.3226664533
 40
0.02
100
AcDbArc
 50
180.0
 51
270.0000145041
  0
ARC
  5
3C1
100
AcDbEntity
  8
0
100
AcDbCircle
 62
7
  6
CONTINUOUS
 10
21.2236557106
 20
7.3226664533
 40
0.02
100
AcDbArc
 50
269.9996375756
 51
360.0
  0
ARC
  5
3C2
100
AcDbEntity
  8
0
100
AcDbCircle
 62
7
  6
CONTINUOUS
 10
22.2636557106
 20
7.3226664533
 40
0.02
100
AcDbArc
 50
269.9997192939
 51
360.0
  0
ARC
  5
3C3
100
AcDbEntity
  8
0
100
AcDbCircle
 62
7
  6
CONTINUOUS
 10
29.8620817031
 20
6.3656114004
 40
0.5
100
AcDbArc
 50
320.5139824413
 51
346.3559152045
  0
ARC
  5
3C4
100
AcDbEntity
  8
0
100
AcDbCircle
 62
7
  6
CONTINUOUS
 10
29.6338614918
 20
6.3656114004
 40
0.5
100
AcDbArc
 50
193.6440847955
 51
219.4860175587
  0
ARC
  5
3C5
100
AcDbEntity
  8
0
100
AcDbCircle
 62
7
  6
CONTINUOUS
 10
35.7929715974
 20
7.5976664533
 40
0.02
100
AcDbArc
 50
0.0
 51
90.0002782789
  0
ARC
  5
3C6
100
AcDbEntity
  8
0
100
AcDbCircle
 62
7
  6
CONTINUOUS
 10
34.3797545719
 20
7.5976664533
 40
0.02
100
AcDbArc
 50
89.9996431148
 51
180.0
  0
ARC
  5
3C7
100
AcDbEntity
  8
0
100
AcDbCircle
 62
7
  6
CONTINUOUS
 10
35.0879715974
 20
7.5976664533
 40
0.02
100
AcDbArc
 50
89.9997194328
 51
180.0
  0
ARC
  5
3C8
100
AcDbEntity
  8
0
100
AcDbCircle
 62
7
  6
CONTINUOUS
 10
35.7879715974
 20
7.5976664533
 40
0.02
100
AcDbArc
 50
0.0
 51
90.0002805672
  0
ARC
  5
3C9
100
AcDbEntity
  8
0
100
AcDbCircle
 62
7
  6
CONTINUOUS
 10
34.3872545719
 20
7.5976664533
 40
0.02
100
AcDbArc
 50
89.999637749
 51
180.0
  0
ARC
  5
3CA
100
AcDbEntity
  8
0
100
AcDbCircle
 62
7
  6
CONTINUOUS
 10
34.9572545719
 20
7.5976664533
 40
0.02
100
AcDbArc
 50
0.0
 51
90.000362251
  0
ARC
  5
3CB
100
AcDbEntity
  8
0
100
AcDbCircle
 62
7
  6
CONTINUOUS
 10
34.3872545719
 20
7.3226664533
 40
0.02
100
AcDbArc
 50
180.0
 51
270.0003624244
  0
ARC
  5
3CC
100
AcDbEntity
  8
0
100
AcDbCircle
 62
7
  6
CONTINUOUS
 10
34.9572545719
 20
7.3226664533
 40
0.02
100
AcDbArc
 50
269.9996375756
 51
360.0
  0
ARC
  5
3CD
100
AcDbEntity
  8
0
100
AcDbCircle
 62
7
  6
CONTINUOUS
 10
35.0879715974
 20
7.3226664533
 40
0.02
100
AcDbArc
 50
180.0
 51
270.0002807061
  0
ARC
  5
3CE
100
AcDbEntity
  8
0
100
AcDbCircle
 62
7
  6
CONTINUOUS
 10
35.7879715974
 20
7.3226664533
 40
0.02
100
AcDbArc
 50
269.9997192939
 51
360.0
  0
ARC
  5
3CF
100
AcDbEntity
  8
0
100
AcDbCircle
 62
7
  6
CONTINUOUS
 10
6.1886557106
 20
20.6997734769
 40
0.3125
100
AcDbArc
 50
23.7212580124
 51
341.3852752304
  0
ARC
  5
3D0
100
AcDbEntity
  8
0
100
AcDbCircle
 62
9
  6
CONTINUOUS
 10
6.1886557106
 20
20.6997734769
 40
0.2924998754
100
AcDbArc
 50
23.7212580124
 51
341.3852752304
  0
ARC
  5
3D1
100
AcDbEntity
  8
0
100
AcDbCircle
 62
9
  6
CONTINUOUS
 10
9.0447731302
 20
20.6395361203
 40
0.099999956
100
AcDbArc
 50
42.8275616146
 51
91.5
  0
ARC
  5
3D2
100
AcDbEntity
  8
0
100
AcDbCircle
 62
9
  6
CONTINUOUS
 10
6.5606226256
 20
20.57448635
 40
0.0999993342
100
AcDbArc
 50
91.4999999948
 51
161.3852752302
  0
ARC
  5
3D3
100
AcDbEntity
  8
0
100
AcDbCircle
 62
7
  6
CONTINUOUS
 10
6.5606226256
 20
20.57448635
 40
0.08
100
AcDbArc
 50
91.4999999996
 51
161.3852752304
  0
ARC
  5
3D4
100
AcDbEntity
  8
0
100
AcDbCircle
 62
7
  6
CONTINUOUS
 10
9.0447731302
 20
20.6395361203
 40
0.08
100
AcDbArc
 50
42.8275616146
 51
91.5
  0
ARC
  5
3D5
100
AcDbEntity
  8
0
100
AcDbCircle
 62
9
  6
CONTINUOUS
 10
6.5479947196
 20
20.8576713129
 40
0.0999993299
100
AcDbArc
 50
203.7212580123
 51
273.620668791
  0
ARC
  5
3D6
100
AcDbEntity
  8
0
100
AcDbCircle
 62
7
  6
CONTINUOUS
 10
6.5479947196
 20
20.8576713129
 40
0.08
100
AcDbArc
 50
203.7212580124
 51
273.6206687913
  0
ARC
  5
3D7
100
AcDbEntity
  8
0
100
AcDbCircle
 62
7
  6
CONTINUOUS
 10
13.1697090137
 20
20.9419905024
 40
0.04
100
AcDbArc
 50
90.0
 51
193.9117759883
  0
ARC
  5
3D8
100
AcDbEntity
  8
0
100
AcDbCircle
 62
9
  6
CONTINUOUS
 10
8.7360803282
 20
21.1164518647
 40
0.2200850516
100
AcDbArc
 50
273.6206687901
 51
88.4732706505
  0
ARC
  5
3D9
100
AcDbEntity
  8
0
100
AcDbCircle
 62
7
  6
CONTINUOUS
 10
8.7360803282
 20
21.1164518647
 40
0.2000852368
100
AcDbArc
 50
273.620668791
 51
88.4732706506
  0
ARC
  5
3DA
100
AcDbEntity
  8
0
100
AcDbCircle
 62
9
  6
CONTINUOUS
 10
5.6444224189
 20
21.31898097
 40
0.0999992345
100
AcDbArc
 50
88.4732706434
 51
161.2161425775
  0
ARC
  5
3DB
100
AcDbEntity
  8
0
100
AcDbCircle
 62
7
  6
CONTINUOUS
 10
5.6444224189
 20
21.31898097
 40
0.08
100
AcDbArc
 50
88.4732706511
 51
161.2161425775
  0
ARC
  5
3DC
100
AcDbEntity
  8
0
100
AcDbCircle
 62
7
  6
CONTINUOUS
 10
5.2136557106
 20
21.4654905024
 40
0.375
100
AcDbArc
 50
17.2597026415
 51
341.2161425775
  0
ARC
  5
3DD
100
AcDbEntity
  8
0
100
AcDbCircle
 62
9
  6
CONTINUOUS
 10
5.2136557106
 20
21.4654905024
 40
0.3549999029
100
AcDbArc
 50
17.2597026415
 51
341.2161425776
  0
ARC
  5
3DE
100
AcDbEntity
  8
0
100
AcDbCircle
 62
9
  6
CONTINUOUS
 10
5.6481669303
 20
21.6004905024
 40
0.0999992288
100
AcDbArc
 50
197.2597026415
 51
270.0
  0
ARC
  5
3DF
100
AcDbEntity
  8
0
100
AcDbCircle
 62
7
  6
CONTINUOUS
 10
5.6481669303
 20
21.6004905024
 40
0.08
100
AcDbArc
 50
197.2597026415
 51
270.0
  0
ARC
  5
3E0
100
AcDbEntity
  8
0
100
AcDbCircle
 62
9
  6
CONTINUOUS
 10
9.0438901385
 20
21.6004905024
 40
0.0999999461
100
AcDbArc
 50
270.0
 51
317.2777330496
  0
ARC
  5
3E1
100
AcDbEntity
  8
0
100
AcDbCircle
 62
7
  6
CONTINUOUS
 10
9.0438901385
 20
21.6004905024
 40
0.08
100
AcDbArc
 50
270.0
 51
317.2777330496
  0
ARC
  5
3E2
100
AcDbEntity
  8
0
100
AcDbCircle
 62
7
  6
CONTINUOUS
 10
9.5636557106
 20
21.1204905024
 40
0.6275
100
AcDbArc
 50
222.8275616145
 51
137.2777330496
  0
ARC
  5
3E3
100
AcDbEntity
  8
0
100
AcDbCircle
 62
9
  6
CONTINUOUS
 10
9.5636557106
 20
21.1204905024
 40
0.6074999949
100
AcDbArc
 50
222.8275616145
 51
137.2777330496
  0
ARC
  5
3E4
100
AcDbEntity
  8
0
100
AcDbCircle
 62
7
  6
CONTINUOUS
 10
13.1697090137
 20
21.2989905024
 40
0.04
100
AcDbArc
 50
166.0785292425
 51
270.0
  0
ARC
  5
3E5
100
AcDbEntity
  8
0
100
AcDbCircle
 62
7
  6
CONTINUOUS
 10
13.9576024075
 20
20.9419905024
 40
0.04
100
AcDbArc
 50
347.1529491868
 51
90.0
  0
ARC
  5
3E6
100
AcDbEntity
  8
0
100
AcDbCircle
 62
7
  6
CONTINUOUS
 10
20.9386557106
 20
20.6997734769
 40
0.305
100
AcDbArc
 50
199.0240424718
 51
155.8697377968
  0
ARC
  5
3E7
100
AcDbEntity
  8
0
100
AcDbCircle
 62
9
  6
CONTINUOUS
 10
20.9386557106
 20
20.6997734769
 40
0.2849998736
100
AcDbArc
 50
199.0240424718
 51
155.8697377969
  0
ARC
  5
3E8
100
AcDbEntity
  8
0
100
AcDbCircle
 62
9
  6
CONTINUOUS
 10
18.0825382911
 20
20.6395361203
 40
0.0999999562
100
AcDbArc
 50
88.4999999999
 51
137.1724383855
  0
ARC
  5
3E9
100
AcDbEntity
  8
0
100
AcDbCircle
 62
9
  6
CONTINUOUS
 10
20.5746836879
 20
20.5742769964
 40
0.0999993448
100
AcDbArc
 50
19.0240424721
 51
88.5
  0
ARC
  5
3EA
100
AcDbEntity
  8
0
100
AcDbCircle
 62
7
  6
CONTINUOUS
 10
18.0825382911
 20
20.6395361203
 40
0.08
100
AcDbArc
 50
88.4999999997
 51
137.1724383855
  0
ARC
  5
3EB
100
AcDbEntity
  8
0
100
AcDbCircle
 62
7
  6
CONTINUOUS
 10
20.5746836879
 20
20.5742769964
 40
0.08
100
AcDbArc
 50
19.0240424718
 51
88.4999999997
  0
ARC
  5
3EC
100
AcDbEntity
  8
0
100
AcDbCircle
 62
9
  6
CONTINUOUS
 10
20.5872976344
 20
20.8571663047
 40
0.0999993473
100
AcDbArc
 50
266.3793312038
 51
335.8697377968
  0
ARC
  5
3ED
100
AcDbEntity
  8
0
100
AcDbCircle
 62
7
  6
CONTINUOUS
 10
20.5872976344
 20
20.8571663047
 40
0.08
100
AcDbArc
 50
266.3793312087
 51
335.8697377968
  0
ARC
  5
3EE
100
AcDbEntity
  8
0
100
AcDbCircle
 62
7
  6
CONTINUOUS
 10
13.5636557106
 20
21.1204905024
 40
0.5675
100
AcDbArc
 50
296.4191111097
 51
63.5808888903
  0
ARC
  5
3EF
100
AcDbEntity
  8
0
100
AcDbCircle
 62
7
  6
CONTINUOUS
 10
13.5636557106
 20
21.1204905024
 40
0.5675
100
AcDbArc
 50
116.4191111097
 51
243.5808888903
  0
ARC
  5
3F0
100
AcDbEntity
  8
0
100
AcDbCircle
 62
7
  6
CONTINUOUS
 10
13.5636557106
 20
21.1204905024
 40
0.4725
100
AcDbArc
 50
295.7129308459
 51
64.2870691541
  0
ARC
  5
3F1
100
AcDbEntity
  8
0
100
AcDbCircle
 62
7
  6
CONTINUOUS
 10
13.5636557106
 20
21.1204905024
 40
0.4725
100
AcDbArc
 50
115.7129308459
 51
244.2870691541
  0
CIRCLE
  5
3F2
100
AcDbEntity
  8
0
100
AcDbCircle
 62
7
  6
CONTINUOUS
 10
13.5636557106
 20
21.1204905024
 40
0.375
  0
ARC
  5
3F3
100
AcDbEntity
  8
0
100
AcDbCircle
 62
7
  6
CONTINUOUS
 10
13.9576024075
 20
21.2989905024
 40
0.04
100
AcDbArc
 50
270.0
 51
12.8403810565
  0
ARC
  5
3F4
100
AcDbEntity
  8
0
100
AcDbCircle
 62
7
  6
CONTINUOUS
 10
17.5636557106
 20
21.1204905024
 40
0.6275
100
AcDbArc
 50
42.7222669504
 51
317.1724383855
  0
ARC
  5
3F5
100
AcDbEntity
  8
0
100
AcDbCircle
 62
9
  6
CONTINUOUS
 10
17.5636557106
 20
21.1204905024
 40
0.607499995
100
AcDbArc
 50
42.7222669504
 51
317.1724383855
  0
ARC
  5
3F6
100
AcDbEntity
  8
0
100
AcDbCircle
 62
9
  6
CONTINUOUS
 10
18.3912310931
 20
21.1164518647
 40
0.2200850521
100
AcDbArc
 50
91.5267293485
 51
266.379331209
  0
ARC
  5
3F7
100
AcDbEntity
  8
0
100
AcDbCircle
 62
7
  6
CONTINUOUS
 10
18.3912310931
 20
21.1164518647
 40
0.2000852368
100
AcDbArc
 50
91.5267293495
 51
266.379331209
  0
ARC
  5
3F8
100
AcDbEntity
  8
0
100
AcDbCircle
 62
9
  6
CONTINUOUS
 10
21.4881256478
 20
21.319120541
 40
0.0999992367
100
AcDbArc
 50
18.9817264865
 51
91.5267293495
  0
ARC
  5
3F9
100
AcDbEntity
  8
0
100
AcDbCircle
 62
7
  6
CONTINUOUS
 10
21.4881256478
 20
21.319120541
 40
0.08
100
AcDbArc
 50
18.9817264867
 51
91.5267293496
  0
ARC
  5
3FA
100
AcDbEntity
  8
0
100
AcDbCircle
 62
7
  6
CONTINUOUS
 10
21.9136557106
 20
21.4654905024
 40
0.37
100
AcDbArc
 50
198.9817264867
 51
162.5423968763
  0
ARC
  5
3FB
100
AcDbEntity
  8
0
100
AcDbCircle
 62
9
  6
CONTINUOUS
 10
21.9136557106
 20
21.4654905024
 40
0.3499999021
100
AcDbArc
 50
198.9817264867
 51
162.5423968763
  0
ARC
  5
3FC
100
AcDbEntity
  8
0
100
AcDbCircle
 62
9
  6
CONTINUOUS
 10
18.0834212828
 20
21.6004905024
 40
0.0999999481
100
AcDbArc
 50
222.7222669504
 51
270.0
  0
ARC
  5
3FD
100
AcDbEntity
  8
0
100
AcDbCircle
 62
9
  6
CONTINUOUS
 10
21.48438307
 20
21.6004905024
 40
0.0999992425
100
AcDbArc
 50
269.9999999931
 51
342.5423968763
  0
ARC
  5
3FE
100
AcDbEntity
  8
0
100
AcDbCircle
 62
7
  6
CONTINUOUS
 10
18.0834212828
 20
21.6004905024
 40
0.08
100
AcDbArc
 50
222.7222669509
 51
270.0
  0
ARC
  5
3FF
100
AcDbEntity
  8
0
100
AcDbCircle
 62
7
  6
CONTINUOUS
 10
21.48438307
 20
21.6004905024
 40
0.08
100
AcDbArc
 50
270.0
 51
342.5423968763
  0
ARC
  5
400
100
AcDbEntity
  8
0
100
AcDbCircle
 62
7
  6
CONTINUOUS
 10
27.0899667763
 20
17.5955924581
 40
0.5183536467
100
AcDbArc
 50
237.4890827769
 51
240.0069942728
  0
ARC
  5
401
100
AcDbEntity
  8
0
100
AcDbCircle
 62
7
  6
CONTINUOUS
 10
27.3836217967
 20
17.5205034712
 40
0.5069945875
100
AcDbArc
 50
299.97747868
 51
304.4717351485
  0
ARC
  5
402
100
AcDbEntity
  8
0
100
AcDbCircle
 62
7
  6
CONTINUOUS
 10
27.0841694428
 20
17.5205034712
 40
0.5069945875
100
AcDbArc
 50
235.5282648515
 51
240.02252132
  0
ARC
  5
403
100
AcDbEntity
  8
0
100
AcDbCircle
 62
7
  6
CONTINUOUS
 10
27.3836217967
 20
17.7327925823
 40
0.5069945875
100
AcDbArc
 50
299.97747868
 51
304.4717351485
  0
ARC
  5
404
100
AcDbEntity
  8
0
100
AcDbCircle
 62
7
  6
CONTINUOUS
 10
23.9385750246
 20
16.0542916449
 40
0.5042794439
100
AcDbArc
 50
73.1107115981
 51
73.6694356662
  0
ARC
  5
405
100
AcDbEntity
  8
0
100
AcDbCircle
 62
7
  6
CONTINUOUS
 10
25.1549740222
 20
16.1517713735
 40
0.4579787189
100
AcDbArc
 50
77.3281395095
 51
77.8043116862
  0
ARC
  5
406
100
AcDbEntity
  8
0
100
AcDbCircle
 62
7
  6
CONTINUOUS
 10
27.5468218687
 20
17.7907976776
 40
0.3256769412
100
AcDbArc
 50
322.3208852954
 51
323.6818675371
  0
ARC
  5
407
100
AcDbEntity
  8
0
100
AcDbCircle
 62
7
  6
CONTINUOUS
 10
26.898353813
 20
17.6062698272
 40
0.2370589298
100
AcDbArc
 50
203.5682463329
 51
209.2802579233
  0
ARC
  5
408
100
AcDbEntity
  8
0
100
AcDbCircle
 62
7
  6
CONTINUOUS
 10
26.8275125859
 20
17.9713128522
 40
0.2211169662
100
AcDbArc
 50
178.3617703443
 51
179.9994580862
  0
ARC
  5
409
100
AcDbEntity
  8
0
100
AcDbCircle
 62
9
  6
CONTINUOUS
 10
24.079557314
 20
16.3149122824
 40
0.1996021906
100
AcDbArc
 50
36.8155803457
 51
39.9771945474
  0
ARC
  5
40A
100
AcDbEntity
  8
0
100
AcDbCircle
 62
7
  6
CONTINUOUS
 10
26.6053289249
 20
17.3072777074
 40
0.1991054957
100
AcDbArc
 50
116.7227325455
 51
118.6887792622
  0
ARC
  5
40B
100
AcDbEntity
  8
0
100
AcDbCircle
 62
9
  6
CONTINUOUS
 10
25.2877141576
 20
16.7636010957
 40
0.1721395907
100
AcDbArc
 50
258.9793587722
 51
267.717940263
  0
ARC
  5
40C
100
AcDbEntity
  8
0
100
AcDbCircle
 62
9
  6
CONTINUOUS
 10
24.125807721
 20
16.6975103042
 40
0.1701418851
100
AcDbArc
 50
264.4607948961
 51
275.0621769391
  0
ARC
  5
40D
100
AcDbEntity
  8
0
100
AcDbCircle
 62
9
  6
CONTINUOUS
 10
25.2874193754
 20
16.7613727874
 40
0.1699014364
100
AcDbArc
 50
267.7873487165
 51
277.9699171657
  0
ARC
  5
40E
100
AcDbEntity
  8
0
100
AcDbCircle
 62
9
  6
CONTINUOUS
 10
25.2871660986
 20
16.7607498602
 40
0.1692361684
100
AcDbArc
 50
257.6786070806
 51
258.9769557797
  0
ARC
  5
40F
100
AcDbEntity
  8
0
100
AcDbCircle
 62
9
  6
CONTINUOUS
 10
25.2804375249
 20
16.4065055257
 40
0.1654168425
100
AcDbArc
 50
36.3404313603
 51
40.1200640616
  0
ARC
  5
410
100
AcDbEntity
  8
0
100
AcDbCircle
 62
9
  6
CONTINUOUS
 10
24.1252749637
 20
16.69052769
 40
0.163140515
100
AcDbArc
 50
255.3695398189
 51
264.4103126115
  0
ARC
  5
411
100
AcDbEntity
  8
0
100
AcDbCircle
 62
7
  6
CONTINUOUS
 10
26.7194139529
 20
17.6964541978
 40
0.1576515829
100
AcDbArc
 50
303.2031630044
 51
306.3812268953
  0
ARC
  5
412
100
AcDbEntity
  8
0
100
AcDbCircle
 62
9
  6
CONTINUOUS
 10
24.1235681268
 20
16.6838470008
 40
0.1562453318
100
AcDbArc
 50
253.5294969985
 51
255.3563601347
  0
ARC
  5
413
100
AcDbEntity
  8
0
100
AcDbCircle
 62
7
  6
CONTINUOUS
 10
26.9401763346
 20
17.0404851634
 40
0.1462786932
100
AcDbArc
 50
177.2690198428
 51
180.0010326325
  0
ARC
  5
414
100
AcDbEntity
  8
0
100
AcDbCircle
 62
7
  6
CONTINUOUS
 10
27.5278294844
 20
17.0405253096
 40
0.1460641139
100
AcDbArc
 50
0.0038622065
 51
2.8304075842
  0
ARC
  5
415
100
AcDbEntity
  8
0
100
AcDbCircle
 62
9
  6
CONTINUOUS
 10
24.1408598078
 20
16.6430267653
 40
0.1133492906
100
AcDbArc
 50
295.1413460883
 51
299.4130143455
  0
ARC
  5
416
100
AcDbEntity
  8
0
100
AcDbCircle
 62
9
  6
CONTINUOUS
 10
24.2758612916
 20
16.4791833933
 40
0.0563674462
100
AcDbArc
 50
215.9113086296
 51
219.7323167279
  0
ARC
  5
417
100
AcDbEntity
  8
0
100
AcDbCircle
 62
9
  6
CONTINUOUS
 10
25.4500317321
 20
16.5493003228
 40
0.0562869537
100
AcDbArc
 50
216.1856670518
 51
220.0279651856
  0
ARC
  5
418
100
AcDbEntity
  8
0
100
AcDbCircle
 62
9
  6
CONTINUOUS
 10
26.5919055101
 20
17.9716014871
 40
0.035033254
100
AcDbArc
 50
354.0515849446
 51
3.4426883128
  0
ARC
  5
419
100
AcDbEntity
  8
0
100
AcDbCircle
 62
7
  6
CONTINUOUS
 10
26.5931575847
 20
17.9550775898
 40
0.0137970197
100
AcDbArc
 50
351.8645002373
 51
0.012985003
  0
ARC
  5
41A
100
AcDbEntity
  8
0
100
AcDbCircle
 62
7
  6
CONTINUOUS
 10
32.726053969
 20
21.2252112029
 40
0.5511926913
100
AcDbArc
 50
236.4240073463
 51
239.1273005252
  0
ARC
  5
41B
100
AcDbEntity
  8
0
100
AcDbCircle
 62
9
  6
CONTINUOUS
 10
35.7011279319
 20
23.2368636688
 40
0.5187924369
100
AcDbArc
 50
254.2617579822
 51
254.7828224822
  0
ARC
  5
41C
100
AcDbEntity
  8
0
100
AcDbCircle
 62
7
  6
CONTINUOUS
 10
33.0404760462
 20
20.7864897949
 40
0.5069945875
100
AcDbArc
 50
299.97747868
 51
304.4717351485
  0
ARC
  5
41D
100
AcDbEntity
  8
0
100
AcDbCircle
 62
7
  6
CONTINUOUS
 10
32.7410236923
 20
20.7864897949
 40
0.5069945875
100
AcDbArc
 50
235.5282648515
 51
240.02252132
  0
ARC
  5
41E
100
AcDbEntity
  8
0
100
AcDbCircle
 62
7
  6
CONTINUOUS
 10
33.0404760462
 20
20.998778906
 40
0.5069945875
100
AcDbArc
 50
299.97747868
 51
304.4717351485
  0
ARC
  5
41F
100
AcDbEntity
  8
0
100
AcDbCircle
 62
7
  6
CONTINUOUS
 10
32.7354485607
 20
20.9899341736
 40
0.4965475883
100
AcDbArc
 50
235.4809618849
 51
240.0698242866
  0
ARC
  5
420
100
AcDbEntity
  8
0
100
AcDbCircle
 62
9
  6
CONTINUOUS
 10
35.5571247787
 20
22.4729018018
 40
0.428360223
100
AcDbArc
 50
254.2900863468
 51
254.917443065
  0
ARC
  5
421
100
AcDbEntity
  8
0
100
AcDbCircle
 62
7
  6
CONTINUOUS
 10
33.166255688
 20
21.0882978452
 40
0.3746185585
100
AcDbArc
 50
315.5202716821
 51
318.5742256778
  0
ARC
  5
422
100
AcDbEntity
  8
0
100
AcDbCircle
 62
7
  6
CONTINUOUS
 10
32.6120945617
 20
21.0853671388
 40
0.3703180071
100
AcDbArc
 50
221.4945690704
 51
224.4879908382
  0
ARC
  5
423
100
AcDbEntity
  8
0
100
AcDbCircle
 62
7
  6
CONTINUOUS
 10
33.1870410372
 20
21.0698212197
 40
0.3468083927
100
AcDbArc
 50
318.5909799813
 51
322.3473899953
  0
ARC
  5
424
100
AcDbEntity
  8
0
100
AcDbCircle
 62
7
  6
CONTINUOUS
 10
32.5911666383
 20
21.0670955906
 40
0.3425368552
100
AcDbArc
 50
217.6246834288
 51
221.5246854717
  0
ARC
  5
425
100
AcDbEntity
  8
0
100
AcDbCircle
 62
9
  6
CONTINUOUS
 10
32.5327634789
 20
21.035105665
 40
0.2739712697
100
AcDbArc
 50
207.3246986001
 51
211.8024348364
  0
ARC
  5
426
100
AcDbEntity
  8
0
100
AcDbCircle
 62
9
  6
CONTINUOUS
 10
33.5088163673
 20
21.7257615838
 40
0.2584862085
100
AcDbArc
 50
294.859178883
 51
296.5304013139
  0
ARC
  5
427
100
AcDbEntity
  8
0
100
AcDbCircle
 62
7
  6
CONTINUOUS
 10
32.4988720569
 20
21.2351865508
 40
0.2358001837
100
AcDbArc
 50
163.5812543077
 51
166.4359736792
  0
ARC
  5
428
100
AcDbEntity
  8
0
100
AcDbCircle
 62
7
  6
CONTINUOUS
 10
32.4913861817
 20
21.236880117
 40
0.2281259323
100
AcDbArc
 50
166.4085105409
 51
179.799760636
  0
ARC
  5
429
100
AcDbEntity
  8
0
100
AcDbCircle
 62
7
  6
CONTINUOUS
 10
35.9298102063
 20
23.1455323999
 40
0.1643980052
100
AcDbArc
 50
25.5627251592
 51
28.7781032211
  0
ARC
  5
42A
100
AcDbEntity
  8
0
100
AcDbCircle
 62
7
  6
CONTINUOUS
 10
35.4061006681
 20
21.9043592324
 40
0.152397318
100
AcDbArc
 50
85.0638432834
 51
95.1960355699
  0
ARC
  5
42B
100
AcDbEntity
  8
0
100
AcDbCircle
 62
7
  6
CONTINUOUS
 10
35.5253206452
 20
22.5817483151
 40
0.1520016936
100
AcDbArc
 50
85.4852295641
 51
96.0958894778
  0
ARC
  5
42C
100
AcDbEntity
  8
0
100
AcDbCircle
 62
7
  6
CONTINUOUS
 10
32.5970305841
 20
20.3064714871
 40
0.1462786932
100
AcDbArc
 50
177.2690198428
 51
180.0010326326
  0
ARC
  5
42D
100
AcDbEntity
  8
0
100
AcDbCircle
 62
7
  6
CONTINUOUS
 10
33.1846837339
 20
20.3065116333
 40
0.1460641139
100
AcDbArc
 50
0.0038622064
 51
2.8304075842
  0
ARC
  5
42E
100
AcDbEntity
  8
0
100
AcDbCircle
 62
9
  6
CONTINUOUS
 10
35.9678050829
 20
22.9296192015
 40
0.1249128973
100
AcDbArc
 50
350.6005469304
 51
355.8075338869
  0
ARC
  5
42F
100
AcDbEntity
  8
0
100
AcDbCircle
 62
7
  6
CONTINUOUS
 10
35.4109362819
 20
21.9322454156
 40
0.1240475503
100
AcDbArc
 50
74.3098055405
 51
76.4553470287
  0
ARC
  5
430
100
AcDbEntity
  8
0
100
AcDbCircle
 62
7
  6
CONTINUOUS
 10
35.5302348523
 20
22.6095321602
 40
0.1237419442
100
AcDbArc
 50
74.2818477255
 51
76.4146911786
  0
ARC
  5
431
100
AcDbEntity
  8
0
100
AcDbCircle
 62
9
  6
CONTINUOUS
 10
35.9695294422
 20
22.9294543854
 40
0.1231811089
100
AcDbArc
 50
355.8253542626
 51
0.0169881885
  0
ARC
  5
432
100
AcDbEntity
  8
0
100
AcDbCircle
 62
9
  6
CONTINUOUS
 10
32.9362479149
 20
21.7145326956
 40
0.1077044439
100
AcDbArc
 50
295.1865546713
 51
299.6804049638
  0
ARC
  5
433
100
AcDbEntity
  8
0
100
AcDbCircle
 62
7
  6
CONTINUOUS
 10
33.5311261875
 20
21.2527862936
 40
0.0133848219
100
AcDbArc
 50
180.0038707697
 51
183.7620342248
  0
SPLINE
  5
434
100
AcDbEntity
  8
0
100
AcDbSpline
 62
7
  6
CONTINUOUS
 70
0
 71
3
 72
11
 73
7
 74
0
 42
0.0000001
 43
0.0000001
 44
0.0000000001
 40
0.0
 40
0.0
 40
0.0
 40
0.0
 40
0.1476657257
 40
0.4999880865
 40
0.8523371682
 40
1.0
 40
1.0
 40
1.0
 40
1.0
 10
9.1561557106
 20
6.6796664533
 30
0.0
 10
9.1576859703
 20
6.6718970058
 30
0.0
 10
9.1621486154
 20
6.6454309896
 30
0.0
 10
9.1654492454
 20
6.599666941
 30
0.0
 10
9.1621473681
 20
6.5539032621
 30
0.0
 10
9.1576854407
 20
6.527435837
 30
0.0
 10
9.1561557106
 20
6.5196664533
 30
0.0
  0
SPLINE
  5
435
100
AcDbEntity
  8
0
100
AcDbSpline
 62
9
  6
CONTINUOUS
 70
0
 71
3
 72
11
 73
7
 74
0
 42
0.0000001
 43
0.0000001
 44
0.0000000001
 40
0.0
 40
0.0
 40
0.0
 40
0.0
 40
0.2561825955
 40
0.5091783036
 40
0.7567627961
 40
1.0
 40
1.0
 40
1.0
 40
1.0
 10
20.650314238
 20
7.3226664533
 30
0.0
 10
20.650314238
 20
7.3200736356
 30
0.0
 10
20.6512919716
 20
7.3148732145
 30
0.0
 10
20.6554379054
 20
7.3082142052
 30
0.0
 10
20.6617387787
 20
7.303741082
 30
0.0
 10
20.6667593422
 20
7.3026665554
 30
0.0
 10
20.6692211399
 20
7.3026664533
 30
0.0
  0
SPLINE
  5
436
100
AcDbEntity
  8
0
100
AcDbSpline
 62
9
  6
CONTINUOUS
 70
0
 71
3
 72
19
 73
15
 74
0
 42
0.0000001
 43
0.0000001
 44
0.0000000001
 40
0.0
 40
0.0
 40
0.0
 40
0.0
 40
0.1938073025
 40
0.3816972317
 40
0.5549834208
 40
0.7063404852
 40
0.7721544615
 40
0.8305536519
 40
0.8809127826
 40
0.9227445369
 40
0.9557759266
 40
0.9797609418
 40
0.9944857451
 40
1.0
 40
1.0
 40
1.0
 40
1.0
 10
20.5767778437
 20
7.3226664533
 30
0.0
 10
20.5767778437
 20
7.3213727301
 30
0.0
 10
20.5767845499
 20
7.3188247835
 30
0.0
 10
20.5768132456
 20
7.3151201763
 30
0.0
 10
20.5768596016
 20
7.3116992056
 30
0.0
 10
20.57691379
 20
7.3090931725
 30
0.0
 10
20.5769663377
 20
7.307254635
 30
0.0
 10
20.5770068012
 20
7.3060894272
 30
0.0
 10
20.5770503411
 20
7.3050868527
 30
0.0
 10
20.5770948905
 20
7.3042472296
 30
0.0
 10
20.5771438956
 20
7.3036019293
 30
0.0
 10
20.5771850322
 20
7.3030952952
 30
0.0
 10
20.5772384931
 20
7.3028574928
 30
0.0
 10
20.5772645733
 20
7.3026664533
 30
0.0
 10
20.5773013827
 20
7.3026664533
 30
0.0
  0
SPLINE
  5
437
100
AcDbEntity
  8
0
100
AcDbSpline
 62
9
  6
CONTINUOUS
 70
0
 71
3
 72
19
 73
15
 74
0
 42
0.0000001
 43
0.0000001
 44
0.0000000001
 40
0.0
 40
0.0
 40
0.0
 40
0.0
 40
0.1938073025
 40
0.3816972317
 40
0.5549834207
 40
0.7063404851
 40
0.7721544614
 40
0.8305536519
 40
0.8809127825
 40
0.9227445368
 40
0.9557759265
 40
0.9797609418
 40
0.994485745
 40
1.0
 40
1.0
 40
1.0
 40
1.0
 10
18.0846324469
 20
7.3226664533
 30
0.0
 10
18.0846324469
 20
7.3213727301
 30
0.0
 10
18.0846391531
 20
7.3188247835
 30
0.0
 10
18.0846678488
 20
7.3151201763
 30
0.0
 10
18.0847142048
 20
7.3116992056
 30
0.0
 10
18.0847683932
 20
7.3090931725
 30
0.0
 10
18.0848209409
 20
7.307254635
 30
0.0
 10
18.0848614044
 20
7.3060894272
 30
0.0
 10
18.0849049443
 20
7.3050868527
 30
0.0
 10
18.0849494937
 20
7.3042472296
 30
0.0
 10
18.0849984988
 20
7.3036019293
 30
0.0
 10
18.0850396354
 20
7.3030952952
 30
0.0
 10
18.0850930963
 20
7.3028574928
 30
0.0
 10
18.0851191766
 20
7.3026664533
 30
0.0
 10
18.0851559859
 20
7.3026664533
 30
0.0
  0
SPLINE
  5
438
100
AcDbEntity
  8
0
100
AcDbSpline
 62
9
  6
CONTINUOUS
 70
0
 71
3
 72
11
 73
7
 74
0
 42
0.0000001
 43
0.0000001
 44
0.0000000001
 40
0.0
 40
0.0
 40
0.0
 40
0.0
 40
0.2839112406
 40
0.5497900988
 40
0.7864792093
 40
1.0
 40
1.0
 40
1.0
 40
1.0
 10
18.0238660558
 20
7.3226664533
 30
0.0
 10
18.0238660558
 20
7.3200913881
 30
0.0
 10
18.0231521764
 20
7.3150754666
 30
0.0
 10
18.0200828035
 20
7.3084998608
 30
0.0
 10
18.0152636358
 20
7.3038704672
 30
0.0
 10
18.0111346233
 20
7.3026664533
 30
0.0
 10
18.009197997
 20
7.3026664533
 30
0.0
  0
SPLINE
  5
439
100
AcDbEntity
  8
0
100
AcDbSpline
 62
9
  6
CONTINUOUS
 70
0
 71
3
 72
19
 73
15
 74
0
 42
0.0000001
 43
0.0000001
 44
0.0000000001
 40
0.0
 40
0.0
 40
0.0
 40
0.0
 40
0.1937985763
 40
0.3816802339
 40
0.5549592018
 40
0.7063106868
 40
0.7721226774
 40
0.8305205388
 40
0.8808791326
 40
0.9227113301
 40
0.9557444294
 40
0.9797330177
 40
0.9944649765
 40
1.0
 40
1.0
 40
1.0
 40
1.0
 10
5.646553883
 20
7.5976664533
 30
0.0
 10
5.646553883
 20
7.5989601766
 30
0.0
 10
5.6465607085
 20
7.601508125
 30
0.0
 10
5.6465899158
 20
7.6052127342
 30
0.0
 10
5.6466370967
 20
7.6086337088
 30
0.0
 10
5.646692253
 20
7.6112397402
 30
0.0
 10
5.6467457326
 20
7.6130782778
 30
0.0
 10
5.6467869275
 20
7.6142434804
 30
0.0
 10
5.646831212
 20
7.615246079
 30
0.0
 10
5.646876644
 20
7.6160856477
 30
0.0
 10
5.6469262916
 20
7.6167311129
 30
0.0
 10
5.6469686995
 20
7.6172374202
 30
0.0
 10
5.6470221675
 20
7.6174759416
 30
0.0
 10
5.6470497993
 20
7.6176664533
 30
0.0
 10
5.6470867489
 20
7.6176664533
 30
0.0
  0
SPLINE
  5
43A
100
AcDbEntity
  8
0
100
AcDbSpline
 62
9
  6
CONTINUOUS
 70
0
 71
3
 72
11
 73
7
 74
0
 42
0.0000001
 43
0.0000001
 44
0.0000000001
 40
0.0
 40
0.0
 40
0.0
 40
0.0
 40
0.243404403
 40
0.4910561492
 40
0.7439808639
 40
1.0
 40
1.0
 40
1.0
 40
1.0
 10
5.549748417
 20
7.6176664533
 30
0.0
 10
5.5522136607
 20
7.6176664526
 30
0.0
 10
5.5572401561
 20
7.6165926473
 30
0.0
 10
5.5635504321
 20
7.6121206439
 30
0.0
 10
5.5677036028
 20
7.6054612974
 30
0.0
 10
5.5686832174
 20
7.6002594612
 30
0.0
 10
5.5686832174
 20
7.5976664533
 30
0.0
  0
SPLINE
  5
43B
100
AcDbEntity
  8
0
100
AcDbSpline
 62
9
  6
CONTINUOUS
 70
0
 71
3
 72
11
 73
7
 74
0
 42
0.0000001
 43
0.0000001
 44
0.0000000001
 40
0.0
 40
0.0
 40
0.0
 40
0.0
 40
0.2839111829
 40
0.5497900452
 40
0.7864792036
 40
1.0
 40
1.0
 40
1.0
 40
1.0
 10
18.0238660558
 20
7.5976664533
 30
0.0
 10
18.0238660558
 20
7.6002415147
 30
0.0
 10
18.0231521785
 20
7.6052574291
 30
0.0
 10
18.0200828139
 20
7.611833028
 30
0.0
 10
18.0152636601
 20
7.6164624231
 30
0.0
 10
18.0111346567
 20
7.6176664468
 30
0.0
 10
18.0091980328
 20
7.6176664533
 30
0.0
  0
SPLINE
  5
43C
100
AcDbEntity
  8
0
100
AcDbSpline
 62
9
  6
CONTINUOUS
 70
0
 71
3
 72
19
 73
15
 74
0
 42
0.0000001
 43
0.0000001
 44
0.0000000001
 40
0.0
 40
0.0
 40
0.0
 40
0.0
 40
0.1938073025
 40
0.3816972317
 40
0.5549834207
 40
0.7063404851
 40
0.7721544614
 40
0.8305536519
 40
0.8809127825
 40
0.9227445368
 40
0.9557759265
 40
0.9797609418
 40
0.994485745
 40
1.0
 40
1.0
 40
1.0
 40
1.0
 10
18.0846324469
 20
7.5976664533
 30
0.0
 10
18.0846324469
 20
7.5989601764
 30
0.0
 10
18.0846391531
 20
7.601508123
 30
0.0
 10
18.0846678488
 20
7.6052127302
 30
0.0
 10
18.0847142048
 20
7.6086337009
 30
0.0
 10
18.0847683932
 20
7.611239734
 30
0.0
 10
18.0848209409
 20
7.6130782716
 30
0.0
 10
18.0848614044
 20
7.6142434793
 30
0.0
 10
18.0849049443
 20
7.6152460539
 30
0.0
 10
18.0849494937
 20
7.616085677
 30
0.0
 10
18.0849984988
 20
7.6167309772
 30
0.0
 10
18.0850396354
 20
7.6172376113
 30
0.0
 10
18.0850930963
 20
7.6174754138
 30
0.0
 10
18.0851191766
 20
7.6176664533
 30
0.0
 10
18.0851559859
 20
7.6176664533
 30
0.0
  0
SPLINE
  5
43D
100
AcDbEntity
  8
0
100
AcDbSpline
 62
9
  6
CONTINUOUS
 70
0
 71
3
 72
19
 73
15
 74
0
 42
0.0000001
 43
0.0000001
 44
0.0000000001
 40
0.0
 40
0.0
 40
0.0
 40
0.0
 40
0.1938073025
 40
0.3816972317
 40
0.5549834208
 40
0.7063404852
 40
0.7721544615
 40
0.8305536519
 40
0.8809127826
 40
0.9227445369
 40
0.9557759266
 40
0.9797609418
 40
0.9944857451
 40
1.0
 40
1.0
 40
1.0
 40
1.0
 10
20.5767778437
 20
7.5976664533
 30
0.0
 10
20.5767778437
 20
7.5989601764
 30
0.0
 10
20.5767845499
 20
7.601508123
 30
0.0
 10
20.5768132456
 20
7.6052127302
 30
0.0
 10
20.5768596016
 20
7.6086337009
 30
0.0
 10
20.57691379
 20
7.611239734
 30
0.0
 10
20.5769663376
 20
7.6130782716
 30
0.0
 10
20.5770068012
 20
7.6142434793
 30
0.0
 10
20.5770503411
 20
7.6152460539
 30
0.0
 10
20.5770948905
 20
7.616085677
 30
0.0
 10
20.5771438956
 20
7.6167309772
 30
0.0
 10
20.5771850322
 20
7.6172376113
 30
0.0
 10
20.5772384931
 20
7.6174754138
 30
0.0
 10
20.5772645733
 20
7.6176664533
 30
0.0
 10
20.5773013827
 20
7.6176664533
 30
0.0
  0
SPLINE
  5
43E
100
AcDbEntity
  8
0
100
AcDbSpline
 62
9
  6
CONTINUOUS
 70
0
 71
3
 72
11
 73
7
 74
0
 42
0.0000001
 43
0.0000001
 44
0.0000000001
 40
0.0
 40
0.0
 40
0.0
 40
0.0
 40
0.2561826524
 40
0.5091781528
 40
0.7567626
 40
1.0
 40
1.0
 40
1.0
 40
1.0
 10
20.650314238
 20
7.5976664533
 30
0.0
 10
20.650314238
 20
7.600259333
 30
0.0
 10
20.6512920189
 20
7.6054598775
 30
0.0
 10
20.6554381428
 20
7.6121189978
 30
0.0
 10
20.661739288
 20
7.6165920722
 30
0.0
 10
20.6667600176
 20
7.6176664524
 30
0.0
 10
20.6692218756
 20
7.6176664533
 30
0.0
  0
SPLINE
  5
43F
100
AcDbEntity
  8
0
100
AcDbSpline
 62
9
  6
CONTINUOUS
 70
0
 71
3
 72
19
 73
15
 74
0
 42
0.0000001
 43
0.0000001
 44
0.0000000001
 40
0.0
 40
0.0
 40
0.0
 40
0.0
 40
0.1937985763
 40
0.3816802339
 40
0.5549592018
 40
0.7063106868
 40
0.7721226774
 40
0.8305205388
 40
0.8808791326
 40
0.9227113301
 40
0.9557444294
 40
0.9797330177
 40
0.9944649765
 40
1.0
 40
1.0
 40
1.0
 40
1.0
 10
21.4859941837
 20
7.5976664533
 30
0.0
 10
21.4859941837
 20
7.5989601766
 30
0.0
 10
21.4859873581
 20
7.601508125
 30
0.0
 10
21.4859581509
 20
7.6052127342
 30
0.0
 10
21.4859109699
 20
7.6086337088
 30
0.0
 10
21.4858558136
 20
7.6112397402
 30
0.0
 10
21.4858023341
 20
7.6130782778
 30
0.0
 10
21.4857611391
 20
7.6142434804
 30
0.0
 10
21.4857168546
 20
7.615246079
 30
0.0
 10
21.4856714227
 20
7.6160856477
 30
0.0
 10
21.485621775
 20
7.6167311129
 30
0.0
 10
21.4855793672
 20
7.6172374202
 30
0.0
 10
21.4855258992
 20
7.6174759416
 30
0.0
 10
21.4854982673
 20
7.6176664533
 30
0.0
 10
21.4854613177
 20
7.6176664533
 30
0.0
  0
SPLINE
  5
440
100
AcDbEntity
  8
0
100
AcDbSpline
 62
9
  6
CONTINUOUS
 70
0
 71
3
 72
11
 73
7
 74
0
 42
0.0000001
 43
0.0000001
 44
0.0000000001
 40
0.0
 40
0.0
 40
0.0
 40
0.0
 40
0.2561536922
 40
0.5091366557
 40
0.7567330236
 40
1.0
 40
1.0
 40
1.0
 40
1.0
 10
21.5637754367
 20
7.5976664533
 30
0.0
 10
21.5637754367
 20
7.6002593557
 30
0.0
 10
21.5647535421
 20
7.6054601291
 30
0.0
 10
21.5689009141
 20
7.6121192897
 30
0.0
 10
21.5752036763
 20
7.6165921744
 30
0.0
 10
21.5802254266
 20
7.6176664526
 30
0.0
 10
21.582687884
 20
7.6176664533
 30
0.0
  0
SPLINE
  5
441
100
AcDbEntity
  8
0
100
AcDbSpline
 62
9
  6
CONTINUOUS
 70
0
 71
3
 72
11
 73
7
 74
0
 42
0.0000001
 43
0.0000001
 44
0.0000000001
 40
0.0
 40
0.0
 40
0.0
 40
0.0
 40
0.2839112406
 40
0.5497900988
 40
0.7864792093
 40
1.0
 40
1.0
 40
1.0
 40
1.0
 10
9.1034453654
 20
7.5976664533
 30
0.0
 10
9.1034453654
 20
7.6002415185
 30
0.0
 10
9.1041592448
 20
7.6052574399
 30
0.0
 10
9.1072286178
 20
7.6118330457
 30
0.0
 10
9.1120477855
 20
7.6164624393
 30
0.0
 10
9.116176798
 20
7.6176664532
 30
0.0
 10
9.1181134243
 20
7.6176664533
 30
0.0
  0
SPLINE
  5
442
100
AcDbEntity
  8
0
100
AcDbSpline
 62
9
  6
CONTINUOUS
 70
0
 71
3
 72
19
 73
15
 74
0
 42
0.0000001
 43
0.0000001
 44
0.0000000001
 40
0.0
 40
0.0
 40
0.0
 40
0.0
 40
0.1938073025
 40
0.3816972317
 40
0.5549834207
 40
0.7063404851
 40
0.7721544614
 40
0.8305536519
 40
0.8809127825
 40
0.9227445368
 40
0.9557759265
 40
0.9797609418
 40
0.994485745
 40
1.0
 40
1.0
 40
1.0
 40
1.0
 10
9.0426789743
 20
7.5976664533
 30
0.0
 10
9.0426789743
 20
7.5989601764
 30
0.0
 10
9.0426722682
 20
7.601508123
 30
0.0
 10
9.0426435724
 20
7.6052127302
 30
0.0
 10
9.0425972165
 20
7.6086337009
 30
0.0
 10
9.0425430281
 20
7.611239734
 30
0.0
 10
9.0424904804
 20
7.6130782716
 30
0.0
 10
9.0424500169
 20
7.6142434793
 30
0.0
 10
9.042406477
 20
7.6152460539
 30
0.0
 10
9.0423619275
 20
7.616085677
 30
0.0
 10
9.0423129225
 20
7.6167309772
 30
0.0
 10
9.0422717859
 20
7.6172376113
 30
0.0
 10
9.042218325
 20
7.6174754138
 30
0.0
 10
9.0421922447
 20
7.6176664533
 30
0.0
 10
9.0421554354
 20
7.6176664533
 30
0.0
  0
SPLINE
  5
443
100
AcDbEntity
  8
0
100
AcDbSpline
 62
9
  6
CONTINUOUS
 70
0
 71
3
 72
19
 73
15
 74
0
 42
0.0000001
 43
0.0000001
 44
0.0000000001
 40
0.0
 40
0.0
 40
0.0
 40
0.0
 40
0.1938073025
 40
0.3816972317
 40
0.5549834208
 40
0.7063404852
 40
0.7721544615
 40
0.8305536519
 40
0.8809127826
 40
0.9227445369
 40
0.9557759266
 40
0.9797609418
 40
0.9944857451
 40
1.0
 40
1.0
 40
1.0
 40
1.0
 10
6.5585284698
 20
7.5976664533
 30
0.0
 10
6.5585284698
 20
7.5989601764
 30
0.0
 10
6.5585217636
 20
7.601508123
 30
0.0
 10
6.5584930678
 20
7.6052127302
 30
0.0
 10
6.5584467119
 20
7.6086337009
 30
0.0
 10
6.5583925235
 20
7.611239734
 30
0.0
 10
6.5583399758
 20
7.6130782716
 30
0.0
 10
6.5582995123
 20
7.6142434793
 30
0.0
 10
6.5582559724
 20
7.6152460539
 30
0.0
 10
6.5582114229
 20
7.616085677
 30
0.0
 10
6.5581624179
 20
7.6167309772
 30
0.0
 10
6.5581212813
 20
7.6172376113
 30
0.0
 10
6.5580678204
 20
7.6174754138
 30
0.0
 10
6.5580417401
 20
7.6176664533
 30
0.0
 10
6.5580049308
 20
7.6176664533
 30
0.0
  0
SPLINE
  5
444
100
AcDbEntity
  8
0
100
AcDbSpline
 62
9
  6
CONTINUOUS
 70
0
 71
3
 72
11
 73
7
 74
0
 42
0.0000001
 43
0.0000001
 44
0.0000000001
 40
0.0
 40
0.0
 40
0.0
 40
0.0
 40
0.2559052344
 40
0.5087809021
 40
0.7564795559
 40
1.0
 40
1.0
 40
1.0
 40
1.0
 10
6.484807713
 20
7.5976664533
 30
0.0
 10
6.484807713
 20
7.6002594876
 30
0.0
 10
6.4838268678
 20
7.6054620986
 30
0.0
 10
6.4796689802
 20
7.6121214877
 30
0.0
 10
6.4733526206
 20
7.6165927949
 30
0.0
 10
6.4683222756
 20
7.6176663496
 30
0.0
 10
6.4658547338
 20
7.6176664532
 30
0.0
  0
SPLINE
  5
445
100
AcDbEntity
  8
0
100
AcDbSpline
 62
9
  6
CONTINUOUS
 70
0
 71
3
 72
11
 73
7
 74
0
 42
0.0000001
 43
0.0000001
 44
0.0000000001
 40
0.0
 40
0.0
 40
0.0
 40
0.0
 40
0.2434043784
 40
0.4910561298
 40
0.7439808705
 40
1.0
 40
1.0
 40
1.0
 40
1.0
 10
5.5497485091
 20
7.3026664533
 30
0.0
 10
5.5522137452
 20
7.3026664665
 30
0.0
 10
5.5572402198
 20
7.3037402902
 30
0.0
 10
5.5635504618
 20
7.3082122997
 30
0.0
 10
5.5677036088
 20
7.3148716323
 30
0.0
 10
5.5686832174
 20
7.320073453
 30
0.0
 10
5.5686832174
 20
7.3226664533
 30
0.0
  0
SPLINE
  5
446
100
AcDbEntity
  8
0
100
AcDbSpline
 62
9
  6
CONTINUOUS
 70
0
 71
3
 72
19
 73
15
 74
0
 42
0.0000001
 43
0.0000001
 44
0.0000000001
 40
0.0
 40
0.0
 40
0.0
 40
0.0
 40
0.1937985763
 40
0.3816802339
 40
0.5549592018
 40
0.7063106868
 40
0.7721226774
 40
0.8305205388
 40
0.8808791326
 40
0.9227113301
 40
0.9557444294
 40
0.9797330177
 40
0.9944649765
 40
1.0
 40
1.0
 40
1.0
 40
1.0
 10
5.6465538829
 20
7.3226664533
 30
0.0
 10
5.6465538829
 20
7.3213727299
 30
0.0
 10
5.6465607085
 20
7.3188247816
 30
0.0
 10
5.6465899158
 20
7.3151201723
 30
0.0
 10
5.6466370967
 20
7.3116991978
 30
0.0
 10
5.646692253
 20
7.3090931663
 30
0.0
 10
5.6467457326
 20
7.3072546288
 30
0.0
 10
5.6467869275
 20
7.3060894262
 30
0.0
 10
5.646831212
 20
7.3050868275
 30
0.0
 10
5.646876644
 20
7.3042472589
 30
0.0
 10
5.6469262916
 20
7.3036017936
 30
0.0
 10
5.6469686995
 20
7.3030954864
 30
0.0
 10
5.6470221675
 20
7.3028569649
 30
0.0
 10
5.6470497993
 20
7.3026664533
 30
0.0
 10
5.6470867489
 20
7.3026664533
 30
0.0
  0
SPLINE
  5
447
100
AcDbEntity
  8
0
100
AcDbSpline
 62
9
  6
CONTINUOUS
 70
0
 71
3
 72
11
 73
7
 74
0
 42
0.0000001
 43
0.0000001
 44
0.0000000001
 40
0.0
 40
0.0
 40
0.0
 40
0.0
 40
0.2559052849
 40
0.5087807415
 40
0.7564793557
 40
1.0
 40
1.0
 40
1.0
 40
1.0
 10
6.484807713
 20
7.3226664533
 30
0.0
 10
6.484807713
 20
7.3200733559
 30
0.0
 10
6.4838268195
 20
7.3148706194
 30
0.0
 10
6.4796687383
 20
7.3082111175
 30
0.0
 10
6.4733521021
 20
7.3037398603
 30
0.0
 10
6.4683215882
 20
7.3026664541
 30
0.0
 10
6.4658539848
 20
7.3026664533
 30
0.0
  0
SPLINE
  5
448
100
AcDbEntity
  8
0
100
AcDbSpline
 62
9
  6
CONTINUOUS
 70
0
 71
3
 72
19
 73
15
 74
0
 42
0.0000001
 43
0.0000001
 44
0.0000000001
 40
0.0
 40
0.0
 40
0.0
 40
0.0
 40
0.1938073025
 40
0.3816972317
 40
0.5549834208
 40
0.7063404852
 40
0.7721544615
 40
0.8305536519
 40
0.8809127826
 40
0.9227445369
 40
0.9557759266
 40
0.9797609418
 40
0.9944857451
 40
1.0
 40
1.0
 40
1.0
 40
1.0
 10
6.5585284697
 20
7.3226664533
 30
0.0
 10
6.5585284697
 20
7.3213727301
 30
0.0
 10
6.5585217636
 20
7.3188247835
 30
0.0
 10
6.5584930678
 20
7.3151201763
 30
0.0
 10
6.5584467119
 20
7.3116992056
 30
0.0
 10
6.5583925235
 20
7.3090931725
 30
0.0
 10
6.5583399758
 20
7.307254635
 30
0.0
 10
6.5582995123
 20
7.3060894272
 30
0.0
 10
6.5582559724
 20
7.3050868527
 30
0.0
 10
6.5582114229
 20
7.3042472296
 30
0.0
 10
6.5581624179
 20
7.3036019293
 30
0.0
 10
6.5581212813
 20
7.3030952952
 30
0.0
 10
6.5580678204
 20
7.3028574928
 30
0.0
 10
6.5580417401
 20
7.3026664533
 30
0.0
 10
6.5580049308
 20
7.3026664533
 30
0.0
  0
SPLINE
  5
449
100
AcDbEntity
  8
0
100
AcDbSpline
 62
9
  6
CONTINUOUS
 70
0
 71
3
 72
19
 73
15
 74
0
 42
0.0000001
 43
0.0000001
 44
0.0000000001
 40
0.0
 40
0.0
 40
0.0
 40
0.0
 40
0.1938073025
 40
0.3816972317
 40
0.5549834207
 40
0.7063404851
 40
0.7721544614
 40
0.8305536519
 40
0.8809127825
 40
0.9227445368
 40
0.9557759265
 40
0.9797609418
 40
0.994485745
 40
1.0
 40
1.0
 40
1.0
 40
1.0
 10
9.0426789743
 20
7.3226664533
 30
0.0
 10
9.0426789743
 20
7.3213727301
 30
0.0
 10
9.0426722682
 20
7.3188247835
 30
0.0
 10
9.0426435724
 20
7.3151201763
 30
0.0
 10
9.0425972165
 20
7.3116992056
 30
0.0
 10
9.0425430281
 20
7.3090931725
 30
0.0
 10
9.0424904804
 20
7.307254635
 30
0.0
 10
9.0424500169
 20
7.3060894272
 30
0.0
 10
9.042406477
 20
7.3050868527
 30
0.0
 10
9.0423619275
 20
7.3042472296
 30
0.0
 10
9.0423129225
 20
7.3036019293
 30
0.0
 10
9.0422717859
 20
7.3030952952
 30
0.0
 10
9.042218325
 20
7.3028574928
 30
0.0
 10
9.0421922447
 20
7.3026664533
 30
0.0
 10
9.0421554354
 20
7.3026664533
 30
0.0
  0
SPLINE
  5
44A
100
AcDbEntity
  8
0
100
AcDbSpline
 62
9
  6
CONTINUOUS
 70
0
 71
3
 72
11
 73
7
 74
0
 42
0.0000001
 43
0.0000001
 44
0.0000000001
 40
0.0
 40
0.0
 40
0.0
 40
0.0
 40
0.2839111892
 40
0.549790051
 40
0.7864792042
 40
1.0
 40
1.0
 40
1.0
 40
1.0
 10
9.1034453654
 20
7.3226664533
 30
0.0
 10
9.1034453654
 20
7.3200913915
 30
0.0
 10
9.104159243
 20
7.3150754762
 30
0.0
 10
9.1072286085
 20
7.3084998766
 30
0.0
 10
9.1120477638
 20
7.3038704817
 30
0.0
 10
9.1161767682
 20
7.302666459
 30
0.0
 10
9.1181133923
 20
7.3026664533
 30
0.0
  0
SPLINE
  5
44B
100
AcDbEntity
  8
0
100
AcDbSpline
 62
9
  6
CONTINUOUS
 70
0
 71
3
 72
11
 73
7
 74
0
 42
0.0000001
 43
0.0000001
 44
0.0000000001
 40
0.0
 40
0.0
 40
0.0
 40
0.0
 40
0.2561536304
 40
0.5091368223
 40
0.7567332394
 40
1.0
 40
1.0
 40
1.0
 40
1.0
 10
21.5637754367
 20
7.3226664533
 30
0.0
 10
21.5637754367
 20
7.320073619
 30
0.0
 10
21.5647534901
 20
7.3148729814
 30
0.0
 10
21.5689006529
 20
7.3082139428
 30
0.0
 10
21.5752031161
 20
7.3037410044
 30
0.0
 10
21.5802246839
 20
7.3026665653
 30
0.0
 10
21.5826870749
 20
7.3026664533
 30
0.0
  0
SPLINE
  5
44C
100
AcDbEntity
  8
0
100
AcDbSpline
 62
9
  6
CONTINUOUS
 70
0
 71
3
 72
19
 73
15
 74
0
 42
0.0000001
 43
0.0000001
 44
0.0000000001
 40
0.0
 40
0.0
 40
0.0
 40
0.0
 40
0.1937985763
 40
0.3816802339
 40
0.5549592018
 40
0.7063106868
 40
0.7721226774
 40
0.8305205388
 40
0.8808791326
 40
0.9227113301
 40
0.9557444294
 40
0.9797330177
 40
0.9944649765
 40
1.0
 40
1.0
 40
1.0
 40
1.0
 10
21.4859941837
 20
7.3226664533
 30
0.0
 10
21.4859941837
 20
7.3213727299
 30
0.0
 10
21.4859873581
 20
7.3188247816
 30
0.0
 10
21.4859581509
 20
7.3151201723
 30
0.0
 10
21.4859109699
 20
7.3116991978
 30
0.0
 10
21.4858558136
 20
7.3090931663
 30
0.0
 10
21.4858023341
 20
7.3072546288
 30
0.0
 10
21.4857611391
 20
7.3060894262
 30
0.0
 10
21.4857168546
 20
7.3050868275
 30
0.0
 10
21.4856714227
 20
7.3042472589
 30
0.0
 10
21.485621775
 20
7.3036017936
 30
0.0
 10
21.4855793672
 20
7.3030954864
 30
0.0
 10
21.4855258992
 20
7.3028569649
 30
0.0
 10
21.4854982673
 20
7.3026664533
 30
0.0
 10
21.4854613177
 20
7.3026664533
 30
0.0
  0
SPLINE
  5
44D
100
AcDbEntity
  8
0
100
AcDbSpline
 62
7
  6
CONTINUOUS
 70
0
 71
3
 72
11
 73
7
 74
0
 42
0.0000001
 43
0.0000001
 44
0.0000000001
 40
0.0
 40
0.0
 40
0.0
 40
0.0
 40
0.1475704938
 40
0.4999853843
 40
0.8523904204
 40
1.0
 40
1.0
 40
1.0
 40
1.0
 10
35.5004715974
 20
6.5496664533
 30
0.0
 10
35.4990168596
 20
6.5572417988
 30
0.0
 10
35.4947731584
 20
6.583055396
 30
0.0
 10
35.491639697
 20
6.6276636393
 30
0.0
 10
35.4947727393
 20
6.6722739516
 30
0.0
 10
35.4990164848
 20
6.6980890992
 30
0.0
 10
35.5004715974
 20
6.7056664533
 30
0.0
  0
SPLINE
  5
44E
100
AcDbEntity
  8
0
100
AcDbSpline
 62
7
  6
CONTINUOUS
 70
0
 71
3
 72
9
 73
5
 74
0
 42
0.0000001
 43
0.0000001
 44
0.0000000001
 40
0.0
 40
0.0
 40
0.0
 40
0.0
 40
0.4825440314
 40
1.0
 40
1.0
 40
1.0
 40
1.0
 10
26.8516524398
 20
17.6318099415
 30
0.0
 10
26.8516524398
 20
17.62775988
 30
0.0
 10
26.8506784966
 20
17.6193420631
 30
0.0
 10
26.8478709473
 20
17.6113577645
 30
0.0
 10
26.8460462178
 20
17.6074166064
 30
0.0
  0
SPLINE
  5
44F
100
AcDbEntity
  8
0
100
AcDbSpline
 62
7
  6
CONTINUOUS
 70
0
 71
3
 72
10
 73
6
 74
0
 42
0.0000001
 43
0.0000001
 44
0.0000000001
 40
0.0
 40
0.0
 40
0.0
 40
0.0
 40
0.2187345271
 40
0.584223203
 40
1.0
 40
1.0
 40
1.0
 40
1.0
 10
26.8460462178
 20
17.6074166064
 30
0.0
 10
26.8444905511
 20
17.6040565862
 30
0.0
 10
26.8396024407
 20
17.5954118609
 30
0.0
 10
26.8287271972
 20
17.5822998733
 30
0.0
 10
26.8185912273
 20
17.5737067231
 30
0.0
 10
26.812925798
 20
17.5695307704
 30
0.0
  0
SPLINE
  5
450
100
AcDbEntity
  8
0
100
AcDbSpline
 62
7
  6
CONTINUOUS
 70
0
 71
3
 72
9
 73
5
 74
0
 42
0.0000001
 43
0.0000001
 44
0.0000000001
 40
0.0
 40
0.0
 40
0.0
 40
0.0
 40
0.4734171986
 40
1.0
 40
1.0
 40
1.0
 40
1.0
 10
25.3514148484
 20
16.6114436286
 30
0.0
 10
25.3486905792
 20
16.609658274
 30
0.0
 10
25.3426520346
 20
16.6063154124
 30
0.0
 10
25.3362755619
 20
16.6036932213
 30
0.0
 10
25.3328594548
 20
16.6024865752
 30
0.0
  0
SPLINE
  5
451
100
AcDbEntity
  8
0
100
AcDbSpline
 62
7
  6
CONTINUOUS
 70
0
 71
3
 72
9
 73
5
 74
0
 42
0.0000001
 43
0.0000001
 44
0.0000000001
 40
0.0
 40
0.0
 40
0.0
 40
0.0
 40
0.4836676079
 40
1.0
 40
1.0
 40
1.0
 40
1.0
 10
25.3328594548
 20
16.6024865752
 30
0.0
 10
25.3249719082
 20
16.5997005158
 30
0.0
 10
25.3079954056
 20
16.5957814726
 30
0.0
 10
25.2906273045
 20
16.594918566
 30
0.0
 10
25.2817033711
 20
16.5952498848
 30
0.0
  0
SPLINE
  5
452
100
AcDbEntity
  8
0
100
AcDbSpline
 62
7
  6
CONTINUOUS
 70
0
 71
3
 72
9
 73
5
 74
0
 42
0.0000001
 43
0.0000001
 44
0.0000000001
 40
0.0
 40
0.0
 40
0.0
 40
0.0
 40
0.2552751504
 40
1.0
 40
1.0
 40
1.0
 40
1.0
 10
25.2817033711
 20
16.5952498848
 30
0.0
 10
25.2794502899
 20
16.5953335349
 30
0.0
 10
25.2706334096
 20
16.5958602728
 30
0.0
 10
25.2618567815
 20
16.5971518794
 30
0.0
 10
25.2554394703
 20
16.5985948293
 30
0.0
  0
SPLINE
  5
453
100
AcDbEntity
  8
0
100
AcDbSpline
 62
7
  6
CONTINUOUS
 70
0
 71
3
 72
11
 73
7
 74
0
 42
0.0000001
 43
0.0000001
 44
0.0000000001
 40
0.0
 40
0.0
 40
0.0
 40
0.0
 40
0.2405009584
 40
0.4848203689
 40
0.736805981
 40
1.0
 40
1.0
 40
1.0
 40
1.0
 10
24.2890034459
 20
16.3365954463
 30
0.0
 10
24.2889731254
 20
16.3456851102
 30
0.0
 10
24.2871119935
 20
16.3640507566
 30
0.0
 10
24.2790088839
 20
16.3908589135
 30
0.0
 10
24.2658075254
 20
16.4165047848
 30
0.0
 10
24.2541840294
 20
16.4322329583
 30
0.0
 10
24.2477289641
 20
16.4398015009
 30
0.0
  0
SPLINE
  5
454
100
AcDbEntity
  8
0
100
AcDbSpline
 62
7
  6
CONTINUOUS
 70
0
 71
3
 72
19
 73
15
 74
0
 42
0.0000001
 43
0.0000001
 44
0.0000000001
 40
0.0
 40
0.0
 40
0.0
 40
0.0
 40
0.0691234201
 40
0.1402772433
 40
0.2852869745
 40
0.429235741
 40
0.5664673476
 40
0.6924584594
 40
0.7505540329
 40
0.805300225
 40
0.8569792147
 40
0.9061718675
 40
0.9535622139
 40
1.0
 40
1.0
 40
1.0
 40
1.0
 10
24.0803676507
 20
16.5382261536
 30
0.0
 10
24.0660548552
 20
16.5424200071
 30
0.0
 10
24.0366236774
 20
16.5496637422
 30
0.0
 10
23.9758276479
 20
16.5596109743
 30
0.0
 10
23.8979007113
 20
16.5633208742
 30
0.0
 10
23.806054065
 20
16.5542376281
 30
0.0
 10
23.7206418745
 20
16.5321511247
 30
0.0
 10
23.6571769053
 20
16.5029516057
 30
0.0
 10
23.6146549644
 20
16.4736326872
 30
0.0
 10
23.5881974485
 20
16.4497935839
 30
0.0
 10
23.5667858768
 20
16.4237406928
 30
0.0
 10
23.5509680565
 20
16.3957249429
 30
0.0
 10
23.541178098
 20
16.3662448279
 30
0.0
 10
23.5390066242
 20
16.3459244652
 30
0.0
 10
23.539046547
 20
16.3359047887
 30
0.0
  0
SPLINE
  5
455
100
AcDbEntity
  8
0
100
AcDbSpline
 62
7
  6
CONTINUOUS
 70
0
 71
3
 72
9
 73
5
 74
0
 42
0.0000001
 43
0.0000001
 44
0.0000000001
 40
0.0
 40
0.0
 40
0.0
 40
0.0
 40
0.4757377096
 40
1.0
 40
1.0
 40
1.0
 40
1.0
 10
24.1865263746
 20
16.5452782011
 30
0.0
 10
24.1834186947
 20
16.5434839812
 30
0.0
 10
24.1766094393
 20
16.5401859004
 30
0.0
 10
24.1694779668
 20
16.5376816391
 30
0.0
 10
24.1656855654
 20
16.5365611884
 30
0.0
  0
SPLINE
  5
456
100
AcDbEntity
  8
0
100
AcDbSpline
 62
7
  6
CONTINUOUS
 70
0
 71
3
 72
9
 73
5
 74
0
 42
0.0000001
 43
0.0000001
 44
0.0000000001
 40
0.0
 40
0.0
 40
0.0
 40
0.0
 40
0.4893458523
 40
1.0
 40
1.0
 40
1.0
 40
1.0
 10
24.1656855654
 20
16.5365611884
 30
0.0
 10
24.1571005203
 20
16.5340247693
 30
0.0
 10
24.1389604493
 20
16.5307831013
 30
0.0
 10
24.1205574261
 20
16.5308450592
 30
0.0
 10
24.1112590984
 20
16.5317442044
 30
0.0
  0
SPLINE
  5
457
100
AcDbEntity
  8
0
100
AcDbSpline
 62
7
  6
CONTINUOUS
 70
0
 71
3
 72
9
 73
5
 74
0
 42
0.0000001
 43
0.0000001
 44
0.0000000001
 40
0.0
 40
0.0
 40
0.0
 40
0.0
 40
0.2583608153
 40
1.0
 40
1.0
 40
1.0
 40
1.0
 10
24.1112590984
 20
16.5317442044
 30
0.0
 10
24.1089711779
 20
16.5319654456
 30
0.0
 10
24.100138365
 20
16.5330313174
 30
0.0
 10
24.0913935745
 20
16.5349034371
 30
0.0
 10
24.0850799576
 20
16.5368204649
 30
0.0
  0
SPLINE
  5
458
100
AcDbEntity
  8
0
100
AcDbSpline
 62
7
  6
CONTINUOUS
 70
0
 71
3
 72
10
 73
6
 74
0
 42
0.0000001
 43
0.0000001
 44
0.0000000001
 40
0.0
 40
0.0
 40
0.0
 40
0.0
 40
0.3124390443
 40
0.5838739474
 40
1.0
 40
1.0
 40
1.0
 40
1.0
 10
26.5876652822
 20
17.9315763957
 30
0.0
 10
26.5898480298
 20
17.9328366056
 30
0.0
 10
26.5938150303
 20
17.9354065648
 30
0.0
 10
26.6000111332
 20
17.9405711311
 30
0.0
 10
26.6035993148
 20
17.9449688419
 30
0.0
 10
26.6051180331
 20
17.9479624961
 30
0.0
  0
SPLINE
  5
459
100
AcDbEntity
  8
0
100
AcDbSpline
 62
7
  6
CONTINUOUS
 70
0
 71
3
 72
9
 73
5
 74
0
 42
0.0000001
 43
0.0000001
 44
0.0000000001
 40
0.0
 40
0.0
 40
0.0
 40
0.0
 40
0.2806777604
 40
1.0
 40
1.0
 40
1.0
 40
1.0
 10
26.6051180331
 20
17.9479624961
 30
0.0
 10
26.6053486578
 20
17.948417097
 30
0.0
 10
26.6061131665
 20
17.9500642761
 30
0.0
 10
26.6066310505
 20
17.9518318314
 30
0.0
 10
26.6068157535
 20
17.95312511
 30
0.0
  0
SPLINE
  5
45A
100
AcDbEntity
  8
0
100
AcDbSpline
 62
7
  6
CONTINUOUS
 70
0
 71
3
 72
31
 73
27
 74
0
 42
0.0000001
 43
0.0000001
 44
0.0000000001
 40
0.0
 40
0.0
 40
0.0
 40
0.0
 40
0.0235349566
 40
0.0473907922
 40
0.0718937165
 40
0.0973333198
 40
0.1239336979
 40
0.151847825
 40
0.2118856169
 40
0.2440926457
 40
0.2776521737
 40
0.3124531363
 40
0.3483393873
 40
0.4225995936
 40
0.4987937271
 40
0.5750677065
 40
0.6495599695
 40
0.7205693793
 40
0.7867402969
 40
0.847268515
 40
0.8754155889
 40
0.9022283052
 40
0.9278504144
 40
0.9524924269
 40
0.9764360828
 40
1.0
 40
1.0
 40
1.0
 40
1.0
 10
27.8613956197
 20
17.9713149435
 30
0.0
 10
27.8613956197
 20
17.9837700735
 30
0.0
 10
27.8592554094
 20
18.0088979987
 30
0.0
 10
27.8498099566
 20
18.0459161247
 30
0.0
 10
27.8342913364
 20
18.081921733
 30
0.0
 10
27.8129852785
 20
18.116522477
 30
0.0
 10
27.786228812
 20
18.1494447724
 30
0.0
 10
27.7426511288
 20
18.191749978
 30
0.0
 10
27.6901710669
 20
18.2284653996
 30
0.0
 10
27.6312921496
 20
18.2596177695
 30
0.0
 10
27.5824130917
 20
18.2808196149
 30
0.0
 10
27.5303175345
 20
18.2991063486
 30
0.0
 10
27.456366646
 20
18.3196672055
 30
0.0
 10
27.3590179661
 20
18.3369908253
 30
0.0
 10
27.2390059622
 20
18.3443076714
 30
0.0
 10
27.1187942587
 20
18.3381294781
 30
0.0
 10
27.002775217
 20
18.3186717315
 30
0.0
 10
26.8951111933
 20
18.2865738776
 30
0.0
 10
26.799638927
 20
18.2428695228
 30
0.0
 10
26.7313252505
 20
18.1966544244
 30
0.0
 10
26.6866070346
 20
18.1548268522
 30
0.0
 10
26.6589576892
 20
18.1222189327
 30
0.0
 10
26.6367092408
 20
18.0878834901
 30
0.0
 10
26.6201848985
 20
18.0520932413
 30
0.0
 10
26.6097012266
 20
18.0152169569
 30
0.0
 10
26.6068424118
 20
17.9900996401
 30
0.0
 10
26.6064859986
 20
17.9776342779
 30
0.0
  0
SPLINE
  5
45B
100
AcDbEntity
  8
0
100
AcDbSpline
 62
7
  6
CONTINUOUS
 70
0
 71
3
 72
9
 73
5
 74
0
 42
0.0000001
 43
0.0000001
 44
0.0000000001
 40
0.0
 40
0.0
 40
0.0
 40
0.0
 40
0.4472272074
 40
1.0
 40
1.0
 40
1.0
 40
1.0
 10
25.4165137999
 20
16.5224265585
 30
0.0
 10
25.4165137999
 20
16.5211658211
 30
0.0
 10
25.4169311951
 20
16.5183381232
 30
0.0
 10
25.4180828674
 20
16.5157289986
 30
0.0
 10
25.4188498699
 20
16.5143725633
 30
0.0
  0
SPLINE
  5
45C
100
AcDbEntity
  8
0
100
AcDbSpline
 62
7
  6
CONTINUOUS
 70
0
 71
3
 72
9
 73
5
 74
0
 42
0.0000001
 43
0.0000001
 44
0.0000000001
 40
0.0
 40
0.0
 40
0.0
 40
0.0
 40
0.2274289851
 40
1.0
 40
1.0
 40
1.0
 40
1.0
 10
25.4188498699
 20
16.5143725633
 30
0.0
 10
25.4190593098
 20
16.5140021713
 30
0.0
 10
25.4200242132
 20
16.5123985752
 30
0.0
 10
25.4211585788
 20
16.5108993234
 30
0.0
 10
25.4221005813
 20
16.5098030064
 30
0.0
  0
SPLINE
  5
45D
100
AcDbEntity
  8
0
100
AcDbSpline
 62
7
  6
CONTINUOUS
 70
0
 71
3
 72
11
 73
7
 74
0
 42
0.0000001
 43
0.0000001
 44
0.0000000001
 40
0.0
 40
0.0
 40
0.0
 40
0.0
 40
0.2411732986
 40
0.4857513105
 40
0.7374953628
 40
1.0
 40
1.0
 40
1.0
 40
1.0
 10
25.4573712291
 20
16.4219659022
 30
0.0
 10
25.4573460357
 20
16.4297298639
 30
0.0
 10
25.4557582813
 20
16.4454041266
 30
0.0
 10
25.44882416
 20
16.4682543189
 30
0.0
 10
25.4375355618
 20
16.4900532852
 30
0.0
 10
25.4276079883
 20
16.5033934009
 30
0.0
 10
25.4221005813
 20
16.5098030064
 30
0.0
  0
SPLINE
  5
45E
100
AcDbEntity
  8
0
100
AcDbSpline
 62
7
  6
CONTINUOUS
 70
0
 71
3
 72
23
 73
19
 74
0
 42
0.0000001
 43
0.0000001
 44
0.0000000001
 40
0.0
 40
0.0
 40
0.0
 40
0.0
 40
0.0730865334
 40
0.1474887762
 40
0.222369878
 40
0.297032516
 40
0.370823632
 40
0.4430828741
 40
0.5131706293
 40
0.5805380174
 40
0.6447188845
 40
0.7053790867
 40
0.7623222471
 40
0.8155543909
 40
0.865303517
 40
0.9120691701
 40
0.9566228354
 40
1.0
 40
1.0
 40
1.0
 40
1.0
 10
29.8814927502
 20
20.6578876266
 30
0.0
 10
29.9029506059
 20
20.6620522846
 30
0.0
 10
29.9465795978
 20
20.6688448477
 30
0.0
 10
30.0128946266
 20
20.6744895269
 30
0.0
 10
30.0799153037
 20
20.675569969
 30
0.0
 10
30.1466709107
 20
20.6720997397
 30
0.0
 10
30.2122491707
 20
20.6641069966
 30
0.0
 10
30.275753952
 20
20.6517343919
 30
0.0
 10
30.3362985272
 20
20.6351185337
 30
0.0
 10
30.3930485449
 20
20.6145132356
 30
0.0
 10
30.4452178699
 20
20.5901769147
 30
0.0
 10
30.4920983636
 20
20.5624544946
 30
0.0
 10
30.5330398772
 20
20.5316935251
 30
0.0
 10
30.5674790047
 20
20.4982957248
 30
0.0
 10
30.5949118927
 20
20.4626710664
 30
0.0
 10
30.6149016067
 20
20.4252682112
 30
0.0
 10
30.6270905267
 20
20.3866186568
 30
0.0
 10
30.6298251538
 20
20.3602441562
 30
0.0
 10
30.6298230076
 20
20.3472711815
 30
0.0
  0
SPLINE
  5
45F
100
AcDbEntity
  8
0
100
AcDbSpline
 62
7
  6
CONTINUOUS
 70
0
 71
3
 72
10
 73
6
 74
0
 42
0.0000001
 43
0.0000001
 44
0.0000000001
 40
0.0
 40
0.0
 40
0.0
 40
0.0
 40
0.5120318602
 40
0.7577803538
 40
1.0
 40
1.0
 40
1.0
 40
1.0
 10
30.5083039277
 20
20.257214437
 30
0.0
 10
30.5167001242
 20
20.2710668778
 30
0.0
 10
30.5268097482
 20
20.2931993414
 30
0.0
 10
30.5336838444
 20
20.3241600892
 30
0.0
 10
30.5348218509
 20
20.3396238054
 30
0.0
 10
30.5348227418
 20
20.3472865244
 30
0.0
  0
SPLINE
  5
460
100
AcDbEntity
  8
0
100
AcDbSpline
 62
7
  6
CONTINUOUS
 70
0
 71
3
 72
18
 73
14
 74
0
 42
0.0000001
 43
0.0000001
 44
0.0000000001
 40
0.0
 40
0.0
 40
0.0
 40
0.0
 40
0.1431276354
 40
0.2887871282
 40
0.4316051981
 40
0.5668748244
 40
0.6305559369
 40
0.6911901633
 40
0.8029572871
 40
0.8548082519
 40
0.9044558301
 40
0.9525851166
 40
1.0
 40
1.0
 40
1.0
 40
1.0
 10
25.2517225955
 20
16.5994143344
 30
0.0
 10
25.2280747463
 20
16.604525529
 30
0.0
 10
25.1795068795
 20
16.6111621733
 30
0.0
 10
25.10632675
 20
16.6108929061
 30
0.0
 10
25.0351995892
 20
16.6005968648
 30
0.0
 10
24.9796416762
 20
16.5837496718
 30
0.0
 10
24.9396992392
 20
16.5654125228
 30
0.0
 10
24.9052253396
 20
16.5452521862
 30
0.0
 10
24.8756318943
 20
16.5207678077
 30
0.0
 10
24.8535398737
 20
16.4921134597
 30
0.0
 10
24.8415335367
 20
16.469698547
 30
0.0
 10
24.8341366903
 20
16.4461404818
 30
0.0
 10
24.8324554266
 20
16.4299472516
 30
0.0
 10
24.8324334829
 20
16.4219323988
 30
0.0
  0
SPLINE
  5
461
100
AcDbEntity
  8
0
100
AcDbSpline
 62
7
  6
CONTINUOUS
 70
0
 71
3
 72
15
 73
11
 74
0
 42
0.0000001
 43
0.0000001
 44
0.0000000001
 40
0.0
 40
0.0
 40
0.0
 40
0.0
 40
0.1208755436
 40
0.2535864173
 40
0.3925098536
 40
0.5320793392
 40
0.6667914324
 40
0.791794647
 40
0.9034121382
 40
1.0
 40
1.0
 40
1.0
 40
1.0
 10
30.4388194145
 20
19.9412953083
 30
0.0
 10
30.4412998233
 20
19.942727373
 30
0.0
 10
30.4468530708
 20
19.9451347162
 30
0.0
 10
30.4559117619
 20
19.9473868343
 30
0.0
 10
30.4656507699
 20
19.9482736271
 30
0.0
 10
30.47546263
 20
19.9477902979
 30
0.0
 10
30.4847765401
 20
19.9459383759
 30
0.0
 10
30.493067756
 20
19.9428475307
 30
0.0
 10
30.4998147435
 20
19.9386431427
 30
0.0
 10
30.5032902651
 20
19.9350172587
 30
0.0
 10
30.5045400734
 20
19.9331000121
 30
0.0
  0
SPLINE
  5
462
100
AcDbEntity
  8
0
100
AcDbSpline
 62
7
  6
CONTINUOUS
 70
0
 71
3
 72
10
 73
6
 74
0
 42
0.0000001
 43
0.0000001
 44
0.0000000001
 40
0.0
 40
0.0
 40
0.0
 40
0.0
 40
0.5112098487
 40
0.7572469378
 40
1.0
 40
1.0
 40
1.0
 40
1.0
 10
30.6002416633
 20
19.7326073851
 30
0.0
 10
30.609635368
 20
19.7487406635
 30
0.0
 10
30.6209015605
 20
19.7744223161
 30
0.0
 10
30.6285525631
 20
19.8102169516
 30
0.0
 10
30.6298215375
 20
19.8280956736
 30
0.0
 10
30.6298230077
 20
19.8369607416
 30
0.0
  0
SPLINE
  5
463
100
AcDbEntity
  8
0
100
AcDbSpline
 62
7
  6
CONTINUOUS
 70
0
 71
3
 72
9
 73
5
 74
0
 42
0.0000001
 43
0.0000001
 44
0.0000000001
 40
0.0
 40
0.0
 40
0.0
 40
0.0
 40
0.4477609312
 40
1.0
 40
1.0
 40
1.0
 40
1.0
 10
24.2422252265
 20
16.4523280463
 30
0.0
 10
24.2422252265
 20
16.4510762755
 30
0.0
 10
24.2426360251
 20
16.4482720837
 30
0.0
 10
24.243770859
 20
16.4456817869
 30
0.0
 10
24.2445266898
 20
16.4443356073
 30
0.0
  0
SPLINE
  5
464
100
AcDbEntity
  8
0
100
AcDbSpline
 62
7
  6
CONTINUOUS
 70
0
 71
3
 72
9
 73
5
 74
0
 42
0.0000001
 43
0.0000001
 44
0.0000000001
 40
0.0
 40
0.0
 40
0.0
 40
0.0
 40
0.2275234896
 40
1.0
 40
1.0
 40
1.0
 40
1.0
 10
24.2445266898
 20
16.4443356073
 30
0.0
 10
24.2447329764
 20
16.4439681988
 30
0.0
 10
24.2456830803
 20
16.442377902
 30
0.0
 10
24.2468006344
 20
16.4408899643
 30
0.0
 10
24.2477289641
 20
16.4398015009
 30
0.0
  0
SPLINE
  5
465
100
AcDbEntity
  8
0
100
AcDbSpline
 62
7
  6
CONTINUOUS
 70
0
 71
3
 72
15
 73
11
 74
0
 42
0.0000001
 43
0.0000001
 44
0.0000000001
 40
0.0
 40
0.0
 40
0.0
 40
0.0
 40
0.1108518323
 40
0.228495957
 40
0.3516867267
 40
0.4791566892
 40
0.6093686136
 40
0.7406852941
 40
0.8715142737
 40
1.0
 40
1.0
 40
1.0
 40
1.0
 10
29.6610396462
 20
19.6053287261
 30
0.0
 10
29.6802019927
 20
19.5942653402
 30
0.0
 10
29.7211374854
 20
19.5738944772
 30
0.0
 10
29.7870034502
 20
19.5493086082
 30
0.0
 10
29.8580985769
 20
19.5301956955
 30
0.0
 10
29.9330452771
 20
19.5169142111
 30
0.0
 10
30.0104399752
 20
19.5096868733
 30
0.0
 10
30.0888354125
 20
19.5086738975
 30
0.0
 10
30.1667118677
 20
19.5139012064
 30
0.0
 10
30.2179759341
 20
19.5215555465
 30
0.0
 10
30.2431527388
 20
19.5264419984
 30
0.0
  0
SPLINE
  5
466
100
AcDbEntity
  8
0
100
AcDbSpline
 62
7
  6
CONTINUOUS
 70
0
 71
3
 72
13
 73
9
 74
0
 42
0.0000001
 43
0.0000001
 44
0.0000000001
 40
0.0
 40
0.0
 40
0.0
 40
0.0
 40
0.1113547266
 40
0.2296633114
 40
0.353447381
 40
0.4812279716
 40
0.7423155677
 40
1.0
 40
1.0
 40
1.0
 40
1.0
 10
26.5157964766
 20
17.4851173518
 30
0.0
 10
26.5226760041
 20
17.4885835721
 30
0.0
 10
26.5372648283
 20
17.4949553346
 30
0.0
 10
26.5605189015
 20
17.5026102124
 30
0.0
 10
26.5854567933
 20
17.5084771095
 30
0.0
 10
26.6205498706
 20
17.5138123404
 30
0.0
 10
26.6654237175
 20
17.5154080796
 30
0.0
 10
26.701246911
 20
17.511356137
 30
0.0
 10
26.7187379933
 20
17.5079150245
 30
0.0
  0
SPLINE
  5
467
100
AcDbEntity
  8
0
100
AcDbSpline
 62
7
  6
CONTINUOUS
 70
0
 71
3
 72
11
 73
7
 74
0
 42
0.0000001
 43
0.0000001
 44
0.0000000001
 40
0.0
 40
0.0
 40
0.0
 40
0.0
 40
0.2379988899
 40
0.4804984458
 40
0.733062593
 40
1.0
 40
1.0
 40
1.0
 40
1.0
 10
24.8324020949
 20
16.197183397
 30
0.0
 10
24.8324020949
 20
16.1879093496
 30
0.0
 10
24.8346732077
 20
16.1691180737
 30
0.0
 10
24.8445259583
 20
16.1420715872
 30
0.0
 10
24.8603582505
 20
16.1167325268
 30
0.0
 10
24.8740634682
 20
16.101687763
 30
0.0
 10
24.8816250818
 20
16.0945451366
 30
0.0
  0
SPLINE
  5
468
100
AcDbEntity
  8
0
100
AcDbSpline
 62
7
  6
CONTINUOUS
 70
0
 71
3
 72
9
 73
5
 74
0
 42
0.0000001
 43
0.0000001
 44
0.0000000001
 40
0.0
 40
0.0
 40
0.0
 40
0.0
 40
0.2383318487
 40
1.0
 40
1.0
 40
1.0
 40
1.0
 10
24.8816250818
 20
16.0945451366
 30
0.0
 10
24.8857915961
 20
16.0906094878
 30
0.0
 10
24.9039603067
 20
16.0748250183
 30
0.0
 10
24.9245145588
 20
16.0619042836
 30
0.0
 10
24.940792575
 20
16.0535063268
 30
0.0
  0
SPLINE
  5
469
100
AcDbEntity
  8
0
100
AcDbSpline
 62
7
  6
CONTINUOUS
 70
0
 71
3
 72
23
 73
19
 74
0
 42
0.0000001
 43
0.0000001
 44
0.0000000001
 40
0.0
 40
0.0
 40
0.0
 40
0.0
 40
0.0634232761
 40
0.1300420259
 40
0.1992668715
 40
0.2703211555
 40
0.3423398628
 40
0.4143966213
 40
0.4855598225
 40
0.5549610334
 40
0.6218110604
 40
0.6855070882
 40
0.7456264113
 40
0.8020809508
 40
0.8550901806
 40
0.9051195156
 40
0.9530385289
 40
1.0
 40
1.0
 40
1.0
 40
1.0
 10
24.940792575
 20
16.0535063268
 30
0.0
 10
24.952269187
 20
16.0475854523
 30
0.0
 10
24.9765493695
 20
16.0368614248
 30
0.0
 10
25.0152174723
 20
16.0243726881
 30
0.0
 10
25.056410528
 20
16.0152691598
 30
0.0
 10
25.099326782
 20
16.0096698642
 30
0.0
 10
25.1431376633
 20
16.0077062749
 30
0.0
 10
25.1869826384
 20
16.0093772848
 30
0.0
 10
25.2300019381
 20
16.0146886748
 30
0.0
 10
25.271361097
 20
16.0235142533
 30
0.0
 10
25.3102626901
 20
16.035739799
 30
0.0
 10
25.3459815517
 20
16.0511434512
 30
0.0
 10
25.3778576718
 20
16.0695313361
 30
0.0
 10
25.4052968467
 20
16.0906905942
 30
0.0
 10
25.4277077405
 20
16.1144045382
 30
0.0
 10
25.4445086966
 20
16.1403894191
 30
0.0
 10
25.4549836709
 20
16.1682279673
 30
0.0
 10
25.4574020949
 20
16.1876213434
 30
0.0
 10
25.4574020949
 20
16.197183397
 30
0.0
  0
SPLINE
  5
46A
100
AcDbEntity
  8
0
100
AcDbSpline
 62
7
  6
CONTINUOUS
 70
0
 71
3
 72
9
 73
5
 74
0
 42
0.0000001
 43
0.0000001
 44
0.0000000001
 40
0.0
 40
0.0
 40
0.0
 40
0.0
 40
0.2513439438
 40
1.0
 40
1.0
 40
1.0
 40
1.0
 10
27.2104291219
 20
17.3762949789
 30
0.0
 10
27.2083280967
 20
17.3763409943
 30
0.0
 10
27.1999662715
 20
17.3763482492
 30
0.0
 10
27.1916017567
 20
17.3756787339
 30
0.0
 10
27.1854079233
 20
17.3747734648
 30
0.0
  0
SPLINE
  5
46B
100
AcDbEntity
  8
0
100
AcDbSpline
 62
7
  6
CONTINUOUS
 70
0
 71
3
 72
9
 73
5
 74
0
 42
0.0000001
 43
0.0000001
 44
0.0000000001
 40
0.0
 40
0.0
 40
0.0
 40
0.0
 40
0.5253440327
 40
1.0
 40
1.0
 40
1.0
 40
1.0
 10
27.1854079233
 20
17.3747734648
 30
0.0
 10
27.1792035933
 20
17.3738666615
 30
0.0
 10
27.1674895028
 20
17.3713685897
 30
0.0
 10
27.1562586886
 20
17.3671442447
 30
0.0
 10
27.1511705561
 20
17.3646530452
 30
0.0
  0
LINE
  5
46C
100
AcDbEntity
  8
0
100
AcDbLine
 62
7
  6
CONTINUOUS
 10
27.1511705561
 20
17.3646530452
 11
27.1449341522
 21
17.3612526105
  0
SPLINE
  5
46D
100
AcDbEntity
  8
0
100
AcDbSpline
 62
7
  6
CONTINUOUS
 70
0
 71
3
 72
11
 73
7
 74
0
 42
0.0000001
 43
0.0000001
 44
0.0000000001
 40
0.0
 40
0.0
 40
0.0
 40
0.0
 40
0.2614496546
 40
0.5187097513
 40
0.7662927377
 40
1.0
 40
1.0
 40
1.0
 40
1.0
 10
27.2104291219
 20
17.3762949789
 30
0.0
 10
27.2478894028
 20
17.3754745453
 30
0.0
 10
27.3223525637
 20
17.3777417499
 30
0.0
 10
27.4313684127
 20
17.3926411737
 30
0.0
 10
27.5342015915
 20
17.4186355898
 30
0.0
 10
27.5987186419
 20
17.443709532
 30
0.0
 10
27.6289608036
 20
17.4581046642
 30
0.0
  0
SPLINE
  5
46E
100
AcDbEntity
  8
0
100
AcDbSpline
 62
7
  6
CONTINUOUS
 70
0
 71
3
 72
9
 73
5
 74
0
 42
0.0000001
 43
0.0000001
 44
0.0000000001
 40
0.0
 40
0.0
 40
0.0
 40
0.0
 40
0.5218551632
 40
1.0
 40
1.0
 40
1.0
 40
1.0
 10
27.6289608036
 20
17.4581046642
 30
0.0
 10
27.6567695536
 20
17.4713415034
 30
0.0
 10
27.708436965
 20
17.5003580484
 30
0.0
 10
27.754651139
 20
17.5377102756
 30
0.0
 10
27.7745741272
 20
17.5576945473
 30
0.0
  0
SPLINE
  5
46F
100
AcDbEntity
  8
0
100
AcDbSpline
 62
7
  6
CONTINUOUS
 70
0
 71
3
 72
9
 73
5
 74
0
 42
0.0000001
 43
0.0000001
 44
0.0000000001
 40
0.0
 40
0.0
 40
0.0
 40
0.0
 40
0.2548561382
 40
1.0
 40
1.0
 40
1.0
 40
1.0
 10
27.7745741272
 20
17.5576945473
 30
0.0
 10
27.7772965104
 20
17.5604253046
 30
0.0
 10
27.7878194525
 20
17.5712969511
 30
0.0
 10
27.7976871312
 20
17.5828082182
 30
0.0
 10
27.8045777089
 20
17.5917313649
 30
0.0
  0
SPLINE
  5
470
100
AcDbEntity
  8
0
100
AcDbSpline
 62
7
  6
CONTINUOUS
 70
0
 71
3
 72
11
 73
7
 74
0
 42
0.0000001
 43
0.0000001
 44
0.0000000001
 40
0.0
 40
0.0
 40
0.0
 40
0.0
 40
0.2620937841
 40
0.5140059741
 40
0.7588232868
 40
1.0
 40
1.0
 40
1.0
 40
1.0
 10
27.809233096
 20
17.5979095812
 30
0.0
 10
27.8175073518
 20
17.6091675245
 30
0.0
 10
27.8323172909
 20
17.632344046
 30
0.0
 10
27.8489235661
 20
17.6694034395
 30
0.0
 10
27.8590470616
 20
17.7075963675
 30
0.0
 10
27.8613555347
 20
17.7335516363
 30
0.0
 10
27.8613834405
 20
17.7464081331
 30
0.0
  0
SPLINE
  5
471
100
AcDbEntity
  8
0
100
AcDbSpline
 62
7
  6
CONTINUOUS
 70
0
 71
3
 72
15
 73
11
 74
0
 42
0.0000001
 43
0.0000001
 44
0.0000000001
 40
0.0
 40
0.0
 40
0.0
 40
0.0
 40
0.1108725934
 40
0.2286021513
 40
0.3519104973
 40
0.4794958952
 40
0.6097815833
 40
0.7410903381
 40
0.8717936851
 40
1.0
 40
1.0
 40
1.0
 40
1.0
 10
29.7282147904
 20
20.1544226768
 30
0.0
 10
29.7443518854
 20
20.1451059206
 30
0.0
 10
29.7788481303
 20
20.1279697042
 30
0.0
 10
29.834377079
 20
20.1073499036
 30
0.0
 10
29.8943309371
 20
20.0913957346
 30
0.0
 10
29.9575224385
 20
20.0804128616
 30
0.0
 10
30.0227421154
 20
20.0745889535
 30
0.0
 10
30.0887434084
 20
20.0740570838
 30
0.0
 10
30.1542185945
 20
20.078833304
 30
0.0
 10
30.1972702318
 20
20.0855655929
 30
0.0
 10
30.2183901474
 20
20.0898326379
 30
0.0
  0
SPLINE
  5
472
100
AcDbEntity
  8
0
100
AcDbSpline
 62
7
  6
CONTINUOUS
 70
0
 71
3
 72
14
 73
10
 74
0
 42
0.0000001
 43
0.0000001
 44
0.0000000001
 40
0.0
 40
0.0
 40
0.0
 40
0.0
 40
0.1134657106
 40
0.2279543959
 40
0.3448683458
 40
0.4654077825
 40
0.5906347747
 40
0.7212656909
 40
1.0
 40
1.0
 40
1.0
 40
1.0
 10
23.5390292821
 20
16.1117439805
 30
0.0
 10
23.5390292821
 20
16.1042617402
 30
0.0
 10
23.5402703826
 20
16.0892026241
 30
0.0
 10
23.5457352067
 20
16.0670379214
 30
0.0
 10
23.5546592106
 20
16.0455217863
 30
0.0
 10
23.5668981521
 20
16.0248903353
 30
0.0
 10
23.5822294172
 20
16.0052900511
 30
0.0
 10
23.6070510934
 20
15.9801749258
 30
0.0
 10
23.6290074702
 20
15.9641005815
 30
0.0
 10
23.6446616823
 20
15.9544678969
 30
0.0
  0
SPLINE
  5
473
100
AcDbEntity
  8
0
100
AcDbSpline
 62
7
  6
CONTINUOUS
 70
0
 71
3
 72
23
 73
19
 74
0
 42
0.0000001
 43
0.0000001
 44
0.0000000001
 40
0.0
 40
0.0
 40
0.0
 40
0.0
 40
0.0614121929
 40
0.1265068954
 40
0.1947213282
 40
0.2653007833
 40
0.3373280045
 40
0.4098172611
 40
0.4817403552
 40
0.5521182256
 40
0.6200442737
 40
0.6847842971
 40
0.7457989413
 40
0.8028765713
 40
0.8561617005
 40
0.9061152532
 40
0.9536460778
 40
1.0
 40
1.0
 40
1.0
 40
1.0
 10
23.6446616823
 20
15.9544678969
 30
0.0
 10
23.6579060642
 20
15.9463180805
 30
0.0
 10
23.6863623922
 20
15.9313925277
 30
0.0
 10
23.7324499487
 20
15.913617842
 30
0.0
 10
23.7823531934
 20
15.9000522684
 30
0.0
 10
23.8350305865
 20
15.8909479657
 30
0.0
 10
23.8893835499
 20
15.8864729491
 30
0.0
 10
23.9442586761
 20
15.886713029
 30
0.0
 10
23.9984924767
 20
15.8916672405
 30
0.0
 10
24.0509363804
 20
15.9012332914
 30
0.0
 10
24.100493905
 20
15.9152411813
 30
0.0
 10
24.1461461986
 20
15.9334302298
 30
0.0
 10
24.1869757963
 20
15.9555088194
 30
0.0
 10
24.2221600591
 20
15.9811741242
 30
0.0
 10
24.2509108401
 20
16.0101125459
 30
0.0
 10
24.2724702564
 20
16.0419460901
 30
0.0
 10
24.2859198036
 20
16.0761341341
 30
0.0
 10
24.2890292821
 20
16.1000060966
 30
0.0
 10
24.2890292821
 20
16.1117439805
 30
0.0
  0
SPLINE
  5
474
100
AcDbEntity
  8
0
100
AcDbSpline
 62
7
  6
CONTINUOUS
 70
0
 71
3
 72
9
 73
5
 74
0
 42
0.0000001
 43
0.0000001
 44
0.0000000001
 40
0.0
 40
0.0
 40
0.0
 40
0.0
 40
0.2483874514
 40
1.0
 40
1.0
 40
1.0
 40
1.0
 10
26.6643231779
 20
17.5136094296
 30
0.0
 10
26.6645285677
 20
17.5105378393
 30
0.0
 10
26.6656533257
 20
17.4981930425
 30
0.0
 10
26.6679791783
 20
17.4859608431
 30
0.0
 10
26.6703489411
 20
17.4769520213
 30
0.0
  0
SPLINE
  5
475
100
AcDbEntity
  8
0
100
AcDbSpline
 62
7
  6
CONTINUOUS
 70
0
 71
3
 72
9
 73
5
 74
0
 42
0.0000001
 43
0.0000001
 44
0.0000000001
 40
0.0
 40
0.0
 40
0.0
 40
0.0
 40
0.5150116607
 40
1.0
 40
1.0
 40
1.0
 40
1.0
 10
30.24392443
 20
19.6394190916
 30
0.0
 10
30.2588458832
 20
19.6441873629
 30
0.0
 10
30.2874059503
 20
19.6548079958
 30
0.0
 10
30.3147125226
 20
19.6683757536
 30
0.0
 10
30.3274877874
 20
19.6757515562
 30
0.0
  0
SPLINE
  5
476
100
AcDbEntity
  8
0
100
AcDbSpline
 62
7
  6
CONTINUOUS
 70
0
 71
3
 72
14
 73
10
 74
0
 42
0.0000001
 43
0.0000001
 44
0.0000000001
 40
0.0
 40
0.0
 40
0.0
 40
0.0
 40
0.2892292251
 40
0.4225711617
 40
0.5485257064
 40
0.6679035789
 40
0.781878005
 40
0.8919701222
 40
1.0
 40
1.0
 40
1.0
 40
1.0
 10
30.3274877874
 20
19.6757515562
 30
0.0
 10
30.3439422278
 20
19.6852515318
 30
0.0
 10
30.3669877692
 20
19.7011249034
 30
0.0
 10
30.3930711919
 20
19.726075163
 30
0.0
 10
30.4089436679
 20
19.7453148754
 30
0.0
 10
30.42149159
 20
19.7653951153
 30
0.0
 10
30.430568146
 20
19.7861468931
 30
0.0
 10
30.4360830262
 20
19.8073499122
 30
0.0
 10
30.4373200421
 20
19.8217074936
 30
0.0
 10
30.4373222624
 20
19.8288041565
 30
0.0
  0
SPLINE
  5
477
100
AcDbEntity
  8
0
100
AcDbSpline
 62
7
  6
CONTINUOUS
 70
0
 71
3
 72
24
 73
20
 74
0
 42
0.0000001
 43
0.0000001
 44
0.0000000001
 40
0.0
 40
0.0
 40
0.0
 40
0.0
 40
0.0623273482
 40
0.1287277871
 40
0.1983367966
 40
0.270295397
 40
0.3436701562
 40
0.4174033755
 40
0.4904278096
 40
0.5617156521
 40
0.630317601
 40
0.6954132321
 40
0.7563694697
 40
0.8128179764
 40
0.8647316538
 40
0.9125178985
 40
0.9571021521
 40
0.9786659344
 40
1.0
 40
1.0
 40
1.0
 40
1.0
 10
29.7971577015
 20
20.4897986474
 30
0.0
 10
29.81061543
 20
20.4975684706
 30
0.0
 10
29.8394893098
 20
20.5117866408
 30
0.0
 10
29.886049097
 20
20.5286861947
 30
0.0
 10
29.9363858032
 20
20.5414575056
 30
0.0
 10
29.9893821529
 20
20.5498682605
 30
0.0
 10
30.0439312153
 20
20.5537187134
 30
0.0
 10
30.0988755215
 20
20.5529636344
 30
0.0
 10
30.1530393959
 20
20.5475753389
 30
0.0
 10
30.2052716584
 20
20.5377048824
 30
0.0
 10
30.2544585395
 20
20.5235305855
 30
0.0
 10
30.2995687546
 20
20.5053764501
 30
0.0
 10
30.3396449606
 20
20.4835873708
 30
0.0
 10
30.3738591492
 20
20.4586133107
 30
0.0
 10
30.4014725326
 20
20.4309015031
 30
0.0
 10
30.4218619099
 20
20.4009775164
 30
0.0
 10
30.4324544118
 20
20.3743101402
 30
0.0
 10
30.4366221674
 20
20.3528514615
 30
0.0
 10
30.4373132252
 20
20.3421428711
 30
0.0
 10
30.4373159122
 20
20.3368237969
 30
0.0
  0
SPLINE
  5
478
100
AcDbEntity
  8
0
100
AcDbSpline
 62
7
  6
CONTINUOUS
 70
0
 71
3
 72
9
 73
5
 74
0
 42
0.0000001
 43
0.0000001
 44
0.0000000001
 40
0.0
 40
0.0
 40
0.0
 40
0.0
 40
0.5062043655
 40
1.0
 40
1.0
 40
1.0
 40
1.0
 10
33.3191060217
 20
20.3645414613
 30
0.0
 10
33.3224267726
 20
20.3563688493
 30
0.0
 10
33.3277368067
 20
20.3396790994
 30
0.0
 10
33.3301448726
 20
20.3223190274
 30
0.0
 10
33.3305696601
 20
20.3137242562
 30
0.0
  0
SPLINE
  5
479
100
AcDbEntity
  8
0
100
AcDbSpline
 62
7
  6
CONTINUOUS
 70
0
 71
3
 72
14
 73
10
 74
0
 42
0.0000001
 43
0.0000001
 44
0.0000000001
 40
0.0
 40
0.0
 40
0.0
 40
0.0
 40
0.2842335082
 40
0.4161041354
 40
0.5416293307
 40
0.6615994888
 40
0.777079623
 40
0.889369709
 40
1.0
 40
1.0
 40
1.0
 40
1.0
 10
33.3274347872
 20
20.3685206661
 30
0.0
 10
33.3477192418
 20
20.3824846603
 30
0.0
 10
33.3759573088
 20
20.4053329748
 30
0.0
 10
33.4075129942
 20
20.4401639945
 30
0.0
 10
33.4266905938
 20
20.4667395297
 30
0.0
 10
33.4417858524
 20
20.4942272354
 30
0.0
 10
33.4526860694
 20
20.5224192653
 30
0.0
 10
33.4592791301
 20
20.5510909831
 30
0.0
 10
33.4607472064
 20
20.5704364101
 30
0.0
 10
33.4607472064
 20
20.5800215196
 30
0.0
  0
SPLINE
  5
47A
100
AcDbEntity
  8
0
100
AcDbSpline
 62
7
  6
CONTINUOUS
 70
0
 71
3
 72
17
 73
13
 74
0
 42
0.0000001
 43
0.0000001
 44
0.0000000001
 40
0.0
 40
0.0
 40
0.0
 40
0.0
 40
0.0558167343
 40
0.1142106115
 40
0.2373771487
 40
0.3669971008
 40
0.5
 40
0.6330028992
 40
0.7626228513
 40
0.8857893885
 40
0.9441832657
 40
1.0
 40
1.0
 40
1.0
 40
1.0
 10
33.2938007345
 20
20.347319994
 30
0.0
 10
33.2803071472
 20
20.3395294678
 30
0.0
 10
33.2519904327
 20
20.3247881039
 30
0.0
 10
33.1909948056
 20
20.2987694269
 30
0.0
 10
33.107607872
 20
20.2734253646
 30
0.0
 10
33.0012511347
 20
20.2550546383
 30
0.0
 10
32.8907498692
 20
20.2488462426
 30
0.0
 10
32.7802486038
 20
20.2550546383
 30
0.0
 10
32.6738918665
 20
20.2734253646
 30
0.0
 10
32.5905049329
 20
20.2987694269
 30
0.0
 10
32.5295093057
 20
20.3247881039
 30
0.0
 10
32.5011925913
 20
20.3395294678
 30
0.0
 10
32.487699004
 20
20.347319994
 30
0.0
  0
SPLINE
  5
47B
100
AcDbEntity
  8
0
100
AcDbSpline
 62
7
  6
CONTINUOUS
 70
0
 71
3
 72
14
 73
10
 74
0
 42
0.0000001
 43
0.0000001
 44
0.0000000001
 40
0.0
 40
0.0
 40
0.0
 40
0.0
 40
0.2842335082
 40
0.4161041354
 40
0.5416293307
 40
0.6615994888
 40
0.777079623
 40
0.889369709
 40
1.0
 40
1.0
 40
1.0
 40
1.0
 10
32.4540649512
 20
20.3685206661
 30
0.0
 10
32.4337804967
 20
20.3824846603
 30
0.0
 10
32.4055424297
 20
20.4053329748
 30
0.0
 10
32.3739867443
 20
20.4401639945
 30
0.0
 10
32.3548091447
 20
20.4667395297
 30
0.0
 10
32.339713886
 20
20.4942272354
 30
0.0
 10
32.328813669
 20
20.5224192653
 30
0.0
 10
32.3222206084
 20
20.5510909831
 30
0.0
 10
32.3207525321
 20
20.5704364101
 30
0.0
 10
32.3207525321
 20
20.5800215196
 30
0.0
  0
SPLINE
  5
47C
100
AcDbEntity
  8
0
100
AcDbSpline
 62
7
  6
CONTINUOUS
 70
0
 71
3
 72
9
 73
5
 74
0
 42
0.0000001
 43
0.0000001
 44
0.0000000001
 40
0.0
 40
0.0
 40
0.0
 40
0.0
 40
0.5061744098
 40
1.0
 40
1.0
 40
1.0
 40
1.0
 10
33.4461671359
 20
20.7192900087
 30
0.0
 10
33.4509059992
 20
20.7074258682
 30
0.0
 10
33.4582401311
 20
20.6831052747
 30
0.0
 10
33.4607472064
 20
20.6578051181
 30
0.0
 10
33.4607472064
 20
20.6453412461
 30
0.0
  0
SPLINE
  5
47D
100
AcDbEntity
  8
0
100
AcDbSpline
 62
7
  6
CONTINUOUS
 70
0
 71
3
 72
9
 73
5
 74
0
 42
0.0000001
 43
0.0000001
 44
0.0000000001
 40
0.0
 40
0.0
 40
0.0
 40
0.0
 40
0.4937466094
 40
1.0
 40
1.0
 40
1.0
 40
1.0
 10
26.7940637762
 20
17.0474548383
 30
0.0
 10
26.7944780868
 20
17.0561439186
 30
0.0
 10
26.796896939
 20
17.0736988688
 30
0.0
 10
26.802279264
 20
17.0905694849
 30
0.0
 10
26.8056499771
 20
17.0988273419
 30
0.0
  0
SPLINE
  5
47E
100
AcDbEntity
  8
0
100
AcDbSpline
 62
7
  6
CONTINUOUS
 70
0
 71
3
 72
9
 73
5
 74
0
 42
0.0000001
 43
0.0000001
 44
0.0000000001
 40
0.0
 40
0.0
 40
0.0
 40
0.0
 40
0.5244113801
 40
1.0
 40
1.0
 40
1.0
 40
1.0
 10
33.3274347872
 20
20.5808097771
 30
0.0
 10
33.34713347
 20
20.594370521
 30
0.0
 10
33.3828459634
 20
20.6231202267
 30
0.0
 10
33.4124624756
 20
20.6583357255
 30
0.0
 10
33.4242965248
 20
20.6765112751
 30
0.0
  0
SPLINE
  5
47F
100
AcDbEntity
  8
0
100
AcDbSpline
 62
7
  6
CONTINUOUS
 70
0
 71
3
 72
11
 73
7
 74
0
 42
0.0000001
 43
0.0000001
 44
0.0000000001
 40
0.0
 40
0.0
 40
0.0
 40
0.0
 40
0.2623658432
 40
0.514419638
 40
0.7591264308
 40
1.0
 40
1.0
 40
1.0
 40
1.0
 10
33.4242965248
 20
20.6765112751
 30
0.0
 10
33.4301670085
 20
20.6855275692
 30
0.0
 10
33.4406095171
 20
20.7039373172
 30
0.0
 10
33.4521807436
 20
20.7329463261
 30
0.0
 10
33.4591868138
 20
20.7624863297
 30
0.0
 10
33.4607472064
 20
20.7824329753
 30
0.0
 10
33.4607472064
 20
20.7923106306
 30
0.0
  0
SPLINE
  5
480
100
AcDbEntity
  8
0
100
AcDbSpline
 62
7
  6
CONTINUOUS
 70
0
 71
3
 72
17
 73
13
 74
0
 42
0.0000001
 43
0.0000001
 44
0.0000000001
 40
0.0
 40
0.0
 40
0.0
 40
0.0
 40
0.0558167343
 40
0.1142106115
 40
0.2373771487
 40
0.3669971008
 40
0.5
 40
0.6330028992
 40
0.7626228513
 40
0.8857893885
 40
0.9441832657
 40
1.0
 40
1.0
 40
1.0
 40
1.0
 10
32.487699004
 20
20.5596091051
 30
0.0
 10
32.5011925913
 20
20.5518185788
 30
0.0
 10
32.5295093057
 20
20.537077215
 30
0.0
 10
32.5905049329
 20
20.5110585379
 30
0.0
 10
32.6738918665
 20
20.4857144756
 30
0.0
 10
32.7802486038
 20
20.4673437493
 30
0.0
 10
32.8907498692
 20
20.4611353536
 30
0.0
 10
33.0012511347
 20
20.4673437493
 30
0.0
 10
33.107607872
 20
20.4857144756
 30
0.0
 10
33.1909948056
 20
20.5110585379
 30
0.0
 10
33.2519904327
 20
20.537077215
 30
0.0
 10
33.2803071472
 20
20.5518185788
 30
0.0
 10
33.2938007345
 20
20.5596091051
 30
0.0
  0
SPLINE
  5
481
100
AcDbEntity
  8
0
100
AcDbSpline
 62
7
  6
CONTINUOUS
 70
0
 71
3
 72
10
 73
6
 74
0
 42
0.0000001
 43
0.0000001
 44
0.0000000001
 40
0.0
 40
0.0
 40
0.0
 40
0.0
 40
0.3124390443
 40
0.5838739474
 40
1.0
 40
1.0
 40
1.0
 40
1.0
 10
35.3844221954
 20
23.0103863675
 30
0.0
 10
35.386604943
 20
23.0116465774
 30
0.0
 10
35.3905719435
 20
23.0142165366
 30
0.0
 10
35.3967680464
 20
23.019381103
 30
0.0
 10
35.400356228
 20
23.0237788137
 30
0.0
 10
35.4018749463
 20
23.0267724679
 30
0.0
  0
SPLINE
  5
482
100
AcDbEntity
  8
0
100
AcDbSpline
 62
7
  6
CONTINUOUS
 70
0
 71
3
 72
9
 73
5
 74
0
 42
0.0000001
 43
0.0000001
 44
0.0000000001
 40
0.0
 40
0.0
 40
0.0
 40
0.0
 40
0.5499447354
 40
1.0
 40
1.0
 40
1.0
 40
1.0
 10
35.4018749463
 20
23.0267724679
 30
0.0
 10
35.4024890273
 20
23.027982927
 30
0.0
 10
35.4034048112
 20
23.0303033896
 30
0.0
 10
35.4037115172
 20
23.0327799093
 30
0.0
 10
35.4037115172
 20
23.0338906885
 30
0.0
  0
SPLINE
  5
483
100
AcDbEntity
  8
0
100
AcDbSpline
 62
7
  6
CONTINUOUS
 70
0
 71
3
 72
9
 73
5
 74
0
 42
0.0000001
 43
0.0000001
 44
0.0000000001
 40
0.0
 40
0.0
 40
0.0
 40
0.0
 40
0.4948404227
 40
1.0
 40
1.0
 40
1.0
 40
1.0
 10
36.0927125279
 20
23.154026991
 30
0.0
 10
36.0927125279
 20
23.1646710397
 30
0.0
 10
36.0901394901
 20
23.1862494934
 30
0.0
 10
36.0828033981
 20
23.2066670483
 30
0.0
 10
36.0781158558
 20
23.2164699671
 30
0.0
  0
SPLINE
  5
484
100
AcDbEntity
  8
0
100
AcDbSpline
 62
7
  6
CONTINUOUS
 70
0
 71
3
 72
26
 73
22
 74
0
 42
0.0000001
 43
0.0000001
 44
0.0000000001
 40
0.0
 40
0.0
 40
0.0
 40
0.0
 40
0.0516605319
 40
0.1075508908
 40
0.1681596553
 40
0.2334186628
 40
0.3026573109
 40
0.3748336145
 40
0.4486292291
 40
0.5226039275
 40
0.5952952281
 40
0.6653502039
 40
0.7316450904
 40
0.7934036723
 40
0.8504038212
 40
0.877250303
 40
0.9030892395
 40
0.9280700449
 40
0.9523962295
 40
0.9762869099
 40
1.0
 40
1.0
 40
1.0
 40
1.0
 10
36.0739035336
 20
23.2246766804
 30
0.0
 10
36.0666871267
 20
23.2378260504
 30
0.0
 10
36.0479751952
 20
23.2632559512
 30
0.0
 10
36.0111886789
 20
23.2957698643
 30
0.0
 10
35.9660220302
 20
23.3234959454
 30
0.0
 10
35.9138168845
 20
23.3459133921
 30
0.0
 10
35.8560283353
 20
23.362586895
 30
0.0
 10
35.7943077902
 20
23.3730879278
 30
0.0
 10
35.7304629122
 20
23.3771447473
 30
0.0
 10
35.6663881009
 20
23.3746667909
 30
0.0
 10
35.6039869666
 20
23.3656913548
 30
0.0
 10
35.5450922939
 20
23.3504825776
 30
0.0
 10
35.4913997527
 20
23.3293996216
 30
0.0
 10
35.4444249786
 20
23.3029277062
 30
0.0
 10
35.4113160681
 20
23.2762077818
 30
0.0
 10
35.3898772454
 20
23.2525826335
 30
0.0
 10
35.376648424
 20
23.2342559423
 30
0.0
 10
35.3661187881
 20
23.2150778602
 30
0.0
 10
35.3584591544
 20
23.1951793717
 30
0.0
 10
35.3537743363
 20
23.1747554079
 30
0.0
 10
35.3527125279
 20
23.1609119856
 30
0.0
 10
35.3527125279
 20
23.154026991
 30
0.0
  0
SPLINE
  5
485
100
AcDbEntity
  8
0
100
AcDbSpline
 62
7
  6
CONTINUOUS
 70
0
 71
3
 72
23
 73
19
 74
0
 42
0.0000001
 43
0.0000001
 44
0.0000000001
 40
0.0
 40
0.0
 40
0.0
 40
0.0
 40
0.0649576458
 40
0.1343151637
 40
0.2070144737
 40
0.2820200583
 40
0.3582565629
 40
0.4345833725
 40
0.5098570696
 40
0.5829652203
 40
0.6528521232
 40
0.7185595334
 40
0.7792483609
 40
0.8342229366
 40
0.8831706907
 40
0.926377067
 40
0.9647293561
 40
1.0
 40
1.0
 40
1.0
 40
1.0
 10
33.6152080244
 20
21.495991176
 30
0.0
 10
33.6077445848
 20
21.4921950266
 30
0.0
 10
33.5918271708
 20
21.4852792245
 30
0.0
 10
33.566368747
 20
21.4771539504
 30
0.0
 10
33.5389986219
 20
21.4711598048
 30
0.0
 10
33.5103403003
 20
21.4674219175
 30
0.0
 10
33.4810045328
 20
21.4660537202
 30
0.0
 10
33.4516197505
 20
21.467062619
 30
0.0
 10
33.422818641
 20
21.4704531358
 30
0.0
 10
33.3952205449
 20
21.4761136316
 30
0.0
 10
33.3694348743
 20
21.4839271387
 30
0.0
 10
33.3460276153
 20
21.4936600625
 30
0.0
 10
33.3255519063
 20
21.5050609358
 30
0.0
 10
33.3084395515
 20
21.5177294007
 30
0.0
 10
33.2950732188
 20
21.5313067563
 30
0.0
 10
33.2855511384
 20
21.5453126635
 30
0.0
 10
33.2799480723
 20
21.5594343418
 30
0.0
 10
33.2787045454
 20
21.568962159
 30
0.0
 10
33.2787045454
 20
21.5735087354
 30
0.0
  0
SPLINE
  5
486
100
AcDbEntity
  8
0
100
AcDbSpline
 62
7
  6
CONTINUOUS
 70
0
 71
3
 72
11
 73
7
 74
0
 42
0.0000001
 43
0.0000001
 44
0.0000000001
 40
0.0
 40
0.0
 40
0.0
 40
0.0
 40
0.3117494852
 40
0.5836299651
 40
0.8127921123
 40
1.0
 40
1.0
 40
1.0
 40
1.0
 10
35.2720228529
 20
22.3387013704
 30
0.0
 10
35.2745840751
 20
22.3400040917
 30
0.0
 10
35.2792568333
 20
22.3426961552
 30
0.0
 10
35.2852669012
 20
22.3472075577
 30
0.0
 10
35.28973789
 20
22.3517412556
 30
0.0
 10
35.2919633734
 20
22.3548987258
 30
0.0
 10
35.2927980124
 20
22.356408993
 30
0.0
  0
SPLINE
  5
487
100
AcDbEntity
  8
0
100
AcDbSpline
 62
7
  6
CONTINUOUS
 70
0
 71
3
 72
9
 73
5
 74
0
 42
0.0000001
 43
0.0000001
 44
0.0000000001
 40
0.0
 40
0.0
 40
0.0
 40
0.0
 40
0.5550622344
 40
1.0
 40
1.0
 40
1.0
 40
1.0
 10
35.2927980124
 20
22.356408993
 30
0.0
 10
35.2935279585
 20
22.3577298199
 30
0.0
 10
35.2946187422
 20
22.3602571299
 30
0.0
 10
35.2949859032
 20
22.3629865599
 30
0.0
 10
35.2949859032
 20
22.36419626
 30
0.0
  0
SPLINE
  5
488
100
AcDbEntity
  8
0
100
AcDbSpline
 62
7
  6
CONTINUOUS
 70
0
 71
3
 72
9
 73
5
 74
0
 42
0.0000001
 43
0.0000001
 44
0.0000000001
 40
0.0
 40
0.0
 40
0.0
 40
0.0
 40
0.4956830424
 40
1.0
 40
1.0
 40
1.0
 40
1.0
 10
35.8797271174
 20
22.4433822411
 30
0.0
 10
35.8797271174
 20
22.4522283292
 30
0.0
 10
35.8776216674
 20
22.4701304348
 30
0.0
 10
35.8716064786
 20
22.4870924987
 30
0.0
 10
35.8677632314
 20
22.4952308359
 30
0.0
  0
SPLINE
  5
489
100
AcDbEntity
  8
0
100
AcDbSpline
 62
7
  6
CONTINUOUS
 70
0
 71
3
 72
9
 73
5
 74
0
 42
0.0000001
 43
0.0000001
 44
0.0000000001
 40
0.0
 40
0.0
 40
0.0
 40
0.0
 40
0.4860293119
 40
1.0
 40
1.0
 40
1.0
 40
1.0
 10
35.8677632314
 20
22.4952308359
 30
0.0
 10
35.863566939
 20
22.5041167704
 30
0.0
 10
35.8529007062
 20
22.5214786058
 30
0.0
 10
35.8392472461
 20
22.5365342016
 30
0.0
 10
35.8316973012
 20
22.5436748937
 30
0.0
  0
SPLINE
  5
48A
100
AcDbEntity
  8
0
100
AcDbSpline
 62
7
  6
CONTINUOUS
 70
0
 71
3
 72
22
 73
18
 74
0
 42
0.0000001
 43
0.0000001
 44
0.0000000001
 40
0.0
 40
0.0
 40
0.0
 40
0.0
 40
0.0567416626
 40
0.1176256291
 40
0.1825121465
 40
0.2508138099
 40
0.3216797007
 40
0.3940437157
 40
0.538424891
 40
0.608289351
 40
0.6751802044
 40
0.7383627488
 40
0.7974160974
 40
0.8524121452
 40
0.9038041014
 40
0.9525257607
 40
1.0
 40
1.0
 40
1.0
 40
1.0
 10
35.8316973012
 20
22.5436748937
 30
0.0
 10
35.8225373583
 20
22.5523383122
 30
0.0
 10
35.8018477675
 20
22.5685426196
 30
0.0
 10
35.766425963
 20
22.5885293634
 30
0.0
 10
35.7263700317
 20
22.6047854617
 30
0.0
 10
35.6826230774
 20
22.6170179697
 30
0.0
 10
35.6362163474
 20
22.6249814115
 30
0.0
 10
35.5724141413
 20
22.6296663192
 30
0.0
 10
35.5084023703
 20
22.6254429431
 30
0.0
 10
35.4472707813
 20
22.612175618
 30
0.0
 10
35.4050188452
 20
22.5981368997
 30
0.0
 10
35.3668852007
 20
22.580215618
 30
0.0
 10
35.3337491355
 20
22.558666395
 30
0.0
 10
35.3064433329
 20
22.5337716977
 30
0.0
 10
35.2857805935
 20
22.5058556669
 30
0.0
 10
35.2727525823
 20
22.4754085926
 30
0.0
 10
35.2697271174
 20
22.4539309433
 30
0.0
 10
35.2697271174
 20
22.4433822411
 30
0.0
  0
SPLINE
  5
48B
100
AcDbEntity
  8
0
100
AcDbSpline
 62
7
  6
CONTINUOUS
 70
0
 71
3
 72
16
 73
12
 74
0
 42
0.0000001
 43
0.0000001
 44
0.0000000001
 40
0.0
 40
0.0
 40
0.0
 40
0.0
 40
0.1478893786
 40
0.2934714232
 40
0.4336646458
 40
0.5661082752
 40
0.6889976337
 40
0.8015913549
 40
0.9044839772
 40
0.9529980765
 40
1.0
 40
1.0
 40
1.0
 40
1.0
 10
32.9153531878
 20
21.6077591701
 30
0.0
 10
32.8780918402
 20
21.6086148415
 30
0.0
 10
32.8040042291
 20
21.6064568053
 30
0.0
 10
32.695491234
 20
21.5918426209
 30
0.0
 10
32.5930060351
 20
21.5662264051
 30
0.0
 10
32.4996989237
 20
21.5303712663
 30
0.0
 10
32.4183338129
 20
21.4851435751
 30
0.0
 10
32.3513616401
 20
21.4316242299
 30
0.0
 10
32.3085459067
 20
21.3798386682
 30
0.0
 10
32.284580712
 20
21.3358088106
 30
0.0
 10
32.2760348734
 20
21.3131993575
 30
0.0
 10
32.2726874395
 20
21.3018367235
 30
0.0
  0
SPLINE
  5
48C
100
AcDbEntity
  8
0
100
AcDbSpline
 62
7
  6
CONTINUOUS
 70
0
 71
3
 72
9
 73
5
 74
0
 42
0.0000001
 43
0.0000001
 44
0.0000000001
 40
0.0
 40
0.0
 40
0.0
 40
0.0
 40
0.2512013371
 40
1.0
 40
1.0
 40
1.0
 40
1.0
 10
32.9153531878
 20
21.6077591701
 30
0.0
 10
32.9173933275
 20
21.6077123203
 30
0.0
 10
32.9255175974
 20
21.6076915519
 30
0.0
 10
32.9336452681
 20
21.6083099641
 30
0.0
 10
32.9396695798
 20
21.6091528783
 30
0.0
  0
SPLINE
  5
48D
100
AcDbEntity
  8
0
100
AcDbSpline
 62
7
  6
CONTINUOUS
 70
0
 71
3
 72
9
 73
5
 74
0
 42
0.0000001
 43
0.0000001
 44
0.0000000001
 40
0.0
 40
0.0
 40
0.0
 40
0.0
 40
0.2584890851
 40
1.0
 40
1.0
 40
1.0
 40
1.0
 10
32.9396695798
 20
21.6091528783
 30
0.0
 10
32.9416087963
 20
21.609424211
 30
0.0
 10
32.9490875924
 20
21.6106293681
 30
0.0
 10
32.9564736417
 20
21.6124461263
 30
0.0
 10
32.9618141364
 20
21.6141870635
 30
0.0
  0
SPLINE
  5
48E
100
AcDbEntity
  8
0
100
AcDbSpline
 62
7
  6
CONTINUOUS
 70
0
 71
3
 72
9
 73
5
 74
0
 42
0.0000001
 43
0.0000001
 44
0.0000000001
 40
0.0
 40
0.0
 40
0.0
 40
0.0
 40
0.2660525531
 40
1.0
 40
1.0
 40
1.0
 40
1.0
 10
32.9618141364
 20
21.6141870635
 30
0.0
 10
32.9634503644
 20
21.6147204542
 30
0.0
 10
32.9695513252
 20
21.616867868
 30
0.0
 10
32.9754675352
 20
21.619575746
 30
0.0
 10
32.9795790531
 20
21.621949532
 30
0.0
  0
SPLINE
  5
48F
100
AcDbEntity
  8
0
100
AcDbSpline
 62
7
  6
CONTINUOUS
 70
0
 71
3
 72
11
 73
7
 74
0
 42
0.0000001
 43
0.0000001
 44
0.0000000001
 40
0.0
 40
0.0
 40
0.0
 40
0.0
 40
0.2405384244
 40
0.4849155103
 40
0.7369613033
 40
1.0
 40
1.0
 40
1.0
 40
1.0
 10
32.2632498692
 20
21.0127647075
 30
0.0
 10
32.2632498692
 20
20.9993204559
 30
0.0
 10
32.2657492335
 20
20.9721580563
 30
0.0
 10
32.2767597703
 20
20.9322616698
 30
0.0
 10
32.2948122797
 20
20.8936449661
 30
0.0
 10
32.3108957211
 20
20.8696278217
 30
0.0
 10
32.3198682981
 20
20.8579814883
 30
0.0
  0
SPLINE
  5
490
100
AcDbEntity
  8
0
100
AcDbSpline
 62
7
  6
CONTINUOUS
 70
0
 71
3
 72
9
 73
5
 74
0
 42
0.0000001
 43
0.0000001
 44
0.0000000001
 40
0.0
 40
0.0
 40
0.0
 40
0.0
 40
0.2407693451
 40
1.0
 40
1.0
 40
1.0
 40
1.0
 10
32.3479106791
 20
20.8258631839
 30
0.0
 10
32.3532372448
 20
20.8204354154
 30
0.0
 10
32.3760244385
 20
20.7985463591
 30
0.0
 10
32.4012436206
 20
20.7792488841
 30
0.0
 10
32.4212209846
 20
20.765983335
 30
0.0
  0
SPLINE
  5
491
100
AcDbEntity
  8
0
100
AcDbSpline
 62
7
  6
CONTINUOUS
 70
0
 71
3
 72
9
 73
5
 74
0
 42
0.0000001
 43
0.0000001
 44
0.0000000001
 40
0.0
 40
0.0
 40
0.0
 40
0.0
 40
0.245146841
 40
1.0
 40
1.0
 40
1.0
 40
1.0
 10
32.4432191737
 20
20.7521172782
 30
0.0
 10
32.4475082074
 20
20.749550363
 30
0.0
 10
32.4651394712
 20
20.7393067985
 30
0.0
 10
32.48328668
 20
20.7299570994
 30
0.0
 10
32.4971995053
 20
20.723374948
 30
0.0
  0
SPLINE
  5
492
100
AcDbEntity
  8
0
100
AcDbSpline
 62
7
  6
CONTINUOUS
 70
0
 71
3
 72
9
 73
5
 74
0
 42
0.0000001
 43
0.0000001
 44
0.0000000001
 40
0.0
 40
0.0
 40
0.0
 40
0.0
 40
0.2439708287
 40
1.0
 40
1.0
 40
1.0
 40
1.0
 10
32.4971995053
 20
20.723374948
 30
0.0
 10
32.5041847901
 20
20.7200702129
 30
0.0
 10
32.5330461509
 20
20.7070128317
 30
0.0
 10
32.5627648667
 20
20.6958735492
 30
0.0
 10
32.5855293981
 20
20.6884427737
 30
0.0
  0
SPLINE
  5
493
100
AcDbEntity
  8
0
100
AcDbSpline
 62
7
  6
CONTINUOUS
 70
0
 71
3
 72
15
 73
11
 74
0
 42
0.0000001
 43
0.0000001
 44
0.0000000001
 40
0.0
 40
0.0
 40
0.0
 40
0.0
 40
0.1222372168
 40
0.2488068927
 40
0.3780084602
 40
0.508015414
 40
0.6369464246
 40
0.76298846
 40
0.8844722269
 40
1.0
 40
1.0
 40
1.0
 40
1.0
 10
32.5855293981
 20
20.6884427737
 30
0.0
 10
32.6132108229
 20
20.6794070309
 30
0.0
 10
32.6705499317
 20
20.6639575473
 30
0.0
 10
32.7594305183
 20
20.6487975135
 30
0.0
 10
32.8511515139
 20
20.6414209636
 30
0.0
 10
32.9437253836
 20
20.6419965036
 30
0.0
 10
33.0351543527
 20
20.6505161353
 30
0.0
 10
33.1234752003
 20
20.666786774
 30
0.0
 10
33.2067812383
 20
20.6905025773
 30
0.0
 10
33.2593163835
 20
20.7115601055
 30
0.0
 10
33.284195349
 20
20.7233251644
 30
0.0
  0
SPLINE
  5
494
100
AcDbEntity
  8
0
100
AcDbSpline
 62
7
  6
CONTINUOUS
 70
0
 71
3
 72
9
 73
5
 74
0
 42
0.0000001
 43
0.0000001
 44
0.0000000001
 40
0.0
 40
0.0
 40
0.0
 40
0.0
 40
0.5224892782
 40
1.0
 40
1.0
 40
1.0
 40
1.0
 10
33.284195349
 20
20.7233251644
 30
0.0
 10
33.312824157
 20
20.7368634931
 30
0.0
 10
33.3659361987
 20
20.7666009159
 30
0.0
 10
33.4132702378
 20
20.8051650848
 30
0.0
 10
33.433545427
 20
20.8258187796
 30
0.0
  0
SPLINE
  5
495
100
AcDbEntity
  8
0
100
AcDbSpline
 62
7
  6
CONTINUOUS
 70
0
 71
3
 72
11
 73
7
 74
0
 42
0.0000001
 43
0.0000001
 44
0.0000000001
 40
0.0
 40
0.0
 40
0.0
 40
0.0
 40
0.263039452
 40
0.515086586
 40
0.7594650457
 40
1.0
 40
1.0
 40
1.0
 40
1.0
 10
33.4616193211
 20
20.8579655441
 30
0.0
 10
33.4705937146
 20
20.8696127434
 30
0.0
 10
33.486680431
 20
20.8936320008
 30
0.0
 10
33.5047369713
 20
20.9322526776
 30
0.0
 10
33.5157498806
 20
20.9721535263
 30
0.0
 10
33.5182498692
 20
20.9993190474
 30
0.0
 10
33.5182498692
 20
21.0127647075
 30
0.0
  0
SPLINE
  5
496
100
AcDbEntity
  8
0
100
AcDbSpline
 62
7
  6
CONTINUOUS
 70
0
 71
3
 72
9
 73
5
 74
0
 42
0.0000001
 43
0.0000001
 44
0.0000000001
 40
0.0
 40
0.0
 40
0.0
 40
0.0
 40
0.2753531061
 40
1.0
 40
1.0
 40
1.0
 40
1.0
 10
33.5385157882
 20
21.0525883783
 30
0.0
 10
33.537332629
 20
21.0519401432
 30
0.0
 10
33.5331012696
 20
21.0494725805
 30
0.0
 10
33.5291111643
 20
21.0465608459
 30
0.0
 10
33.5265047243
 20
21.0441500313
 30
0.0
  0
SPLINE
  5
497
100
AcDbEntity
  8
0
100
AcDbSpline
 62
7
  6
CONTINUOUS
 70
0
 71
3
 72
9
 73
5
 74
0
 42
0.0000001
 43
0.0000001
 44
0.0000000001
 40
0.0
 40
0.0
 40
0.0
 40
0.0
 40
0.2883288748
 40
1.0
 40
1.0
 40
1.0
 40
1.0
 10
33.5265047243
 20
21.0441500313
 30
0.0
 10
33.5257348348
 20
21.0434379255
 30
0.0
 10
33.5231578616
 20
21.0408742196
 30
0.0
 10
33.5209234096
 20
21.0379324737
 30
0.0
 10
33.5197185053
 20
21.0356414731
 30
0.0
  0
SPLINE
  5
498
100
AcDbEntity
  8
0
100
AcDbSpline
 62
7
  6
CONTINUOUS
 70
0
 71
3
 72
9
 73
5
 74
0
 42
0.0000001
 43
0.0000001
 44
0.0000000001
 40
0.0
 40
0.0
 40
0.0
 40
0.0
 40
0.2327927573
 40
1.0
 40
1.0
 40
1.0
 40
1.0
 10
35.346873867
 20
22.0433605503
 30
0.0
 10
35.3483643505
 20
22.0441771638
 30
0.0
 10
35.3548838231
 20
22.0474704413
 30
0.0
 10
35.3617885406
 20
22.0499740433
 30
0.0
 10
35.3671729978
 20
22.051516678
 30
0.0
  0
SPLINE
  5
499
100
AcDbEntity
  8
0
100
AcDbSpline
 62
7
  6
CONTINUOUS
 70
0
 71
3
 72
9
 73
5
 74
0
 42
0.0000001
 43
0.0000001
 44
0.0000000001
 40
0.0
 40
0.0
 40
0.0
 40
0.0
 40
0.2417534382
 40
1.0
 40
1.0
 40
1.0
 40
1.0
 10
35.3671729978
 20
22.051516678
 30
0.0
 10
35.369153637
 20
22.0520841267
 30
0.0
 10
35.3774071524
 20
22.0542163531
 30
0.0
 10
35.3858637399
 20
22.0555421261
 30
0.0
 10
35.3922990074
 20
22.0561302992
 30
0.0
  0
SPLINE
  5
49A
100
AcDbEntity
  8
0
100
AcDbSpline
 62
7
  6
CONTINUOUS
 70
0
 71
3
 72
9
 73
5
 74
0
 42
0.0000001
 43
0.0000001
 44
0.0000000001
 40
0.0
 40
0.0
 40
0.0
 40
0.0
 40
0.2553372083
 40
1.0
 40
1.0
 40
1.0
 40
1.0
 10
35.419213795
 20
22.0561913385
 30
0.0
 10
35.4209990121
 20
22.0560362746
 30
0.0
 10
35.4279786278
 20
22.0553012078
 30
0.0
 10
35.4349080954
 20
22.054067432
 30
0.0
 10
35.4399886029
 20
22.0528429172
 30
0.0
  0
SPLINE
  5
49B
100
AcDbEntity
  8
0
100
AcDbSpline
 62
7
  6
CONTINUOUS
 70
0
 71
3
 72
20
 73
16
 74
0
 42
0.0000001
 43
0.0000001
 44
0.0000000001
 40
0.0
 40
0.0
 40
0.0
 40
0.0
 40
0.0691283023
 40
0.1401943214
 40
0.2847482351
 40
0.427948963
 40
0.5644277088
 40
0.6288118608
 40
0.6900874748
 40
0.7481188064
 40
0.8029990626
 40
0.8550129984
 40
0.9046770961
 40
0.9527772984
 40
1.0
 40
1.0
 40
1.0
 40
1.0
 10
35.4444831665
 20
22.0516707114
 30
0.0
 10
35.4560616384
 20
22.0484137717
 30
0.0
 10
35.4798381163
 20
22.0428182901
 30
0.0
 10
35.5288391436
 20
22.0352537943
 30
0.0
 10
35.5914749049
 20
22.0327484498
 30
0.0
 10
35.6651243615
 20
22.0405380702
 30
0.0
 10
35.7232898349
 20
22.0559678711
 30
0.0
 10
35.7654198828
 20
22.0736027814
 30
0.0
 10
35.7935739551
 20
22.0888592951
 30
0.0
 10
35.8184822362
 20
22.1062525269
 30
0.0
 10
35.8397699058
 20
22.1256312935
 30
0.0
 10
35.8570518697
 20
22.1468345713
 30
0.0
 10
35.8699031537
 20
22.1696776554
 30
0.0
 10
35.8778373914
 20
22.193794195
 30
0.0
 10
35.8797017231
 20
22.2104222076
 30
0.0
 10
35.8797241597
 20
22.2186385883
 30
0.0
  0
SPLINE
  5
49C
100
AcDbEntity
  8
0
100
AcDbSpline
 62
7
  6
CONTINUOUS
 70
0
 71
3
 72
9
 73
5
 74
0
 42
0.0000001
 43
0.0000001
 44
0.0000000001
 40
0.0
 40
0.0
 40
0.0
 40
0.0
 40
0.4745180797
 40
1.0
 40
1.0
 40
1.0
 40
1.0
 10
35.4631493302
 20
22.7186539549
 30
0.0
 10
35.4661384652
 20
22.7204742453
 30
0.0
 10
35.4727266174
 20
22.7238418535
 30
0.0
 10
35.4796513921
 20
22.7264253724
 30
0.0
 10
35.4833469248
 20
22.7275931448
 30
0.0
  0
SPLINE
  5
49D
100
AcDbEntity
  8
0
100
AcDbSpline
 62
7
  6
CONTINUOUS
 70
0
 71
3
 72
9
 73
5
 74
0
 42
0.0000001
 43
0.0000001
 44
0.0000000001
 40
0.0
 40
0.0
 40
0.0
 40
0.0
 40
0.2403783718
 40
1.0
 40
1.0
 40
1.0
 40
1.0
 10
35.4833469248
 20
22.7275931448
 30
0.0
 10
35.4853635144
 20
22.7282303785
 30
0.0
 10
35.4938266503
 20
22.7306443495
 30
0.0
 10
35.5025341781
 20
22.7321765658
 30
0.0
 10
35.5091791696
 20
22.732890525
 30
0.0
  0
SPLINE
  5
49E
100
AcDbEntity
  8
0
100
AcDbSpline
 62
7
  6
CONTINUOUS
 70
0
 71
3
 72
9
 73
5
 74
0
 42
0.0000001
 43
0.0000001
 44
0.0000000001
 40
0.0
 40
0.0
 40
0.0
 40
0.0
 40
0.2555031776
 40
1.0
 40
1.0
 40
1.0
 40
1.0
 10
35.5372856244
 20
22.7332783587
 30
0.0
 10
35.5391788866
 20
22.7331284656
 30
0.0
 10
35.5465764213
 20
22.7323986932
 30
0.0
 10
35.5539219973
 20
22.7311124507
 30
0.0
 10
35.5593009546
 20
22.7298119609
 30
0.0
  0
SPLINE
  5
49F
100
AcDbEntity
  8
0
100
AcDbSpline
 62
7
  6
CONTINUOUS
 70
0
 71
3
 72
20
 73
16
 74
0
 42
0.0000001
 43
0.0000001
 44
0.0000000001
 40
0.0
 40
0.0
 40
0.0
 40
0.0
 40
0.0693733387
 40
0.1407125368
 40
0.2858688449
 40
0.429685249
 40
0.5666461382
 40
0.6311812466
 40
0.692515998
 40
0.7505025349
 40
0.8051862734
 40
0.8568418513
 40
0.9060404437
 40
0.9534975147
 40
1.0
 40
1.0
 40
1.0
 40
1.0
 10
35.5637572168
 20
22.7286468941
 30
0.0
 10
35.5778561947
 20
22.7246735129
 30
0.0
 10
35.6068136586
 20
22.7178440814
 30
0.0
 10
35.6665092782
 20
22.7086022696
 30
0.0
 10
35.7428354649
 20
22.7055189791
 30
0.0
 10
35.8325766454
 20
22.7149595555
 30
0.0
 10
35.9034292522
 20
22.7337141761
 30
0.0
 10
35.9547071639
 20
22.7551346971
 30
0.0
 10
35.988911633
 20
22.7736526196
 30
0.0
 10
36.0191211099
 20
22.7947190489
 30
0.0
 10
36.044868403
 20
22.8181426855
 30
0.0
 10
36.0657023597
 20
22.8437120156
 30
0.0
 10
36.0810948596
 20
22.8711887442
 30
0.0
 10
36.0905979107
 20
22.9000892601
 30
0.0
 10
36.0927394312
 20
22.919997368
 30
0.0
 10
36.0927051285
 20
22.929816302
 30
0.0
  0
SPLINE
  5
4A0
100
AcDbEntity
  8
0
100
AcDbSpline
 62
7
  6
CONTINUOUS
 70
0
 71
3
 72
9
 73
5
 74
0
 42
0.0000001
 43
0.0000001
 44
0.0000000001
 40
0.0
 40
0.0
 40
0.0
 40
0.0
 40
0.5062043655
 40
1.0
 40
1.0
 40
1.0
 40
1.0
 10
27.6622517722
 20
17.0985551375
 30
0.0
 10
27.6655725231
 20
17.0903825256
 30
0.0
 10
27.6708825572
 20
17.0736927757
 30
0.0
 10
27.6732906231
 20
17.0563327037
 30
0.0
 10
27.6737154106
 20
17.0477379325
 30
0.0
  0
SPLINE
  5
4A1
100
AcDbEntity
  8
0
100
AcDbSpline
 62
7
  6
CONTINUOUS
 70
0
 71
3
 72
11
 73
7
 74
0
 42
0.0000001
 43
0.0000001
 44
0.0000000001
 40
0.0
 40
0.0
 40
0.0
 40
0.0
 40
0.2408735692
 40
0.485580362
 40
0.7376341568
 40
1.0
 40
1.0
 40
1.0
 40
1.0
 10
32.3207525321
 20
20.7923106306
 30
0.0
 10
32.3207525321
 20
20.7824329753
 30
0.0
 10
32.3223129246
 20
20.7624863297
 30
0.0
 10
32.3293189948
 20
20.7329463261
 30
0.0
 10
32.3408902214
 20
20.7039373172
 30
0.0
 10
32.35133273
 20
20.6855275692
 30
0.0
 10
32.3572032137
 20
20.6765112751
 30
0.0
  0
SPLINE
  5
4A2
100
AcDbEntity
  8
0
100
AcDbSpline
 62
7
  6
CONTINUOUS
 70
0
 71
3
 72
9
 73
5
 74
0
 42
0.0000001
 43
0.0000001
 44
0.0000000001
 40
0.0
 40
0.0
 40
0.0
 40
0.0
 40
0.4755886199
 40
1.0
 40
1.0
 40
1.0
 40
1.0
 10
32.3572032137
 20
20.6765112751
 30
0.0
 10
32.3690372628
 20
20.6583357255
 30
0.0
 10
32.3986537751
 20
20.6231202267
 30
0.0
 10
32.4343662685
 20
20.594370521
 30
0.0
 10
32.4540649512
 20
20.5808097771
 30
0.0
  0
SPLINE
  5
4A3
100
AcDbEntity
  8
0
100
AcDbSpline
 62
7
  6
CONTINUOUS
 70
0
 71
3
 72
14
 73
10
 74
0
 42
0.0000001
 43
0.0000001
 44
0.0000000001
 40
0.0
 40
0.0
 40
0.0
 40
0.0
 40
0.2842335082
 40
0.4161041354
 40
0.5416293307
 40
0.6615994888
 40
0.777079623
 40
0.889369709
 40
1.0
 40
1.0
 40
1.0
 40
1.0
 10
27.6705805377
 20
17.1025343424
 30
0.0
 10
27.6908649923
 20
17.1164983366
 30
0.0
 10
27.7191030593
 20
17.1393466511
 30
0.0
 10
27.7506587447
 20
17.1741776708
 30
0.0
 10
27.7698363443
 20
17.200753206
 30
0.0
 10
27.7849316029
 20
17.2282409117
 30
0.0
 10
27.7958318199
 20
17.2564329416
 30
0.0
 10
27.8024248806
 20
17.2851046594
 30
0.0
 10
27.8038929569
 20
17.3044500864
 30
0.0
 10
27.8038929569
 20
17.3140351959
 30
0.0
  0
SPLINE
  5
4A4
100
AcDbEntity
  8
0
100
AcDbSpline
 62
7
  6
CONTINUOUS
 70
0
 71
3
 72
9
 73
5
 74
0
 42
0.0000001
 43
0.0000001
 44
0.0000000001
 40
0.0
 40
0.0
 40
0.0
 40
0.0
 40
0.2551970672
 40
1.0
 40
1.0
 40
1.0
 40
1.0
 10
26.7972107017
 20
17.1025343424
 30
0.0
 10
26.7941568364
 20
17.1046366497
 30
0.0
 10
26.7822882354
 20
17.1130156823
 30
0.0
 10
26.7708212996
 20
17.121967824
 30
0.0
 10
26.7625708028
 20
17.1289688424
 30
0.0
  0
SPLINE
  5
4A5
100
AcDbEntity
  8
0
100
AcDbSpline
 62
7
  6
CONTINUOUS
 70
0
 71
3
 72
17
 73
13
 74
0
 42
0.0000001
 43
0.0000001
 44
0.0000000001
 40
0.0
 40
0.0
 40
0.0
 40
0.0
 40
0.0558167343
 40
0.1142106115
 40
0.2373771487
 40
0.3669971008
 40
0.5
 40
0.6330028992
 40
0.7626228513
 40
0.8857893885
 40
0.9441832657
 40
1.0
 40
1.0
 40
1.0
 40
1.0
 10
27.636946485
 20
17.0813336703
 30
0.0
 10
27.6234528977
 20
17.0735431441
 30
0.0
 10
27.5951361832
 20
17.0588017802
 30
0.0
 10
27.5341405561
 20
17.0327831032
 30
0.0
 10
27.4507536225
 20
17.0074390408
 30
0.0
 10
27.3443968852
 20
16.9890683146
 30
0.0
 10
27.2338956197
 20
16.9828599189
 30
0.0
 10
27.1233943543
 20
16.9890683146
 30
0.0
 10
27.017037617
 20
17.0074390408
 30
0.0
 10
26.9336506834
 20
17.0327831032
 30
0.0
 10
26.8726550563
 20
17.0588017802
 30
0.0
 10
26.8443383418
 20
17.0735431441
 30
0.0
 10
26.8308447545
 20
17.0813336703
 30
0.0
  0
SPLINE
  5
4A6
100
AcDbEntity
  8
0
100
AcDbSpline
 62
7
  6
CONTINUOUS
 70
0
 71
3
 72
9
 73
5
 74
0
 42
0.0000001
 43
0.0000001
 44
0.0000000001
 40
0.0
 40
0.0
 40
0.0
 40
0.0
 40
0.5061744098
 40
1.0
 40
1.0
 40
1.0
 40
1.0
 10
27.7893128864
 20
17.453303685
 30
0.0
 10
27.7940517497
 20
17.4414395445
 30
0.0
 10
27.8013858817
 20
17.417118951
 30
0.0
 10
27.8038929569
 20
17.3918187944
 30
0.0
 10
27.8038929569
 20
17.3793549224
 30
0.0
  0
SPLINE
  5
4A7
100
AcDbEntity
  8
0
100
AcDbSpline
 62
7
  6
CONTINUOUS
 70
0
 71
3
 72
9
 73
5
 74
0
 42
0.0000001
 43
0.0000001
 44
0.0000000001
 40
0.0
 40
0.0
 40
0.0
 40
0.0
 40
0.5244113801
 40
1.0
 40
1.0
 40
1.0
 40
1.0
 10
27.6705805377
 20
17.3148234534
 30
0.0
 10
27.6902792205
 20
17.3283841973
 30
0.0
 10
27.7259917139
 20
17.357133903
 30
0.0
 10
27.7556082261
 20
17.3923494018
 30
0.0
 10
27.7674422753
 20
17.4105249514
 30
0.0
  0
SPLINE
  5
4A8
100
AcDbEntity
  8
0
100
AcDbSpline
 62
7
  6
CONTINUOUS
 70
0
 71
3
 72
11
 73
7
 74
0
 42
0.0000001
 43
0.0000001
 44
0.0000000001
 40
0.0
 40
0.0
 40
0.0
 40
0.0
 40
0.2623658432
 40
0.514419638
 40
0.7591264308
 40
1.0
 40
1.0
 40
1.0
 40
1.0
 10
27.7674422753
 20
17.4105249514
 30
0.0
 10
27.773312759
 20
17.4195412455
 30
0.0
 10
27.7837552676
 20
17.4379509935
 30
0.0
 10
27.7953264941
 20
17.4669600024
 30
0.0
 10
27.8023325643
 20
17.496500006
 30
0.0
 10
27.8038929569
 20
17.5164466516
 30
0.0
 10
27.8038929569
 20
17.5263243069
 30
0.0
  0
SPLINE
  5
4A9
100
AcDbEntity
  8
0
100
AcDbSpline
 62
7
  6
CONTINUOUS
 70
0
 71
3
 72
9
 73
5
 74
0
 42
0.0000001
 43
0.0000001
 44
0.0000000001
 40
0.0
 40
0.0
 40
0.0
 40
0.0
 40
0.4938255902
 40
1.0
 40
1.0
 40
1.0
 40
1.0
 10
32.3207525321
 20
20.6453412461
 30
0.0
 10
32.3207525321
 20
20.6578051181
 30
0.0
 10
32.3232596073
 20
20.6831052747
 30
0.0
 10
32.3305937393
 20
20.7074258682
 30
0.0
 10
32.3353326026
 20
20.7192900087
 30
0.0
  0
SPLINE
  5
4AA
100
AcDbEntity
  8
0
100
AcDbSpline
 62
7
  6
CONTINUOUS
 70
0
 71
3
 72
15
 73
11
 74
0
 42
0.0000001
 43
0.0000001
 44
0.0000000001
 40
0.0
 40
0.0
 40
0.0
 40
0.0
 40
0.1232423555
 40
0.2514229714
 40
0.3823918019
 40
0.5138332724
 40
0.643417104
 40
0.7688892217
 40
0.8883298682
 40
1.0
 40
1.0
 40
1.0
 40
1.0
 10
26.948604713
 20
17.2414206097
 30
0.0
 10
26.9762144883
 20
17.2322048743
 30
0.0
 10
27.0336639902
 20
17.2166516824
 30
0.0
 10
27.1229276105
 20
17.2020523211
 30
0.0
 10
27.2151159395
 20
17.1959574805
 30
0.0
 10
27.307796892
 20
17.1985440315
 30
0.0
 10
27.3985317532
 20
17.2097439428
 30
0.0
 10
27.4849656133
 20
17.2292557785
 30
0.0
 10
27.5647998228
 20
17.2565876025
 30
0.0
 10
27.6141058487
 20
17.2804357339
 30
0.0
 10
27.636946485
 20
17.2936227814
 30
0.0
  0
SPLINE
  5
4AB
100
AcDbEntity
  8
0
100
AcDbSpline
 62
7
  6
CONTINUOUS
 70
0
 71
3
 72
9
 73
5
 74
0
 42
0.0000001
 43
0.0000001
 44
0.0000000001
 40
0.0
 40
0.0
 40
0.0
 40
0.0
 40
0.4937466094
 40
1.0
 40
1.0
 40
1.0
 40
1.0
 10
32.4509180257
 20
20.313441162
 30
0.0
 10
32.4513323362
 20
20.3221302423
 30
0.0
 10
32.4537511885
 20
20.3396851925
 30
0.0
 10
32.4591335135
 20
20.3565558086
 30
0.0
 10
32.4625042266
 20
20.3648136656
 30
0.0
  0
SPLINE
  5
4AC
100
AcDbEntity
  8
0
100
AcDbSpline
 62
7
  6
CONTINUOUS
 70
0
 71
3
 72
14
 73
10
 74
0
 42
0.0000001
 43
0.0000001
 44
0.0000000001
 40
0.0
 40
0.0
 40
0.0
 40
0.0
 40
0.1080737018
 40
0.2181564118
 40
0.3321105751
 40
0.4515004065
 40
0.7105267255
 40
0.8515848368
 40
1.0
 40
1.0
 40
1.0
 40
1.0
 10
29.6873295768
 20
20.3365872801
 30
0.0
 10
29.6873259881
 20
20.3436914644
 30
0.0
 10
29.6885503058
 20
20.3580608804
 30
0.0
 10
29.6940268133
 20
20.3792899635
 30
0.0
 10
29.7031052695
 20
20.4000585526
 30
0.0
 10
29.7202862196
 20
20.4275985636
 30
0.0
 10
29.7440812221
 20
20.4526250262
 30
0.0
 10
29.7726124724
 20
20.4747056354
 30
0.0
 10
29.7887087435
 20
20.4849206392
 30
0.0
 10
29.7971577015
 20
20.4897986474
 30
0.0
  0
SPLINE
  5
4AD
100
AcDbEntity
  8
0
100
AcDbSpline
 62
7
  6
CONTINUOUS
 70
0
 71
3
 72
15
 73
11
 74
0
 42
0.0000001
 43
0.0000001
 44
0.0000000001
 40
0.0
 40
0.0
 40
0.0
 40
0.0
 40
0.1079991679
 40
0.2180481103
 40
0.3319907229
 40
0.451332759
 40
0.5772409728
 40
0.7105180911
 40
0.8515123916
 40
1.0
 40
1.0
 40
1.0
 40
1.0
 10
29.4948231122
 20
19.8370070568
 30
0.0
 10
29.4948236734
 20
19.8262649194
 30
0.0
 10
29.4966867154
 20
19.8045326038
 30
0.0
 10
29.5050248932
 20
19.7724356993
 30
0.0
 10
29.5187648605
 20
19.741026161
 30
0.0
 10
29.537749378
 20
19.7106257102
 30
0.0
 10
29.5617708882
 20
19.6815085961
 30
0.0
 10
29.5905861823
 20
19.6539298319
 30
0.0
 10
29.6238960483
 20
19.6281581661
 30
0.0
 10
29.6482490397
 20
19.6127133862
 30
0.0
 10
29.6610396462
 20
19.6053287261
 30
0.0
  0
SPLINE
  5
4AE
100
AcDbEntity
  8
0
100
AcDbSpline
 62
7
  6
CONTINUOUS
 70
0
 71
3
 72
10
 73
6
 74
0
 42
0.0000001
 43
0.0000001
 44
0.0000000001
 40
0.0
 40
0.0
 40
0.0
 40
0.0
 40
0.2426992614
 40
0.4886741397
 40
1.0
 40
1.0
 40
1.0
 40
1.0
 10
29.4948231121
 20
20.3473176604
 30
0.0
 10
29.4948226603
 20
20.3561849645
 30
0.0
 10
29.4960855
 20
20.3740681194
 30
0.0
 10
29.5037253299
 20
20.4098834284
 30
0.0
 10
29.5150035359
 20
20.435577652
 30
0.0
 10
29.5244038257
 20
20.4517222399
 30
0.0
  0
SPLINE
  5
4AF
100
AcDbEntity
  8
0
100
AcDbSpline
 62
7
  6
CONTINUOUS
 70
0
 71
3
 72
15
 73
11
 74
0
 42
0.0000001
 43
0.0000001
 44
0.0000000001
 40
0.0
 40
0.0
 40
0.0
 40
0.0
 40
0.1079977739
 40
0.2180485922
 40
0.3319906157
 40
0.4513320987
 40
0.5772413302
 40
0.7105225537
 40
0.8515176182
 40
1.0
 40
1.0
 40
1.0
 40
1.0
 10
29.5898231514
 20
20.3473082788
 30
0.0
 10
29.5898240818
 20
20.3383648485
 30
0.0
 10
29.5913762093
 20
20.3202712472
 30
0.0
 10
29.5983204352
 20
20.2935490879
 30
0.0
 10
29.6097594559
 20
20.2673983278
 30
0.0
 10
29.625566763
 20
20.2420887805
 30
0.0
 10
29.6455665508
 20
20.2178466386
 30
0.0
 10
29.6695583128
 20
20.1948858898
 30
0.0
 10
29.6972910211
 20
20.1734294085
 30
0.0
 10
29.7175661324
 20
20.1605706824
 30
0.0
 10
29.7282147904
 20
20.1544226768
 30
0.0
  0
SPLINE
  5
4B0
100
AcDbEntity
  8
0
100
AcDbSpline
 62
7
  6
CONTINUOUS
 70
0
 71
3
 72
15
 73
11
 74
0
 42
0.0000001
 43
0.0000001
 44
0.0000000001
 40
0.0
 40
0.0
 40
0.0
 40
0.0
 40
0.1502075282
 40
0.2968748292
 40
0.4365647511
 40
0.5669874094
 40
0.6871512163
 40
0.7977618647
 40
0.900919124
 40
1.0
 40
1.0
 40
1.0
 40
1.0
 10
26.983903025
 20
17.0211313012
 30
0.0
 10
26.9873035114
 20
17.0167396064
 30
0.0
 10
26.9935365647
 20
17.0076672261
 30
0.0
 10
27.0009839175
 20
16.9932910799
 30
0.0
 10
27.0060089254
 20
16.9786538356
 30
0.0
 10
27.0083087671
 20
16.9643182562
 30
0.0
 10
27.0076292916
 20
16.9508669011
 30
0.0
 10
27.0040182402
 20
16.9389060796
 30
0.0
 10
26.997615141
 20
16.9290754899
 30
0.0
 10
26.9917110647
 20
16.9242518521
 30
0.0
 10
26.9885389997
 20
16.9224184978
 30
0.0
  0
SPLINE
  5
4B1
100
AcDbEntity
  8
0
100
AcDbSpline
 62
7
  6
CONTINUOUS
 70
0
 71
3
 72
10
 73
6
 74
0
 42
0.0000001
 43
0.0000001
 44
0.0000000001
 40
0.0
 40
0.0
 40
0.0
 40
0.0
 40
0.2741209736
 40
0.532282939
 40
1.0
 40
1.0
 40
1.0
 40
1.0
 10
32.487699004
 20
20.4126397205
 30
0.0
 10
32.4730710824
 20
20.421085155
 30
0.0
 10
32.4454052648
 20
20.4388580567
 30
0.0
 10
32.3974174778
 20
20.4775637063
 30
0.0
 10
32.3676716099
 20
20.5120017599
 30
0.0
 10
32.352736371
 20
20.536649824
 30
0.0
  0
SPLINE
  5
4B2
100
AcDbEntity
  8
0
100
AcDbSpline
 62
7
  6
CONTINUOUS
 70
0
 71
3
 72
11
 73
7
 74
0
 42
0.0000001
 43
0.0000001
 44
0.0000000001
 40
0.0
 40
0.0
 40
0.0
 40
0.0
 40
0.2610066294
 40
0.5128096562
 40
0.7580950044
 40
1.0
 40
1.0
 40
1.0
 40
1.0
 10
32.352736371
 20
20.536649824
 30
0.0
 10
32.3475673607
 20
20.5451803937
 30
0.0
 10
32.3383856936
 20
20.562560534
 30
0.0
 10
32.3282457444
 20
20.5897892659
 30
0.0
 10
32.3221166239
 20
20.6174506817
 30
0.0
 10
32.3207525321
 20
20.636096788
 30
0.0
 10
32.3207525321
 20
20.6453412461
 30
0.0
  0
SPLINE
  5
4B3
100
AcDbEntity
  8
0
100
AcDbSpline
 62
7
  6
CONTINUOUS
 70
0
 71
3
 72
17
 73
13
 74
0
 42
0.0000001
 43
0.0000001
 44
0.0000000001
 40
0.0
 40
0.0
 40
0.0
 40
0.0
 40
0.0558167343
 40
0.1142106115
 40
0.2373771487
 40
0.3669971008
 40
0.5
 40
0.6330028992
 40
0.7626228513
 40
0.8857893885
 40
0.9441832657
 40
1.0
 40
1.0
 40
1.0
 40
1.0
 10
33.2938007345
 20
20.4126397205
 30
0.0
 10
33.2803071472
 20
20.4048491942
 30
0.0
 10
33.2519904327
 20
20.3901078304
 30
0.0
 10
33.1909948056
 20
20.3640891534
 30
0.0
 10
33.107607872
 20
20.338745091
 30
0.0
 10
33.0012511347
 20
20.3203743648
 30
0.0
 10
32.8907498692
 20
20.3141659691
 30
0.0
 10
32.7802486038
 20
20.3203743648
 30
0.0
 10
32.6738918665
 20
20.338745091
 30
0.0
 10
32.5905049329
 20
20.3640891534
 30
0.0
 10
32.5295093057
 20
20.3901078304
 30
0.0
 10
32.5011925913
 20
20.4048491942
 30
0.0
 10
32.487699004
 20
20.4126397205
 30
0.0
  0
SPLINE
  5
4B4
100
AcDbEntity
  8
0
100
AcDbSpline
 62
7
  6
CONTINUOUS
 70
0
 71
3
 72
23
 73
19
 74
0
 42
0.0000001
 43
0.0000001
 44
0.0000000001
 40
0.0
 40
0.0
 40
0.0
 40
0.0
 40
0.0428151141
 40
0.0873951949
 40
0.1351796795
 40
0.1870875886
 40
0.2435345238
 40
0.3044926292
 40
0.3695895168
 40
0.4381995338
 40
0.509495847
 40
0.5825323739
 40
0.6562768013
 40
0.7296683916
 40
0.801643954
 40
0.8712499146
 40
0.9376478599
 40
1.0
 40
1.0
 40
1.0
 40
1.0
 10
26.7938956197
 20
16.8772095251
 30
0.0
 10
26.7938947857
 20
16.8646834777
 30
0.0
 10
26.7972528323
 20
16.8390075433
 30
0.0
 10
26.8119694816
 20
16.8019281403
 30
0.0
 10
26.8358714919
 20
16.7667842793
 30
0.0
 10
26.8682561651
 20
16.7342585218
 30
0.0
 10
26.9083880464
 20
16.7049316043
 30
0.0
 10
26.9554127825
 20
16.6793606748
 30
0.0
 10
27.0083385589
 20
16.658029932
 30
0.0
 10
27.0660628406
 20
16.641403341
 30
0.0
 10
27.127356547
 20
16.6297934653
 30
0.0
 10
27.1909239196
 20
16.6234784089
 30
0.0
 10
27.2554081397
 20
16.6225676189
 30
0.0
 10
27.3194299701
 20
16.627097354
 30
0.0
 10
27.3816276789
 20
16.6369558681
 30
0.0
 10
27.4406967304
 20
16.6519445873
 30
0.0
 10
27.4953399093
 20
16.67176736
 30
0.0
 10
27.5292247187
 20
16.6884593643
 30
0.0
 10
27.5450226035
 20
16.6975802773
 30
0.0
  0
SPLINE
  5
4B5
100
AcDbEntity
  8
0
100
AcDbSpline
 62
7
  6
CONTINUOUS
 70
0
 71
3
 72
15
 73
11
 74
0
 42
0.0000001
 43
0.0000001
 44
0.0000000001
 40
0.0
 40
0.0
 40
0.0
 40
0.0
 40
0.1080198438
 40
0.2180702008
 40
0.3319840788
 40
0.4513190231
 40
0.5772529451
 40
0.7106052448
 40
0.8516019961
 40
1.0
 40
1.0
 40
1.0
 40
1.0
 10
27.6738935981
 20
17.0405351556
 30
0.0
 10
27.6738939624
 20
17.032203911
 30
0.0
 10
27.6724409644
 20
17.0153516204
 30
0.0
 10
27.6659931655
 20
16.9904600005
 30
0.0
 10
27.6553453108
 20
16.966103268
 30
0.0
 10
27.6406203422
 20
16.9425340705
 30
0.0
 10
27.6219955746
 20
16.9199449316
 30
0.0
 10
27.5996371595
 20
16.8985629859
 30
0.0
 10
27.5738116542
 20
16.8785770282
 30
0.0
 10
27.5549346887
 20
16.8666023386
 30
0.0
 10
27.5450226035
 20
16.8608795935
 30
0.0
  0
SPLINE
  5
4B6
100
AcDbEntity
  8
0
100
AcDbSpline
 62
7
  6
CONTINUOUS
 70
0
 71
3
 72
17
 73
13
 74
0
 42
0.0000001
 43
0.0000001
 44
0.0000000001
 40
0.0
 40
0.0
 40
0.0
 40
0.0
 40
0.0558167343
 40
0.1142106115
 40
0.2373771487
 40
0.3669971008
 40
0.5
 40
0.6330028992
 40
0.7626228513
 40
0.8857893885
 40
0.9441832657
 40
1.0
 40
1.0
 40
1.0
 40
1.0
 10
33.2938007345
 20
20.6249288316
 30
0.0
 10
33.2803071472
 20
20.6171383053
 30
0.0
 10
33.2519904327
 20
20.6023969414
 30
0.0
 10
33.1909948056
 20
20.5763782644
 30
0.0
 10
33.107607872
 20
20.5510342021
 30
0.0
 10
33.0012511347
 20
20.5326634758
 30
0.0
 10
32.8907498692
 20
20.5264550801
 30
0.0
 10
32.7802486038
 20
20.5326634758
 30
0.0
 10
32.6738918665
 20
20.5510342021
 30
0.0
 10
32.5905049329
 20
20.5763782644
 30
0.0
 10
32.5295093057
 20
20.6023969414
 30
0.0
 10
32.5011925913
 20
20.6171383053
 30
0.0
 10
32.487699004
 20
20.6249288316
 30
0.0
  0
SPLINE
  5
4B7
100
AcDbEntity
  8
0
100
AcDbSpline
 62
9
  6
CONTINUOUS
 70
0
 71
3
 72
11
 73
7
 74
0
 42
0.0000001
 43
0.0000001
 44
0.0000000001
 40
0.0
 40
0.0
 40
0.0
 40
0.0
 40
0.2177670053
 40
0.4517776554
 40
0.7118830878
 40
1.0
 40
1.0
 40
1.0
 40
1.0
 10
26.5876639975
 20
17.9315786209
 30
0.0
 10
26.5883235521
 20
17.9319594149
 30
0.0
 10
26.589842038
 20
17.9325126085
 30
0.0
 10
26.5923659938
 20
17.9325619183
 30
0.0
 10
26.595046835
 20
17.9319127084
 30
0.0
 10
26.5967926576
 20
17.9310896293
 30
0.0
 10
26.5976652822
 20
17.9305858193
 30
0.0
  0
SPLINE
  5
4B8
100
AcDbEntity
  8
0
100
AcDbSpline
 62
7
  6
CONTINUOUS
 70
0
 71
3
 72
9
 73
5
 74
0
 42
0.0000001
 43
0.0000001
 44
0.0000000001
 40
0.0
 40
0.0
 40
0.0
 40
0.0
 40
0.2661745184
 40
1.0
 40
1.0
 40
1.0
 40
1.0
 10
30.43926278
 20
20.1321394983
 30
0.0
 10
30.4459469527
 20
20.1270343549
 30
0.0
 10
30.4703612415
 20
20.1069929798
 30
0.0
 10
30.4918773392
 20
20.083164512
 30
0.0
 10
30.5045400734
 20
20.063739465
 30
0.0
  0
SPLINE
  5
4B9
100
AcDbEntity
  8
0
100
AcDbSpline
 62
7
  6
CONTINUOUS
 70
0
 71
3
 72
10
 73
6
 74
0
 42
0.0000001
 43
0.0000001
 44
0.0000000001
 40
0.0
 40
0.0
 40
0.0
 40
0.0
 40
0.2741209736
 40
0.532282939
 40
1.0
 40
1.0
 40
1.0
 40
1.0
 10
32.487699004
 20
20.6249288316
 30
0.0
 10
32.4730710824
 20
20.633374266
 30
0.0
 10
32.4454052648
 20
20.6511471678
 30
0.0
 10
32.3974174778
 20
20.6898528173
 30
0.0
 10
32.3676716099
 20
20.7242908709
 30
0.0
 10
32.352736371
 20
20.7489389351
 30
0.0
  0
SPLINE
  5
4BA
100
AcDbEntity
  8
0
100
AcDbSpline
 62
7
  6
CONTINUOUS
 70
0
 71
3
 72
11
 73
7
 74
0
 42
0.0000001
 43
0.0000001
 44
0.0000000001
 40
0.0
 40
0.0
 40
0.0
 40
0.0
 40
0.2610066294
 40
0.5128096562
 40
0.7580950044
 40
1.0
 40
1.0
 40
1.0
 40
1.0
 10
32.352736371
 20
20.7489389351
 30
0.0
 10
32.3475673607
 20
20.7574695047
 30
0.0
 10
32.3383856936
 20
20.7748496451
 30
0.0
 10
32.3282457444
 20
20.802078377
 30
0.0
 10
32.3221166239
 20
20.8297397928
 30
0.0
 10
32.3207525321
 20
20.8483858991
 30
0.0
 10
32.3207525321
 20
20.8576303571
 30
0.0
  0
SPLINE
  5
4BB
100
AcDbEntity
  8
0
100
AcDbSpline
 62
7
  6
CONTINUOUS
 70
0
 71
3
 72
15
 73
11
 74
0
 42
0.0000001
 43
0.0000001
 44
0.0000000001
 40
0.0
 40
0.0
 40
0.0
 40
0.0
 40
0.0965881284
 40
0.2082061702
 40
0.3332098151
 40
0.4679221534
 40
0.6074915134
 40
0.7464145282
 40
0.8791247612
 40
1.0
 40
1.0
 40
1.0
 40
1.0
 10
30.5045400734
 20
20.063739465
 30
0.0
 10
30.5032902617
 20
20.0656567169
 30
0.0
 10
30.4998147132
 20
20.0692826029
 30
0.0
 10
30.4930677055
 20
20.0734870108
 30
0.0
 10
30.4847764573
 20
20.0765778579
 30
0.0
 10
30.4754625308
 20
20.0784297627
 30
0.0
 10
30.4656506774
 20
20.0789130728
 30
0.0
 10
30.4559116994
 20
20.0780262753
 30
0.0
 10
30.4468530379
 20
20.0757741694
 30
0.0
 10
30.441299817
 20
20.0733668223
 30
0.0
 10
30.4388194145
 20
20.0719347612
 30
0.0
  0
SPLINE
  5
4BC
100
AcDbEntity
  8
0
100
AcDbSpline
 62
9
  6
CONTINUOUS
 70
0
 71
3
 72
15
 73
11
 74
0
 42
0.0000001
 43
0.0000001
 44
0.0000000001
 40
0.0
 40
0.0
 40
0.0
 40
0.0
 40
0.1080145409
 40
0.2180721822
 40
0.3320002961
 40
0.4513344864
 40
0.577248532
 40
0.7105537617
 40
0.8515501129
 40
1.0
 40
1.0
 40
1.0
 40
1.0
 10
32.2632526245
 20
21.2373012671
 30
0.0
 10
32.2632506467
 20
21.225421603
 30
0.0
 10
32.2653127734
 20
21.2013884408
 30
0.0
 10
32.2745328794
 20
21.1658974046
 30
0.0
 10
32.2897179613
 20
21.1311645353
 30
0.0
 10
32.310717017
 20
21.0975561427
 30
0.0
 10
32.3372761824
 20
21.0653549939
 30
0.0
 10
32.3691463815
 20
21.034862377
 30
0.0
 10
32.4059768584
 20
21.0063657801
 30
0.0
 10
32.4329009164
 20
20.9892888789
 30
0.0
 10
32.447040364
 20
20.981125465
 30
0.0
  0
SPLINE
  5
4BD
100
AcDbEntity
  8
0
100
AcDbSpline
 62
9
  6
CONTINUOUS
 70
0
 71
3
 72
11
 73
7
 74
0
 42
0.0000001
 43
0.0000001
 44
0.0000000001
 40
0.0
 40
0.0
 40
0.0
 40
0.0
 40
0.2316518958
 40
0.4713911318
 40
0.7259372553
 40
1.0
 40
1.0
 40
1.0
 40
1.0
 10
27.861391914
 20
17.7464257826
 30
0.0
 10
27.8613615258
 20
17.7301319564
 30
0.0
 10
27.857368083
 20
17.6968617308
 30
0.0
 10
27.8398419935
 20
17.6484942327
 30
0.0
 10
27.8113411477
 20
17.6021960946
 30
0.0
 10
27.7864166187
 20
17.5743456624
 30
0.0
 10
27.7725538797
 20
17.5609507126
 30
0.0
  0
SPLINE
  5
4BE
100
AcDbEntity
  8
0
100
AcDbSpline
 62
9
  6
CONTINUOUS
 70
0
 71
3
 72
15
 73
11
 74
0
 42
0.0000001
 43
0.0000001
 44
0.0000000001
 40
0.0
 40
0.0
 40
0.0
 40
0.0
 40
0.1030458847
 40
0.2139210494
 40
0.3322906526
 40
0.4573946992
 40
0.5881068277
 40
0.7231456455
 40
0.8610761521
 40
1.0
 40
1.0
 40
1.0
 40
1.0
 10
27.7725538797
 20
17.5609507126
 30
0.0
 10
27.7576536595
 20
17.5465532908
 30
0.0
 10
27.7243499122
 20
17.5190633578
 30
0.0
 10
27.667621046
 20
17.4834845478
 30
0.0
 10
27.6032705083
 20
17.4525830418
 30
0.0
 10
27.5324318382
 20
17.4269028028
 30
0.0
 10
27.4563362262
 20
17.4068701105
 30
0.0
 10
27.3762970764
 20
17.3928355347
 30
0.0
 10
27.2937604407
 20
17.3850786873
 30
0.0
 10
27.2380358611
 20
17.3841398375
 30
0.0
 10
27.210108903
 20
17.3847514777
 30
0.0
  0
SPLINE
  5
4BF
100
AcDbEntity
  8
0
100
AcDbSpline
 62
9
  6
CONTINUOUS
 70
0
 71
3
 72
10
 73
6
 74
0
 42
0.0000001
 43
0.0000001
 44
0.0000000001
 40
0.0
 40
0.0
 40
0.0
 40
0.0
 40
0.2410798162
 40
0.4862459426
 40
1.0
 40
1.0
 40
1.0
 40
1.0
 10
35.2697260396
 20
22.4433740159
 30
0.0
 10
35.2697257902
 20
22.4380176729
 30
0.0
 10
35.2705905212
 20
22.4271925455
 30
0.0
 10
35.2758110857
 20
22.4055291446
 30
0.0
 10
35.2834472763
 20
22.3901757009
 30
0.0
 10
35.2897373244
 20
22.3806504899
 30
0.0
  0
SPLINE
  5
4C0
100
AcDbEntity
  8
0
100
AcDbSpline
 62
9
  6
CONTINUOUS
 70
0
 71
3
 72
19
 73
15
 74
0
 42
0.0000001
 43
0.0000001
 44
0.0000000001
 40
0.0
 40
0.0
 40
0.0
 40
0.0
 40
0.0432376824
 40
0.0884776708
 40
0.1365581017
 40
0.1880111997
 40
0.2431171149
 40
0.3019045416
 40
0.4295659572
 40
0.5681354904
 40
0.7129710114
 40
0.858747848
 40
0.9303410068
 40
1.0
 40
1.0
 40
1.0
 40
1.0
 10
36.0910408647
 20
22.9092188588
 30
0.0
 10
36.0896171539
 20
22.9006122529
 30
0.0
 10
36.0848566349
 20
22.8832634739
 30
0.0
 10
36.0725923257
 20
22.8584323533
 30
0.0
 10
36.0552990392
 20
22.8347351576
 30
0.0
 10
36.0333090468
 20
22.8124629874
 30
0.0
 10
36.0069183771
 20
22.7919203459
 30
0.0
 10
35.9652485784
 20
22.7664823675
 30
0.0
 10
35.9043509571
 20
22.7410927386
 30
0.0
 10
35.8233738748
 20
22.7218582172
 30
0.0
 10
35.7368628893
 20
22.714023694
 30
0.0
 10
35.6636056166
 20
22.7173935349
 30
0.0
 10
35.6063276084
 20
22.7261918903
 30
0.0
 10
35.5785175515
 20
22.7325721029
 30
0.0
 10
35.5649560801
 20
22.7362612124
 30
0.0
  0
SPLINE
  5
4C1
100
AcDbEntity
  8
0
100
AcDbSpline
 62
9
  6
CONTINUOUS
 70
0
 71
3
 72
11
 73
7
 74
0
 42
0.0000001
 43
0.0000001
 44
0.0000000001
 40
0.0
 40
0.0
 40
0.0
 40
0.0
 40
0.2347829448
 40
0.4763187901
 40
0.7302148387
 40
1.0
 40
1.0
 40
1.0
 40
1.0
 10
35.3527125289
 20
23.1540192108
 30
0.0
 10
35.3527136925
 20
23.1454381261
 30
0.0
 10
35.3545541876
 20
23.1279777925
 30
0.0
 10
35.3627535407
 20
23.1024044834
 30
0.0
 10
35.3761901503
 20
23.0777129146
 30
0.0
 10
35.3880355412
 20
23.0625654777
 30
0.0
 10
35.3946450302
 20
23.0552482534
 30
0.0
  0
SPLINE
  5
4C2
100
AcDbEntity
  8
0
100
AcDbSpline
 62
9
  6
CONTINUOUS
 70
0
 71
3
 72
14
 73
10
 74
0
 42
0.0000001
 43
0.0000001
 44
0.0000000001
 40
0.0
 40
0.0
 40
0.0
 40
0.0
 40
0.1080560918
 40
0.2181520819
 40
0.3321310684
 40
0.4515450136
 40
0.7105819526
 40
0.8516208975
 40
1.0
 40
1.0
 40
1.0
 40
1.0
 10
23.5390346763
 20
16.3359312597
 30
0.0
 10
23.5390574494
 20
16.3288449729
 30
0.0
 10
23.540329928
 20
16.3145145286
 30
0.0
 10
23.5458558393
 20
16.2933510191
 30
0.0
 10
23.5549602896
 20
16.2726483059
 30
0.0
 10
23.5721502559
 20
16.2452001831
 30
0.0
 10
23.5959098248
 20
16.2202547597
 30
0.0
 10
23.6243807709
 20
16.1982396829
 30
0.0
 10
23.6404371986
 20
16.1880527854
 30
0.0
 10
23.6488642391
 20
16.1831874313
 30
0.0
  0
SPLINE
  5
4C3
100
AcDbEntity
  8
0
100
AcDbSpline
 62
9
  6
CONTINUOUS
 70
0
 71
3
 72
12
 73
8
 74
0
 42
0.0000001
 43
0.0000001
 44
0.0000000001
 40
0.0
 40
0.0
 40
0.0
 40
0.0
 40
0.1089448327
 40
0.2197801177
 40
0.4533919331
 40
0.7122031801
 40
1.0
 40
1.0
 40
1.0
 40
1.0
 10
33.2787110183
 20
21.5735087354
 30
0.0
 10
33.2787110493
 20
21.5771675747
 30
0.0
 10
33.2793206091
 20
21.584563336
 30
0.0
 10
33.2830236455
 20
21.5993915536
 30
0.0
 10
33.2925408128
 20
21.6176285632
 30
0.0
 10
33.3103673087
 20
21.6371227235
 30
0.0
 10
33.3253336194
 20
21.6479606757
 30
0.0
 10
33.3335888422
 20
21.6529878501
 30
0.0
  0
SPLINE
  5
4C4
100
AcDbEntity
  8
0
100
AcDbSpline
 62
9
  6
CONTINUOUS
 70
0
 71
3
 72
11
 73
7
 74
0
 42
0.0000001
 43
0.0000001
 44
0.0000000001
 40
0.0
 40
0.0
 40
0.0
 40
0.0
 40
0.3384418729
 40
0.6172290121
 40
0.8316733389
 40
1.0
 40
1.0
 40
1.0
 40
1.0
 10
35.5604091494
 20
22.7375202831
 30
0.0
 10
35.5604091494
 20
22.7363921344
 30
0.0
 10
35.5605248842
 20
22.734329638
 30
0.0
 10
35.561121485
 20
22.7316090146
 30
0.0
 10
35.5621155127
 20
22.7295936282
 30
0.0
 10
35.5632164141
 20
22.7287964452
 30
0.0
 10
35.563756532
 20
22.7286444639
 30
0.0
  0
SPLINE
  5
4C5
100
AcDbEntity
  8
0
100
AcDbSpline
 62
9
  6
CONTINUOUS
 70
0
 71
3
 72
11
 73
7
 74
0
 42
0.0000001
 43
0.0000001
 44
0.0000000001
 40
0.0
 40
0.0
 40
0.0
 40
0.0
 40
0.2851214051
 40
0.5443013207
 40
0.7795762685
 40
1.0
 40
1.0
 40
1.0
 40
1.0
 10
35.4672608935
 20
22.7277913265
 30
0.0
 10
35.4672608935
 20
22.726798806
 30
0.0
 10
35.4671007452
 20
22.7248979333
 30
0.0
 10
35.4663260205
 20
22.7222740621
 30
0.0
 10
35.4650308623
 20
22.7201107218
 30
0.0
 10
35.4638060239
 20
22.7190508391
 30
0.0
 10
35.4631506672
 20
22.7186517594
 30
0.0
  0
SPLINE
  5
4C6
100
AcDbEntity
  8
0
100
AcDbSpline
 62
9
  6
CONTINUOUS
 70
0
 71
3
 72
11
 73
7
 74
0
 42
0.0000001
 43
0.0000001
 44
0.0000000001
 40
0.0
 40
0.0
 40
0.0
 40
0.0
 40
0.2145182616
 40
0.4469768789
 40
0.7079642
 40
1.0
 40
1.0
 40
1.0
 40
1.0
 10
33.6152068573
 20
21.4959934705
 30
0.0
 10
33.6158183916
 20
21.4963045379
 30
0.0
 10
33.6172214129
 20
21.4967233361
 30
0.0
 10
33.6195152821
 20
21.4966150506
 30
0.0
 10
33.6219327888
 20
21.4958613795
 30
0.0
 10
33.6234939815
 20
21.4950065153
 30
0.0
 10
33.6242751975
 20
21.494494544
 30
0.0
  0
SPLINE
  5
4C7
100
AcDbEntity
  8
0
100
AcDbSpline
 62
9
  6
CONTINUOUS
 70
0
 71
3
 72
11
 73
7
 74
0
 42
0.0000001
 43
0.0000001
 44
0.0000000001
 40
0.0
 40
0.0
 40
0.0
 40
0.0
 40
0.3385814579
 40
0.6174283857
 40
0.8318244047
 40
1.0
 40
1.0
 40
1.0
 40
1.0
 10
35.4411389608
 20
22.060543013
 30
0.0
 10
35.4411389608
 20
22.059414704
 30
0.0
 10
35.4412545222
 20
22.0573521017
 30
0.0
 10
35.4418503866
 20
22.0546316178
 30
0.0
 10
35.4428428883
 20
22.0526167272
 30
0.0
 10
35.4439429209
 20
22.0518198195
 30
0.0
 10
35.4444824831
 20
22.0516682811
 30
0.0
  0
SPLINE
  5
4C8
100
AcDbEntity
  8
0
100
AcDbSpline
 62
9
  6
CONTINUOUS
 70
0
 71
3
 72
11
 73
7
 74
0
 42
0.0000001
 43
0.0000001
 44
0.0000000001
 40
0.0
 40
0.0
 40
0.0
 40
0.0
 40
0.2912034809
 40
0.5522850246
 40
0.7850012899
 40
1.0
 40
1.0
 40
1.0
 40
1.0
 10
35.3510310783
 20
22.0525246087
 30
0.0
 10
35.3510310783
 20
22.0515031046
 30
0.0
 10
35.3508716274
 20
22.049559557
 30
0.0
 10
35.3500931004
 20
22.0468942169
 30
0.0
 10
35.3487841714
 20
22.0447373498
 30
0.0
 10
35.3475365183
 20
22.0437206876
 30
0.0
 10
35.346875102
 20
22.0433582961
 30
0.0
  0
SPLINE
  5
4C9
100
AcDbEntity
  8
0
100
AcDbSpline
 62
9
  6
CONTINUOUS
 70
0
 71
3
 72
11
 73
7
 74
0
 42
0.0000001
 43
0.0000001
 44
0.0000000001
 40
0.0
 40
0.0
 40
0.0
 40
0.0
 40
0.2912034763
 40
0.552285021
 40
0.7850012904
 40
1.0
 40
1.0
 40
1.0
 40
1.0
 10
33.5426729995
 20
21.0617524367
 30
0.0
 10
33.5426729995
 20
21.0607309327
 30
0.0
 10
33.5425135486
 20
21.0587873853
 30
0.0
 10
33.5417350219
 20
21.0561220456
 30
0.0
 10
33.5404260933
 20
21.0539651786
 30
0.0
 10
33.5391784405
 20
21.0529485163
 30
0.0
 10
33.5385170245
 20
21.0525861247
 30
0.0
  0
SPLINE
  5
4CA
100
AcDbEntity
  8
0
100
AcDbSpline
 62
9
  6
CONTINUOUS
 70
0
 71
3
 72
11
 73
7
 74
0
 42
0.0000001
 43
0.0000001
 44
0.0000000001
 40
0.0
 40
0.0
 40
0.0
 40
0.0
 40
0.2145182616
 40
0.4469768789
 40
0.7079642
 40
1.0
 40
1.0
 40
1.0
 40
1.0
 10
35.2720216858
 20
22.3387036649
 30
0.0
 10
35.2726332202
 20
22.3390147323
 30
0.0
 10
35.2740362415
 20
22.3394335304
 30
0.0
 10
35.2763301106
 20
22.3393252449
 30
0.0
 10
35.2787476174
 20
22.3385715739
 30
0.0
 10
35.2803088101
 20
22.3377167096
 30
0.0
 10
35.2810900261
 20
22.3372047384
 30
0.0
  0
SPLINE
  5
4CB
100
AcDbEntity
  8
0
100
AcDbSpline
 62
9
  6
CONTINUOUS
 70
0
 71
3
 72
10
 73
6
 74
0
 42
0.0000001
 43
0.0000001
 44
0.0000000001
 40
0.0
 40
0.0
 40
0.0
 40
0.0
 40
0.2364982374
 40
0.4806909767
 40
1.0
 40
1.0
 40
1.0
 40
1.0
 10
33.5177690426
 20
21.2519080007
 30
0.0
 10
33.5176772573
 20
21.253255622
 30
0.0
 10
33.5170567407
 20
21.2559809999
 30
0.0
 10
33.5142245217
 20
21.2610127453
 30
0.0
 10
33.510513266
 20
21.2637461481
 30
0.0
 10
33.5078060515
 20
21.2649578133
 30
0.0
  0
SPLINE
  5
4CC
100
AcDbEntity
  8
0
100
AcDbSpline
 62
9
  6
CONTINUOUS
 70
0
 71
3
 72
9
 73
5
 74
0
 42
0.0000001
 43
0.0000001
 44
0.0000000001
 40
0.0
 40
0.0
 40
0.0
 40
0.0
 40
0.246039709
 40
1.0
 40
1.0
 40
1.0
 40
1.0
 10
33.5078060515
 20
21.2649578133
 30
0.0
 10
33.5070401645
 20
21.2653006006
 30
0.0
 10
33.5038440995
 20
21.2665019039
 30
0.0
 10
33.5003839865
 20
21.2669830509
 30
0.0
 10
33.4978132826
 20
21.2669267534
 30
0.0
  0
SPLINE
  5
4CD
100
AcDbEntity
  8
0
100
AcDbSpline
 62
9
  6
CONTINUOUS
 70
0
 71
3
 72
9
 73
5
 74
0
 42
0.0000001
 43
0.0000001
 44
0.0000000001
 40
0.0
 40
0.0
 40
0.0
 40
0.0
 40
0.4925709537
 40
1.0
 40
1.0
 40
1.0
 40
1.0
 10
33.5177420137
 20
21.2527853892
 30
0.0
 10
33.5177432194
 20
21.2546780398
 30
0.0
 10
33.5181615499
 20
21.2585302257
 30
0.0
 10
33.519360717
 20
21.2622104053
 30
0.0
 10
33.5201352053
 20
21.2639997237
 30
0.0
  0
SPLINE
  5
4CE
100
AcDbEntity
  8
0
100
AcDbSpline
 62
9
  6
CONTINUOUS
 70
0
 71
3
 72
10
 73
6
 74
0
 42
0.0000001
 43
0.0000001
 44
0.0000000001
 40
0.0
 40
0.0
 40
0.0
 40
0.0
 40
0.4593448982
 40
0.7195004098
 40
1.0
 40
1.0
 40
1.0
 40
1.0
 10
33.5201352053
 20
21.2639997237
 30
0.0
 10
33.5220914557
 20
21.2685192951
 30
0.0
 10
33.5268580942
 20
21.2748927552
 30
0.0
 10
33.5351027962
 20
21.2817543952
 30
0.0
 10
33.5400355836
 20
21.2848439959
 30
0.0
 10
33.5426729995
 20
21.2862889964
 30
0.0
  0
SPLINE
  5
4CF
100
AcDbEntity
  8
0
100
AcDbSpline
 62
9
  6
CONTINUOUS
 70
0
 71
3
 72
9
 73
5
 74
0
 42
0.0000001
 43
0.0000001
 44
0.0000000001
 40
0.0
 40
0.0
 40
0.0
 40
0.0
 40
0.2509356106
 40
1.0
 40
1.0
 40
1.0
 40
1.0
 10
32.9148940299
 20
21.6040944031
 30
0.0
 10
32.9171807991
 20
21.6040484681
 30
0.0
 10
32.9262960052
 20
21.6040378829
 30
0.0
 10
32.9354153062
 20
21.6047111786
 30
0.0
 10
32.9421794687
 20
21.6056395919
 30
0.0
  0
SPLINE
  5
4D0
100
AcDbEntity
  8
0
100
AcDbSpline
 62
9
  6
CONTINUOUS
 70
0
 71
3
 72
9
 73
5
 74
0
 42
0.0000001
 43
0.0000001
 44
0.0000000001
 40
0.0
 40
0.0
 40
0.0
 40
0.0
 40
0.2623589635
 40
1.0
 40
1.0
 40
1.0
 40
1.0
 10
32.9421794687
 20
21.6056395919
 30
0.0
 10
32.9457832398
 20
21.6061342266
 30
0.0
 10
32.9594461887
 20
21.608480543
 30
0.0
 10
32.9728301532
 20
21.6127120345
 30
0.0
 10
32.9820833664
 20
21.6170680423
 30
0.0
  0
SPLINE
  5
4D1
100
AcDbEntity
  8
0
100
AcDbSpline
 62
9
  6
CONTINUOUS
 70
0
 71
3
 72
11
 73
7
 74
0
 42
0.0000001
 43
0.0000001
 44
0.0000000001
 40
0.0
 40
0.0
 40
0.0
 40
0.0
 40
0.2828052453
 40
0.5430543255
 40
0.7803152723
 40
1.0
 40
1.0
 40
1.0
 40
1.0
 10
35.3944221953
 20
23.0093957911
 30
0.0
 10
35.3979687004
 20
23.0114878157
 30
0.0
 10
35.4045521946
 20
23.0159140053
 30
0.0
 10
35.4129647809
 20
23.0236362974
 30
0.0
 10
35.4191465772
 20
23.032149041
 30
0.0
 10
35.4217295978
 20
23.038367929
 30
0.0
 10
35.4225516353
 20
23.0414590319
 30
0.0
  0
SPLINE
  5
4D2
100
AcDbEntity
  8
0
100
AcDbSpline
 62
9
  6
CONTINUOUS
 70
0
 71
3
 72
11
 73
7
 74
0
 42
0.0000001
 43
0.0000001
 44
0.0000000001
 40
0.0
 40
0.0
 40
0.0
 40
0.0
 40
0.2388304827
 40
0.4780190867
 40
0.7294443014
 40
1.0
 40
1.0
 40
1.0
 40
1.0
 10
35.4225516353
 20
23.0414590319
 30
0.0
 10
35.4233379618
 20
23.0444158512
 30
0.0
 10
35.4241531116
 20
23.0505743225
 30
0.0
 10
35.4227358578
 20
23.0599340234
 30
0.0
 10
35.4186826291
 20
23.0689113914
 30
0.0
 10
35.4146672305
 20
23.0743151707
 30
0.0
 10
35.4123777368
 20
23.076917374
 30
0.0
  0
SPLINE
  5
4D3
100
AcDbEntity
  8
0
100
AcDbSpline
 62
9
  6
CONTINUOUS
 70
0
 71
3
 72
29
 73
25
 74
0
 42
0.0000001
 43
0.0000001
 44
0.0000000001
 40
0.0
 40
0.0
 40
0.0
 40
0.0
 40
0.0263610498
 40
0.0513852597
 40
0.0752518152
 40
0.09833791
 40
0.1211486797
 40
0.1441948163
 40
0.1679526954
 40
0.1928291145
 40
0.2191472759
 40
0.2471070567
 40
0.3081994438
 40
0.3760512799
 40
0.4495096471
 40
0.5267649262
 40
0.6056270911
 40
0.6837621025
 40
0.7589006516
 40
0.8290556857
 40
0.8927874373
 40
0.9220668293
 40
0.9496140825
 40
1.0
 40
1.0
 40
1.0
 40
1.0
 10
35.4123777368
 20
23.076917374
 30
0.0
 10
35.4069083668
 20
23.0830759904
 30
0.0
 10
35.3969305255
 20
23.0957190731
 30
0.0
 10
35.3849747774
 20
23.1160610284
 30
0.0
 10
35.3767700398
 20
23.1371203268
 30
0.0
 10
35.3726074746
 20
23.1586423031
 30
0.0
 10
35.3724656836
 20
23.1803062506
 30
0.0
 10
35.3763300002
 20
23.201832161
 30
0.0
 10
35.3841069777
 20
23.222948645
 30
0.0
 10
35.3956796596
 20
23.2434159522
 30
0.0
 10
35.4109252105
 20
23.2629911051
 30
0.0
 10
35.4366095044
 20
23.2884036062
 30
0.0
 10
35.4772634732
 20
23.316487793
 30
0.0
 10
35.5350968361
 20
23.3426981264
 30
0.0
 10
35.6010122376
 20
23.3614036798
 30
0.0
 10
35.6721757075
 20
23.3718091704
 30
0.0
 10
35.7455296078
 20
23.3734825152
 30
0.0
 10
35.8178935254
 20
23.3663533361
 30
0.0
 10
35.8861482569
 20
23.350722177
 30
0.0
 10
35.9473477454
 20
23.3272500158
 30
0.0
 10
35.9915599641
 20
23.301210645
 30
0.0
 10
36.0206345979
 20
23.2771226879
 30
0.0
 10
36.0437644365
 20
23.2528442074
 30
0.0
 10
36.0570874173
 20
23.2318992253
 30
0.0
 10
36.0631119773
 20
23.2173541831
 30
0.0
  0
SPLINE
  5
4D4
100
AcDbEntity
  8
0
100
AcDbSpline
 62
9
  6
CONTINUOUS
 70
0
 71
3
 72
13
 73
9
 74
0
 42
0.0000001
 43
0.0000001
 44
0.0000000001
 40
0.0
 40
0.0
 40
0.0
 40
0.0
 40
0.2553264024
 40
0.3869964648
 40
0.5184245903
 40
0.647411911
 40
0.7718196217
 40
1.0
 40
1.0
 40
1.0
 40
1.0
 10
35.569182348
 20
22.98876359
 30
0.0
 10
35.5593399358
 20
22.9914621827
 30
0.0
 10
35.5439874662
 20
22.9941555754
 30
0.0
 10
35.5232565296
 20
22.9948467098
 30
0.0
 10
35.5075883346
 20
22.9939390707
 30
0.0
 10
35.492352379
 20
22.9916454371
 30
0.0
 10
35.4736726372
 20
22.9869278425
 30
0.0
 10
35.4605819811
 20
22.9812718312
 30
0.0
 10
35.452747539
 20
22.9766020404
 30
0.0
  0
SPLINE
  5
4D5
100
AcDbEntity
  8
0
100
AcDbSpline
 62
9
  6
CONTINUOUS
 70
0
 71
3
 72
16
 73
12
 74
0
 42
0.0000001
 43
0.0000001
 44
0.0000000001
 40
0.0
 40
0.0
 40
0.0
 40
0.0
 40
0.1494215696
 40
0.2198780077
 40
0.2873054154
 40
0.4133964948
 40
0.5305685069
 40
0.6429441097
 40
0.7554908598
 40
0.8732063952
 40
1.0
 40
1.0
 40
1.0
 40
1.0
 10
33.3190749339
 20
21.6772623074
 30
0.0
 10
33.311728926
 20
21.6727070451
 30
0.0
 10
33.3012912956
 20
21.6653441017
 30
0.0
 10
33.2888979511
 20
21.6542452367
 30
0.0
 10
33.2784303491
 20
21.6431055327
 30
0.0
 10
33.2680580112
 20
21.6282533203
 30
0.0
 10
33.2603245051
 20
21.6089717057
 30
0.0
 10
33.257842763
 20
21.5891047947
 30
0.0
 10
33.2607142591
 20
21.5692553431
 30
0.0
 10
33.2688599612
 20
21.5500618932
 30
0.0
 10
33.2771914621
 20
21.5384902713
 30
0.0
 10
33.2819973178
 20
21.532949295
 30
0.0
  0
SPLINE
  5
4D6
100
AcDbEntity
  8
0
100
AcDbSpline
 62
9
  6
CONTINUOUS
 70
0
 71
3
 72
15
 73
11
 74
0
 42
0.0000001
 43
0.0000001
 44
0.0000000001
 40
0.0
 40
0.0
 40
0.0
 40
0.0
 40
0.1002219107
 40
0.2132903428
 40
0.3377540491
 40
0.4705389653
 40
0.6075884754
 40
0.7444404041
 40
0.8765474994
 40
1.0
 40
1.0
 40
1.0
 40
1.0
 10
33.2819973178
 20
21.532949295
 30
0.0
 10
33.2898123884
 20
21.5239388036
 30
0.0
 10
33.3092673811
 20
21.5071683329
 30
0.0
 10
33.344710054
 20
21.4877754691
 30
0.0
 10
33.3865401608
 20
21.4733308945
 30
0.0
 10
33.4327774668
 20
21.4645149648
 30
0.0
 10
33.4812312473
 20
21.4617567661
 30
0.0
 10
33.5295674879
 20
21.4651150651
 30
0.0
 10
33.5754623908
 20
21.4745191909
 30
0.0
 10
33.6041507347
 20
21.4850486423
 30
0.0
 10
33.6174812478
 20
21.4912257364
 30
0.0
  0
SPLINE
  5
4D7
100
AcDbEntity
  8
0
100
AcDbSpline
 62
9
  6
CONTINUOUS
 70
0
 71
3
 72
11
 73
7
 74
0
 42
0.0000001
 43
0.0000001
 44
0.0000000001
 40
0.0
 40
0.0
 40
0.0
 40
0.0
 40
0.2814233941
 40
0.5420806243
 40
0.7804962208
 40
1.0
 40
1.0
 40
1.0
 40
1.0
 10
35.281090026
 20
22.3372047384
 30
0.0
 10
35.2847170803
 20
22.339085153
 30
0.0
 10
35.2915172256
 20
22.3430884208
 30
0.0
 10
35.3004582072
 20
22.3501220787
 30
0.0
 10
35.3074499752
 20
22.3579431981
 30
0.0
 10
35.3108129482
 20
22.3637510993
 30
0.0
 10
35.3120664464
 20
22.3666808163
 30
0.0
  0
SPLINE
  5
4D8
100
AcDbEntity
  8
0
100
AcDbSpline
 62
9
  6
CONTINUOUS
 70
0
 71
3
 72
11
 73
7
 74
0
 42
0.0000001
 43
0.0000001
 44
0.0000000001
 40
0.0
 40
0.0
 40
0.0
 40
0.0
 40
0.2492029036
 40
0.491792207
 40
0.7391760426
 40
1.0
 40
1.0
 40
1.0
 40
1.0
 10
35.3120664464
 20
22.3666808163
 30
0.0
 10
35.3132443788
 20
22.3694339185
 30
0.0
 10
35.3149589056
 20
22.3751633353
 30
0.0
 10
35.3151973702
 20
22.3841520046
 30
0.0
 10
35.3129544252
 20
22.3929918181
 30
0.0
 10
35.3101171706
 20
22.3984560383
 30
0.0
 10
35.3084245698
 20
22.4010938447
 30
0.0
  0
SPLINE
  5
4D9
100
AcDbEntity
  8
0
100
AcDbSpline
 62
9
  6
CONTINUOUS
 70
0
 71
3
 72
27
 73
23
 74
0
 42
0.0000001
 43
0.0000001
 44
0.0000000001
 40
0.0
 40
0.0
 40
0.0
 40
0.0
 40
0.024565353
 40
0.0481757887
 40
0.0710807252
 40
0.0936776131
 40
0.1164433161
 40
0.1398163418
 40
0.164170584
 40
0.1897978575
 40
0.2455610691
 40
0.3079206289
 40
0.3764583426
 40
0.4499821674
 40
0.5268047848
 40
0.6049535239
 40
0.6823379301
 40
0.7569397542
 40
0.826977674
 40
0.8911023264
 40
0.9486633675
 40
1.0
 40
1.0
 40
1.0
 40
1.0
 10
35.3084245698
 20
22.4010938447
 30
0.0
 10
35.305182644
 20
22.4061244511
 30
0.0
 10
35.2994322336
 20
22.4164041241
 30
0.0
 10
35.2932131088
 20
22.4326354767
 30
0.0
 10
35.289799879
 20
22.4492100929
 30
0.0
 10
35.2894114708
 20
22.4659273385
 30
0.0
 10
35.2919837464
 20
22.4825586835
 30
0.0
 10
35.2974450074
 20
22.4989213245
 30
0.0
 10
35.3057083207
 20
22.5148423423
 30
0.0
 10
35.3207227187
 20
22.5358674646
 30
0.0
 10
35.346496037
 20
22.5600847922
 30
0.0
 10
35.3853542181
 20
22.5841329256
 30
0.0
 10
35.4315474128
 20
22.6032427718
 30
0.0
 10
35.4832980372
 20
22.6167035403
 30
0.0
 10
35.5386134809
 20
22.6240274978
 30
0.0
 10
35.5953390068
 20
22.6249168276
 30
0.0
 10
35.6512560061
 20
22.6193386707
 30
0.0
 10
35.7041856105
 20
22.6075195756
 30
0.0
 10
35.7520796702
 20
22.5899078355
 30
0.0
 10
35.7931145457
 20
22.5671191573
 30
0.0
 10
35.8257279068
 20
22.5399744826
 30
0.0
 10
35.841762779
 20
22.5183570923
 30
0.0
 10
35.8475589239
 20
22.5072743532
 30
0.0
  0
SPLINE
  5
4DA
100
AcDbEntity
  8
0
100
AcDbSpline
 62
9
  6
CONTINUOUS
 70
0
 71
3
 72
12
 73
8
 74
0
 42
0.0000001
 43
0.0000001
 44
0.0000000001
 40
0.0
 40
0.0
 40
0.0
 40
0.0
 40
0.2536099611
 40
0.3844316402
 40
0.5152674281
 40
0.768717354
 40
1.0
 40
1.0
 40
1.0
 40
1.0
 10
35.4498988954
 20
22.3117900729
 30
0.0
 10
35.4404817221
 20
22.314375532
 30
0.0
 10
35.4258072706
 20
22.3170007963
 30
0.0
 10
35.4059648573
 20
22.3178470249
 30
0.0
 10
35.38612957
 20
22.3169530968
 30
0.0
 10
35.3626408691
 20
22.3128727612
 30
0.0
 10
35.3451086082
 20
22.3059838277
 30
0.0
 10
35.3372644378
 20
22.3017667275
 30
0.0
  0
SPLINE
  5
4DB
100
AcDbEntity
  8
0
100
AcDbSpline
 62
9
  6
CONTINUOUS
 70
0
 71
3
 72
11
 73
7
 74
0
 42
0.0000001
 43
0.0000001
 44
0.0000000001
 40
0.0
 40
0.0
 40
0.0
 40
0.0
 40
0.2922903549
 40
0.5519973326
 40
0.783445634
 40
1.0
 40
1.0
 40
1.0
 40
1.0
 10
33.528905908
 20
21.3109948298
 30
0.0
 10
33.5240678813
 20
21.3083152262
 30
0.0
 10
33.5152951718
 20
21.3025183097
 30
0.0
 10
33.5048824032
 20
21.2917483374
 30
0.0
 10
33.4986300757
 20
21.2796439598
 30
0.0
 10
33.4975829216
 20
21.2710177762
 30
0.0
 10
33.4978132826
 20
21.2669267534
 30
0.0
  0
SPLINE
  5
4DC
100
AcDbEntity
  8
0
100
AcDbSpline
 62
9
  6
CONTINUOUS
 70
0
 71
3
 72
34
 73
30
 74
0
 42
0.0000001
 43
0.0000001
 44
0.0000000001
 40
0.0
 40
0.0
 40
0.0
 40
0.0
 40
0.0227220366
 40
0.0457735393
 40
0.0695599526
 40
0.0944586292
 40
0.1207555506
 40
0.1486410622
 40
0.2093920892
 40
0.242303639
 40
0.2767548215
 40
0.3125960732
 40
0.3496286462
 40
0.4263228438
 40
0.5048645807
 40
0.5830807294
 40
0.6588250109
 40
0.6951737593
 40
0.7302144206
 40
0.7637707205
 40
0.7957188948
 40
0.8259806637
 40
0.8545422015
 40
0.88147007
 40
0.9069083279
 40
0.9311061621
 40
0.9543997895
 40
0.9772092736
 40
1.0
 40
1.0
 40
1.0
 40
1.0
 10
33.4978132826
 20
21.2669267534
 30
0.0
 10
33.4985448795
 20
21.2549884356
 30
0.0
 10
33.497933015
 20
21.2307593989
 30
0.0
 10
33.4906776271
 20
21.1946929356
 30
0.0
 10
33.4770106255
 20
21.1593046002
 30
0.0
 10
33.4571125241
 20
21.1250501649
 30
0.0
 10
33.4313045113
 20
21.0922305835
 30
0.0
 10
33.3881758722
 20
21.0496229961
 30
0.0
 10
33.3353250418
 20
21.0126665045
 30
0.0
 10
33.2755194359
 20
20.9814251857
 30
0.0
 10
33.2254474041
 20
20.9601897564
 30
0.0
 10
33.1719005234
 20
20.9420329506
 30
0.0
 10
33.095733645
 20
20.9218985988
 30
0.0
 10
32.9955381788
 20
20.9057015061
 30
0.0
 10
32.8724799366
 20
20.9006372621
 30
0.0
 10
32.750168556
 20
20.909934378
 30
0.0
 10
32.6516330642
 20
20.9295954889
 30
0.0
 10
32.5775567899
 20
20.9523908861
 30
0.0
 10
32.526002204
 20
20.9723824514
 30
0.0
 10
32.4782417901
 20
20.9953228027
 30
0.0
 10
32.4347595668
 20
21.0209600219
 30
0.0
 10
32.3960025132
 20
21.0490415778
 30
0.0
 10
32.3623881333
 20
21.0793080312
 30
0.0
 10
32.3342449354
 20
21.1114381343
 30
0.0
 10
32.3119211732
 20
21.1451557873
 30
0.0
 10
32.295656455
 20
21.1801024894
 30
0.0
 10
32.285689845
 20
21.2159297341
 30
0.0
 10
32.2821881689
 20
21.2522084918
 30
0.0
 10
32.2841708996
 20
21.2762788105
 30
0.0
 10
32.2861936332
 20
21.2881039307
 30
0.0
  0
SPLINE
  5
4DD
100
AcDbEntity
  8
0
100
AcDbSpline
 62
9
  6
CONTINUOUS
 70
0
 71
3
 72
24
 73
20
 74
0
 42
0.0000001
 43
0.0000001
 44
0.0000000001
 40
0.0
 40
0.0
 40
0.0
 40
0.0
 40
0.0213280464
 40
0.042886385
 40
0.0874661895
 40
0.1352437057
 40
0.1871502177
 40
0.2435905388
 40
0.3045441624
 40
0.369636373
 40
0.4382399565
 40
0.509531136
 40
0.5825624311
 40
0.6563030597
 40
0.7296868128
 40
0.8016522605
 40
0.871263116
 40
0.937665503
 40
1.0
 40
1.0
 40
1.0
 40
1.0
 10
24.2890289725
 20
16.1117439805
 30
0.0
 10
24.2890291675
 20
16.1064255581
 30
0.0
 10
24.2883442737
 20
16.095717922
 30
0.0
 10
24.2841967598
 20
16.0742557477
 30
0.0
 10
24.2736206649
 20
16.0475821697
 30
0.0
 10
24.2532621948
 20
16.0176361008
 30
0.0
 10
24.2256565977
 20
15.9899148325
 30
0.0
 10
24.1914541907
 20
15.9649212621
 30
0.0
 10
24.1513785589
 20
15.9431224555
 30
0.0
 10
24.1062684472
 20
15.9249504441
 30
0.0
 10
24.0570745541
 20
15.9107688031
 30
0.0
 10
24.0048332603
 20
15.9008849863
 30
0.0
 10
23.9506567684
 20
15.8954905132
 30
0.0
 10
23.8956980024
 20
15.8947264979
 30
0.0
 10
23.8411341973
 20
15.8985754924
 30
0.0
 10
23.7881242586
 20
15.9069833594
 30
0.0
 10
23.7377765064
 20
15.9197557648
 30
0.0
 10
23.6912058373
 20
15.936656666
 30
0.0
 10
23.6623256581
 20
15.9508789177
 30
0.0
 10
23.6488642391
 20
15.9586508715
 30
0.0
  0
SPLINE
  5
4DE
100
AcDbEntity
  8
0
100
AcDbSpline
 62
7
  6
CONTINUOUS
 70
0
 71
3
 72
10
 73
6
 74
0
 42
0.0000001
 43
0.0000001
 44
0.0000000001
 40
0.0
 40
0.0
 40
0.0
 40
0.0
 40
0.5121483093
 40
0.7578299571
 40
1.0
 40
1.0
 40
1.0
 40
1.0
 10
29.6163415613
 20
20.4374255511
 30
0.0
 10
29.6079394067
 20
20.4235632805
 30
0.0
 10
29.5978186789
 20
20.4014200297
 30
0.0
 10
29.590955709
 20
20.3704407099
 30
0.0
 10
29.5898223539
 20
20.3549731218
 30
0.0
 10
29.5898231514
 20
20.3473082788
 30
0.0
  0
SPLINE
  5
4DF
100
AcDbEntity
  8
0
100
AcDbSpline
 62
9
  6
CONTINUOUS
 70
0
 71
3
 72
11
 73
7
 74
0
 42
0.0000001
 43
0.0000001
 44
0.0000000001
 40
0.0
 40
0.0
 40
0.0
 40
0.0
 40
0.2378494759
 40
0.5016620609
 40
0.7645654968
 40
1.0
 40
1.0
 40
1.0
 40
1.0
 10
33.5426729995
 20
21.2862889964
 30
0.0
 10
33.5426729995
 20
21.2886089356
 30
0.0
 10
33.5418184893
 20
21.2935025404
 30
0.0
 10
33.5388884696
 20
21.3004171157
 30
0.0
 10
33.5345659443
 20
21.3065290421
 30
0.0
 10
33.5308677332
 20
21.3098012549
 30
0.0
 10
33.528905908
 20
21.3109948298
 30
0.0
  0
SPLINE
  5
4E0
100
AcDbEntity
  8
0
100
AcDbSpline
 62
9
  6
CONTINUOUS
 70
0
 71
3
 72
11
 73
7
 74
0
 42
0.0000001
 43
0.0000001
 44
0.0000000001
 40
0.0
 40
0.0
 40
0.0
 40
0.0
 40
0.2378494759
 40
0.5016620609
 40
0.7645654967
 40
1.0
 40
1.0
 40
1.0
 40
1.0
 10
35.3510310783
 20
22.2770611685
 30
0.0
 10
35.3510310783
 20
22.2793811076
 30
0.0
 10
35.3501765681
 20
22.2842747124
 30
0.0
 10
35.3472465484
 20
22.2911892878
 30
0.0
 10
35.3429240231
 20
22.2973012142
 30
0.0
 10
35.339225812
 20
22.3005734269
 30
0.0
 10
35.3372639868
 20
22.3017670019
 30
0.0
  0
SPLINE
  5
4E1
100
AcDbEntity
  8
0
100
AcDbSpline
 62
9
  6
CONTINUOUS
 70
0
 71
3
 72
12
 73
8
 74
0
 42
0.0000001
 43
0.0000001
 44
0.0000000001
 40
0.0
 40
0.0
 40
0.0
 40
0.0
 40
0.2476075292
 40
0.5206102401
 40
0.7825244681
 40
0.8988679594
 40
1.0
 40
1.0
 40
1.0
 40
1.0
 10
35.4411389608
 20
22.2850795728
 30
0.0
 10
35.4411389608
 20
22.2874344917
 30
0.0
 10
35.4416823324
 20
22.2923858912
 30
0.0
 10
35.4435055965
 20
22.2996175315
 30
0.0
 10
35.4458291344
 20
22.3053909471
 30
0.0
 10
35.4480747238
 20
22.3093644462
 30
0.0
 10
35.4492785769
 20
22.3110549995
 30
0.0
 10
35.4498988954
 20
22.3117900729
 30
0.0
  0
SPLINE
  5
4E2
100
AcDbEntity
  8
0
100
AcDbSpline
 62
9
  6
CONTINUOUS
 70
0
 71
3
 72
12
 73
8
 74
0
 42
0.0000001
 43
0.0000001
 44
0.0000000001
 40
0.0
 40
0.0
 40
0.0
 40
0.0
 40
0.2266472976
 40
0.476728744
 40
0.6078343736
 40
0.7405825983
 40
1.0
 40
1.0
 40
1.0
 40
1.0
 10
35.2897373244
 20
22.3806504899
 30
0.0
 10
35.2897373244
 20
22.3828865021
 30
0.0
 10
35.2908720806
 20
22.3876067359
 30
0.0
 10
35.2942749775
 20
22.3926692443
 30
0.0
 10
35.2979914128
 20
22.3961447833
 30
0.0
 10
35.3022643825
 20
22.3990631217
 30
0.0
 10
35.3059251123
 20
22.4005435946
 30
0.0
 10
35.3084245698
 20
22.4010938447
 30
0.0
  0
LINE
  5
4E3
100
AcDbEntity
  8
0
100
AcDbLine
 62
9
  6
CONTINUOUS
 10
32.9153532385
 20
21.6077613802
 11
32.9148940277
 21
21.6040943702
  0
SPLINE
  5
4E4
100
AcDbEntity
  8
0
100
AcDbSpline
 62
9
  6
CONTINUOUS
 70
0
 71
3
 72
11
 73
7
 74
0
 42
0.0000001
 43
0.0000001
 44
0.0000000001
 40
0.0
 40
0.0
 40
0.0
 40
0.0
 40
0.2361895954
 40
0.4983230655
 40
0.7613779093
 40
1.0
 40
1.0
 40
1.0
 40
1.0
 10
33.3335888423
 20
21.6529878502
 30
0.0
 10
33.3335888423
 20
21.655299901
 30
0.0
 10
33.3326885787
 20
21.6601793248
 30
0.0
 10
33.3295859197
 20
21.667020681
 30
0.0
 10
33.3250107299
 20
21.6730088709
 30
0.0
 10
33.3211239222
 20
21.676140746
 30
0.0
 10
33.3190749338
 20
21.6772623074
 30
0.0
  0
SPLINE
  5
4E5
100
AcDbEntity
  8
0
100
AcDbSpline
 62
9
  6
CONTINUOUS
 70
0
 71
3
 72
11
 73
7
 74
0
 42
0.0000001
 43
0.0000001
 44
0.0000000001
 40
0.0
 40
0.0
 40
0.0
 40
0.0
 40
0.236189596
 40
0.4983230658
 40
0.7613779095
 40
1.0
 40
1.0
 40
1.0
 40
1.0
 10
35.4672608935
 20
22.9523278863
 30
0.0
 10
35.4672608935
 20
22.9546399371
 30
0.0
 10
35.46636063
 20
22.9595193609
 30
0.0
 10
35.463257971
 20
22.9663607172
 30
0.0
 10
35.4586827811
 20
22.972348907
 30
0.0
 10
35.4547959734
 20
22.9754807821
 30
0.0
 10
35.4527469851
 20
22.9766023436
 30
0.0
  0
SPLINE
  5
4E6
100
AcDbEntity
  8
0
100
AcDbSpline
 62
9
  6
CONTINUOUS
 70
0
 71
3
 72
12
 73
8
 74
0
 42
0.0000001
 43
0.0000001
 44
0.0000000001
 40
0.0
 40
0.0
 40
0.0
 40
0.0
 40
0.2475851406
 40
0.5205674852
 40
0.782483373
 40
0.8988416127
 40
1.0
 40
1.0
 40
1.0
 40
1.0
 10
35.5604091494
 20
22.9620568428
 30
0.0
 10
35.5604091494
 20
22.9644116969
 30
0.0
 10
35.5609533482
 20
22.9693630016
 30
0.0
 10
35.5627794495
 20
22.9765940605
 30
0.0
 10
35.5651065749
 20
22.9823664965
 30
0.0
 10
35.5673555181
 20
22.9863389104
 30
0.0
 10
35.5685611505
 20
22.988028852
 30
0.0
 10
35.569182348
 20
22.98876359
 30
0.0
  0
SPLINE
  5
4E7
100
AcDbEntity
  8
0
100
AcDbSpline
 62
9
  6
CONTINUOUS
 70
0
 71
3
 72
11
 73
7
 74
0
 42
0.0000001
 43
0.0000001
 44
0.0000000001
 40
0.0
 40
0.0
 40
0.0
 40
0.0
 40
0.2881169122
 40
0.5482223447
 40
0.7822329947
 40
1.0
 40
1.0
 40
1.0
 40
1.0
 10
35.3944221954
 20
23.0093957911
 30
0.0
 10
35.3935495708
 20
23.0098996011
 30
0.0
 10
35.3918037481
 20
23.0107226802
 30
0.0
 10
35.389122907
 20
23.0113718901
 30
0.0
 10
35.3865989512
 20
23.0113225803
 30
0.0
 10
35.3850804653
 20
23.0107693867
 30
0.0
 10
35.3844209107
 20
23.0103885927
 30
0.0
  0
SPLINE
  5
4E8
100
AcDbEntity
  8
0
100
AcDbSpline
 62
9
  6
CONTINUOUS
 70
0
 71
3
 72
11
 73
7
 74
0
 42
0.0000001
 43
0.0000001
 44
0.0000000001
 40
0.0
 40
0.0
 40
0.0
 40
0.0
 40
0.2288639651
 40
0.4824565498
 40
0.7459175394
 40
1.0
 40
1.0
 40
1.0
 40
1.0
 10
35.3946450302
 20
23.0552482534
 30
0.0
 10
35.3946450302
 20
23.057509764
 30
0.0
 10
35.3957333347
 20
23.0622877057
 30
0.0
 10
35.3996171809
 20
23.0686697355
 30
0.0
 10
35.4053148816
 20
23.0738696988
 30
0.0
 10
35.4099736638
 20
23.0761934412
 30
0.0
 10
35.4123777368
 20
23.076917374
 30
0.0
  0
SPLINE
  5
4E9
100
AcDbEntity
  8
0
100
AcDbSpline
 62
9
  6
CONTINUOUS
 70
0
 71
3
 72
10
 73
6
 74
0
 42
0.0000001
 43
0.0000001
 44
0.0000000001
 40
0.0
 40
0.0
 40
0.0
 40
0.0
 40
0.5226459138
 40
0.7647411517
 40
1.0
 40
1.0
 40
1.0
 40
1.0
 10
35.3946450302
 20
23.0552482534
 30
0.0
 10
35.3974086901
 20
23.0521886645
 30
0.0
 10
35.4008893447
 20
23.0470757364
 30
0.0
 10
35.403313745
 20
23.0395247647
 30
0.0
 10
35.4037107142
 20
23.0357465639
 30
0.0
 10
35.4037105359
 20
23.0338906885
 30
0.0
  0
SPLINE
  5
4EA
100
AcDbEntity
  8
0
100
AcDbSpline
 62
7
  6
CONTINUOUS
 70
0
 71
3
 72
15
 73
11
 74
0
 42
0.0000001
 43
0.0000001
 44
0.0000000001
 40
0.0
 40
0.0
 40
0.0
 40
0.0
 40
0.1284857466
 40
0.2593147691
 40
0.3906314683
 40
0.5208433908
 40
0.6483133518
 40
0.7715041009
 40
0.8891481867
 40
1.0
 40
1.0
 40
1.0
 40
1.0
 10
30.2431527388
 20
20.0367523615
 30
0.0
 10
30.2179759302
 20
20.0318659088
 30
0.0
 10
30.1667118508
 20
20.0242115703
 30
0.0
 10
30.0888353794
 20
20.0189842583
 30
0.0
 10
30.01043993
 20
20.0199972391
 30
0.0
 10
29.9330452294
 20
20.0272245806
 30
0.0
 10
29.8580985344
 20
20.0405060677
 30
0.0
 10
29.7870034209
 20
20.0596189822
 30
0.0
 10
29.72113747
 20
20.0842048438
 30
0.0
 10
29.6802019894
 20
20.1045757052
 30
0.0
 10
29.6610396462
 20
20.1156390892
 30
0.0
  0
SPLINE
  5
4EB
100
AcDbEntity
  8
0
100
AcDbSpline
 62
9
  6
CONTINUOUS
 70
0
 71
3
 72
11
 73
7
 74
0
 42
0.0000001
 43
0.0000001
 44
0.0000000001
 40
0.0
 40
0.0
 40
0.0
 40
0.0
 40
0.2177670053
 40
0.4517776554
 40
0.7118830878
 40
1.0
 40
1.0
 40
1.0
 40
1.0
 10
32.9795777684
 20
21.6219517571
 30
0.0
 10
32.980237323
 20
21.6223325512
 30
0.0
 10
32.9817558089
 20
21.6228857448
 30
0.0
 10
32.9842797647
 20
21.6229350545
 30
0.0
 10
32.9869606059
 20
21.6222858446
 30
0.0
 10
32.9887064285
 20
21.6214627655
 30
0.0
 10
32.9895790531
 20
21.6209589555
 30
0.0
  0
SPLINE
  5
4EC
100
AcDbEntity
  8
0
100
AcDbSpline
 62
9
  6
CONTINUOUS
 70
0
 71
3
 72
19
 73
15
 74
0
 42
0.0000001
 43
0.0000001
 44
0.0000000001
 40
0.0
 40
0.0
 40
0.0
 40
0.0
 40
0.0704894096
 40
0.1431030516
 40
0.2910680481
 40
0.4376986658
 40
0.5769919968
 40
0.6423171883
 40
0.7040601385
 40
0.8156155494
 40
0.8657503974
 40
0.9125862787
 40
0.9569585021
 40
1.0
 40
1.0
 40
1.0
 40
1.0
 10
35.5604091494
 20
22.9620568428
 30
0.0
 10
35.5746610184
 20
22.9580403738
 30
0.0
 10
35.6039563468
 20
22.9511244198
 30
0.0
 10
35.6644157678
 20
22.9417137513
 30
0.0
 10
35.741790455
 20
22.9384597032
 30
0.0
 10
35.8327615954
 20
22.9477482722
 30
0.0
 10
35.9045331027
 20
22.966381534
 30
0.0
 10
35.9563791464
 20
22.9876626699
 30
0.0
 10
36.0006580476
 20
23.011224709
 30
0.0
 10
36.0385575492
 20
23.0399711168
 30
0.0
 10
36.0666847827
 20
23.0737759098
 30
0.0
 10
36.0815629294
 20
23.0996690328
 30
0.0
 10
36.0906538731
 20
23.1265630769
 30
0.0
 10
36.09271324
 20
23.1449846561
 30
0.0
 10
36.0927105224
 20
23.1540259607
 30
0.0
  0
SPLINE
  5
4ED
100
AcDbEntity
  8
0
100
AcDbSpline
 62
9
  6
CONTINUOUS
 70
0
 71
3
 72
11
 73
7
 74
0
 42
0.0000001
 43
0.0000001
 44
0.0000000001
 40
0.0
 40
0.0
 40
0.0
 40
0.0
 40
0.2283030717
 40
0.4815475754
 40
0.7445353209
 40
1.0
 40
1.0
 40
1.0
 40
1.0
 10
35.4672608935
 20
22.9523278863
 30
0.0
 10
35.4734924897
 20
22.956122735
 30
0.0
 10
35.4878301579
 20
22.9621964772
 30
0.0
 10
35.5113100696
 20
22.9667775352
 30
0.0
 10
35.5360964792
 20
22.9670687087
 30
0.0
 10
35.5525510683
 20
22.9642714113
 30
0.0
 10
35.5604091494
 20
22.9620568428
 30
0.0
  0
SPLINE
  5
4EE
100
AcDbEntity
  8
0
100
AcDbSpline
 62
9
  6
CONTINUOUS
 70
0
 71
3
 72
9
 73
5
 74
0
 42
0.0000001
 43
0.0000001
 44
0.0000000001
 40
0.0
 40
0.0
 40
0.0
 40
0.0
 40
0.2432126187
 40
1.0
 40
1.0
 40
1.0
 40
1.0
 10
35.5604091493
 20
22.7375202831
 30
0.0
 10
35.5584962632
 20
22.7380593736
 30
0.0
 10
35.5505724581
 20
22.7400641001
 30
0.0
 10
35.5424515315
 20
22.741271151
 30
0.0
 10
35.5362872275
 20
22.741764886
 30
0.0
  0
SPLINE
  5
4EF
100
AcDbEntity
  8
0
100
AcDbSpline
 62
9
  6
CONTINUOUS
 70
0
 71
3
 72
9
 73
5
 74
0
 42
0.0000001
 43
0.0000001
 44
0.0000000001
 40
0.0
 40
0.0
 40
0.0
 40
0.0
 40
0.5094368782
 40
1.0
 40
1.0
 40
1.0
 40
1.0
 10
35.5362872275
 20
22.741764886
 30
0.0
 10
35.5279094596
 20
22.7424359103
 30
0.0
 10
35.5113149285
 20
22.7422441386
 30
0.0
 10
35.4950036332
 20
22.7390584126
 30
0.0
 10
35.4872782852
 20
22.7366461013
 30
0.0
  0
SPLINE
  5
4F0
100
AcDbEntity
  8
0
100
AcDbSpline
 62
9
  6
CONTINUOUS
 70
0
 71
3
 72
9
 73
5
 74
0
 42
0.0000001
 43
0.0000001
 44
0.0000000001
 40
0.0
 40
0.0
 40
0.0
 40
0.0
 40
0.2628484391
 40
1.0
 40
1.0
 40
1.0
 40
1.0
 10
35.4872782852
 20
22.7366461013
 30
0.0
 10
35.4854452426
 20
22.7360737168
 30
0.0
 10
35.4785336965
 20
22.7337091724
 30
0.0
 10
35.4718606357
 20
22.7305924268
 30
0.0
 10
35.4672608935
 20
22.7277913266
 30
0.0
  0
SPLINE
  5
4F1
100
AcDbEntity
  8
0
100
AcDbSpline
 62
7
  6
CONTINUOUS
 70
0
 71
3
 72
15
 73
11
 74
0
 42
0.0000001
 43
0.0000001
 44
0.0000000001
 40
0.0
 40
0.0
 40
0.0
 40
0.0
 40
0.1484876234
 40
0.2894819571
 40
0.4227591052
 40
0.5486673148
 40
0.6680093302
 40
0.7819519185
 40
0.8920008467
 40
1.0
 40
1.0
 40
1.0
 40
1.0
 10
29.6610396462
 20
20.1156390892
 30
0.0
 10
29.6482490281
 20
20.123023756
 30
0.0
 10
29.6238960145
 20
20.1384685532
 30
0.0
 10
29.5905861201
 20
20.1642402501
 30
0.0
 10
29.5617708033
 20
20.1918190461
 30
0.0
 10
29.537749289
 20
20.2209361968
 30
0.0
 10
29.5187647741
 20
20.2513366779
 30
0.0
 10
29.5050248288
 20
20.2827462498
 30
0.0
 10
29.4966866761
 20
20.3148431829
 30
0.0
 10
29.4948236594
 20
20.3365755158
 30
0.0
 10
29.4948231121
 20
20.3473176604
 30
0.0
  0
SPLINE
  5
4F2
100
AcDbEntity
  8
0
100
AcDbSpline
 62
9
  6
CONTINUOUS
 70
0
 71
3
 72
11
 73
7
 74
0
 42
0.0000001
 43
0.0000001
 44
0.0000000001
 40
0.0
 40
0.0
 40
0.0
 40
0.0
 40
0.2318457076
 40
0.4717619018
 40
0.7262000296
 40
1.0
 40
1.0
 40
1.0
 40
1.0
 10
33.5182467277
 20
21.0127647079
 30
0.0
 10
33.5182406003
 20
20.9965447769
 30
0.0
 10
33.5143277189
 20
20.9634244662
 30
0.0
 10
33.497061543
 20
20.9152393479
 30
0.0
 10
33.4688672353
 20
20.8691112231
 30
0.0
 10
33.4442018065
 20
20.8413353421
 30
0.0
 10
33.4304761132
 20
20.8279741512
 30
0.0
  0
SPLINE
  5
4F3
100
AcDbEntity
  8
0
100
AcDbSpline
 62
9
  6
CONTINUOUS
 70
0
 71
3
 72
20
 73
16
 74
0
 42
0.0000001
 43
0.0000001
 44
0.0000000001
 40
0.0
 40
0.0
 40
0.0
 40
0.0
 40
0.1039131555
 40
0.1608079163
 40
0.2206957742
 40
0.283245947
 40
0.3480374312
 40
0.4822678257
 40
0.6190714586
 40
0.6870105658
 40
0.7538363168
 40
0.8190052368
 40
0.8820516127
 40
0.9425347935
 40
1.0
 40
1.0
 40
1.0
 40
1.0
 10
33.4304761132
 20
20.8279741512
 30
0.0
 10
33.4046199988
 20
20.802804677
 30
0.0
 10
33.3592098082
 20
20.7692319192
 30
0.0
 10
33.2916223881
 20
20.7330325302
 30
0.0
 10
33.2342228257
 20
20.7086425839
 30
0.0
 10
33.1724495409
 20
20.6881655435
 30
0.0
 10
33.0842464668
 20
20.6661694871
 30
0.0
 10
32.9683438035
 20
20.6501667664
 30
0.0
 10
32.8502846655
 20
20.6494059749
 30
0.0
 10
32.7563247921
 20
20.6580976084
 30
0.0
 10
32.6877237941
 20
20.6691393973
 30
0.0
 10
32.6217248562
 20
20.684601342
 30
0.0
 10
32.5591516948
 20
20.7042738488
 30
0.0
 10
32.5008475974
 20
20.7279252489
 30
0.0
 10
32.464321704
 20
20.7466115189
 30
0.0
 10
32.447040364
 20
20.7565889052
 30
0.0
  0
SPLINE
  5
4F4
100
AcDbEntity
  8
0
100
AcDbSpline
 62
7
  6
CONTINUOUS
 70
0
 71
3
 72
12
 73
8
 74
0
 42
0.0000001
 43
0.0000001
 44
0.0000000001
 40
0.0
 40
0.0
 40
0.0
 40
0.0
 40
0.2891481109
 40
0.5486751867
 40
0.7817039084
 40
0.8918685967
 40
1.0
 40
1.0
 40
1.0
 40
1.0
 10
30.1464684514
 20
19.4005922084
 30
0.0
 10
30.1516801261
 20
19.4036011702
 30
0.0
 10
30.1611390511
 20
19.4101326452
 30
0.0
 10
30.1724720543
 20
19.4219940268
 30
0.0
 10
30.178549074
 20
19.4331981716
 30
0.0
 10
30.1809255675
 20
19.4423243486
 30
0.0
 10
30.1813175312
 20
19.4468772571
 30
0.0
 10
30.1813184748
 20
19.4491277524
 30
0.0
  0
SPLINE
  5
4F5
100
AcDbEntity
  8
0
100
AcDbSpline
 62
9
  6
CONTINUOUS
 70
0
 71
3
 72
19
 73
15
 74
0
 42
0.0000001
 43
0.0000001
 44
0.0000000001
 40
0.0
 40
0.0
 40
0.0
 40
0.0
 40
0.0704875972
 40
0.1431047103
 40
0.2910685643
 40
0.4376727365
 40
0.5769388731
 40
0.7038291738
 40
0.7617051113
 40
0.8156187847
 40
0.8657486627
 40
0.9125883073
 40
0.9569570609
 40
1.0
 40
1.0
 40
1.0
 40
1.0
 10
35.4411389608
 20
22.2850795728
 30
0.0
 10
35.4528845694
 20
22.2817756188
 30
0.0
 10
35.4770283599
 20
22.276088105
 30
0.0
 10
35.5268536807
 20
22.2683526336
 30
0.0
 10
35.5906063817
 20
22.2656891958
 30
0.0
 10
35.6655781975
 20
22.2733705611
 30
0.0
 10
35.7350106306
 20
22.2914125835
 30
0.0
 10
35.7863811265
 20
22.3149575918
 30
0.0
 10
35.8205452041
 20
22.3383540818
 30
0.0
 10
35.8415207828
 20
22.3570808666
 30
0.0
 10
35.8582790762
 20
22.3772556338
 30
0.0
 10
35.8705491282
 20
22.3985845404
 30
0.0
 10
35.8780263055
 20
22.4207532166
 30
0.0
 10
35.8797244688
 20
22.4359314788
 30
0.0
 10
35.879726412
 20
22.4433822412
 30
0.0
  0
SPLINE
  5
4F6
100
AcDbEntity
  8
0
100
AcDbSpline
 62
9
  6
CONTINUOUS
 70
0
 71
3
 72
12
 73
8
 74
0
 42
0.0000001
 43
0.0000001
 44
0.0000000001
 40
0.0
 40
0.0
 40
0.0
 40
0.0
 40
0.1120044805
 40
0.2314799274
 40
0.4850335975
 40
0.7465808475
 40
1.0
 40
1.0
 40
1.0
 40
1.0
 10
35.3510310783
 20
22.2770611685
 30
0.0
 10
35.3540572742
 20
22.2787191756
 30
0.0
 10
35.3605458965
 20
22.2817275793
 30
0.0
 10
35.3747260118
 20
22.2865080618
 30
0.0
 10
35.3941068826
 20
22.2899246047
 30
0.0
 10
35.4178837883
 20
22.2899213263
 30
0.0
 10
35.4336233122
 20
22.2871936699
 30
0.0
 10
35.4411389608
 20
22.2850795728
 30
0.0
  0
SPLINE
  5
4F7
100
AcDbEntity
  8
0
100
AcDbSpline
 62
9
  6
CONTINUOUS
 70
0
 71
3
 72
9
 73
5
 74
0
 42
0.0000001
 43
0.0000001
 44
0.0000000001
 40
0.0
 40
0.0
 40
0.0
 40
0.0
 40
0.4906111199
 40
1.0
 40
1.0
 40
1.0
 40
1.0
 10
35.4411389607
 20
22.0605430131
 30
0.0
 10
35.4361792542
 20
22.0619381423
 30
0.0
 10
35.4258662912
 20
22.0640816747
 30
0.0
 10
35.4153786986
 20
22.0649981317
 30
0.0
 10
35.4100315593
 20
22.0651531975
 30
0.0
  0
SPLINE
  5
4F8
100
AcDbEntity
  8
0
100
AcDbSpline
 62
9
  6
CONTINUOUS
 70
0
 71
3
 72
9
 73
5
 74
0
 42
0.0000001
 43
0.0000001
 44
0.0000000001
 40
0.0
 40
0.0
 40
0.0
 40
0.0
 40
0.2533483106
 40
1.0
 40
1.0
 40
1.0
 40
1.0
 10
35.4100315593
 20
22.0651531975
 30
0.0
 10
35.4073380247
 20
22.0652313093
 30
0.0
 10
35.3967006101
 20
22.0652236468
 30
0.0
 10
35.3860550431
 20
22.0639957908
 30
0.0
 10
35.3782904533
 20
22.0623286608
 30
0.0
  0
SPLINE
  5
4F9
100
AcDbEntity
  8
0
100
AcDbSpline
 62
9
  6
CONTINUOUS
 70
0
 71
3
 72
9
 73
5
 74
0
 42
0.0000001
 43
0.0000001
 44
0.0000000001
 40
0.0
 40
0.0
 40
0.0
 40
0.0
 40
0.5193898951
 40
1.0
 40
1.0
 40
1.0
 40
1.0
 10
35.3782904533
 20
22.0623286608
 30
0.0
 10
35.3733743602
 20
22.0612731296
 30
0.0
 10
35.364024728
 20
22.0586522756
 30
0.0
 10
35.355111497
 20
22.0547602087
 30
0.0
 10
35.3510310783
 20
22.0525246087
 30
0.0
  0
SPLINE
  5
4FA
100
AcDbEntity
  8
0
100
AcDbSpline
 62
9
  6
CONTINUOUS
 70
0
 71
3
 72
11
 73
7
 74
0
 42
0.0000001
 43
0.0000001
 44
0.0000000001
 40
0.0
 40
0.0
 40
0.0
 40
0.0
 40
0.2191800664
 40
0.4531220531
 40
0.7124908654
 40
1.0
 40
1.0
 40
1.0
 40
1.0
 10
25.4165107521
 20
16.5224265578
 30
0.0
 10
25.416508527
 20
16.5253697794
 30
0.0
 10
25.4175533959
 20
16.5314942402
 30
0.0
 10
25.4220592088
 20
16.5400772412
 30
0.0
 10
25.4292040741
 20
16.5478730235
 30
0.0
 10
25.4351855553
 20
16.5522136111
 30
0.0
 10
25.4384838502
 20
16.5542202945
 30
0.0
  0
SPLINE
  5
4FB
100
AcDbEntity
  8
0
100
AcDbSpline
 62
9
  6
CONTINUOUS
 70
0
 71
3
 72
9
 73
5
 74
0
 42
0.0000001
 43
0.0000001
 44
0.0000000001
 40
0.0
 40
0.0
 40
0.0
 40
0.0
 40
0.2642348739
 40
1.0
 40
1.0
 40
1.0
 40
1.0
 10
33.5426729995
 20
21.0617524367
 30
0.0
 10
33.5413306353
 20
21.0610169755
 30
0.0
 10
33.5363366176
 20
21.0580844258
 30
0.0
 10
33.5316843713
 20
21.0545308742
 30
0.0
 10
33.5286527178
 20
21.0515351543
 30
0.0
  0
SPLINE
  5
4FC
100
AcDbEntity
  8
0
100
AcDbSpline
 62
9
  6
CONTINUOUS
 70
0
 71
3
 72
9
 73
5
 74
0
 42
0.0000001
 43
0.0000001
 44
0.0000000001
 40
0.0
 40
0.0
 40
0.0
 40
0.0
 40
0.2654650511
 40
1.0
 40
1.0
 40
1.0
 40
1.0
 10
33.5286527178
 20
21.0515351543
 30
0.0
 10
33.5277197075
 20
21.0506132028
 30
0.0
 10
33.5243467192
 20
21.0470050849
 30
0.0
 10
33.5215768909
 20
21.0427939242
 30
0.0
 10
33.5201352053
 20
21.0394631639
 30
0.0
  0
SPLINE
  5
4FD
100
AcDbEntity
  8
0
100
AcDbSpline
 62
9
  6
CONTINUOUS
 70
0
 71
3
 72
18
 73
14
 74
0
 42
0.0000001
 43
0.0000001
 44
0.0000000001
 40
0.0
 40
0.0
 40
0.0
 40
0.0
 40
0.0430849046
 40
0.0874860423
 40
0.1343269799
 40
0.1844237197
 40
0.2958011269
 40
0.4224293962
 40
0.5614723263
 40
0.7080357005
 40
0.8562397321
 40
0.9291210681
 40
1.0
 40
1.0
 40
1.0
 40
1.0
 10
35.879726932
 20
22.2186568306
 30
0.0
 10
35.8797129398
 20
22.2112704187
 30
0.0
 10
35.8780146591
 20
22.1962287618
 30
0.0
 10
35.8706265483
 20
22.1742569828
 30
0.0
 10
35.858533521
 20
22.1530997342
 30
0.0
 10
35.8357124286
 20
22.1254429315
 30
0.0
 10
35.7960075851
 20
22.0950324238
 30
0.0
 10
35.7370589559
 20
22.0676432742
 30
0.0
 10
35.6684540072
 20
22.0493841337
 30
0.0
 10
35.5942687826
 20
22.0413070386
 30
0.0
 10
35.5310329924
 20
22.0434706799
 30
0.0
 10
35.4814693445
 20
22.0507170398
 30
0.0
 10
35.4573936746
 20
22.0561356524
 30
0.0
 10
35.4456609213
 20
22.0592977773
 30
0.0
  0
SPLINE
  5
4FE
100
AcDbEntity
  8
0
100
AcDbSpline
 62
9
  6
CONTINUOUS
 70
0
 71
3
 72
23
 73
19
 74
0
 42
0.0000001
 43
0.0000001
 44
0.0000000001
 40
0.0
 40
0.0
 40
0.0
 40
0.0
 40
0.0623631683
 40
0.128747774
 40
0.1983438483
 40
0.2703243484
 40
0.3437133897
 40
0.4174553968
 40
0.4904884116
 40
0.5617861239
 40
0.6303921685
 40
0.6954902278
 40
0.7564474373
 40
0.8128939028
 40
0.8648039889
 40
0.9125796645
 40
0.9571793679
 40
1.0
 40
1.0
 40
1.0
 40
1.0
 10
32.447040364
 20
20.981125465
 30
0.0
 10
32.4695743127
 20
20.9681154837
 30
0.0
 10
32.5178950922
 20
20.9443046834
 30
0.0
 10
32.5958228675
 20
20.9160466132
 30
0.0
 10
32.6800543337
 20
20.8946669799
 30
0.0
 10
32.7687543089
 20
20.8806102225
 30
0.0
 10
32.8600575835
 20
20.8741443115
 30
0.0
 10
32.952018005
 20
20.8754424017
 30
0.0
 10
33.0426704166
 20
20.884456712
 30
0.0
 10
33.1300854265
 20
20.9009939829
 30
0.0
 10
33.2124022948
 20
20.9247238353
 30
0.0
 10
33.2878872228
 20
20.955125276
 30
0.0
 10
33.3549497883
 20
20.9915973129
 30
0.0
 10
33.4121808665
 20
21.0334232886
 30
0.0
 10
33.4583769667
 20
21.0797951894
 30
0.0
 10
33.4924646494
 20
21.1299210906
 30
0.0
 10
33.5134629516
 20
21.1828068695
 30
0.0
 10
33.5182399784
 20
21.2194350944
 30
0.0
 10
33.5182467277
 20
21.2373012676
 30
0.0
  0
SPLINE
  5
4FF
100
AcDbEntity
  8
0
100
AcDbSpline
 62
9
  6
CONTINUOUS
 70
0
 71
3
 72
10
 73
6
 74
0
 42
0.0000001
 43
0.0000001
 44
0.0000000001
 40
0.0
 40
0.0
 40
0.0
 40
0.0
 40
0.1938371474
 40
0.5437610644
 40
1.0
 40
1.0
 40
1.0
 40
1.0
 10
24.0850806971
 20
16.5368229005
 30
0.0
 10
24.0846636655
 20
16.5369493922
 30
0.0
 10
24.0833976117
 20
16.5370160577
 30
0.0
 10
24.0812981313
 20
16.5360091104
 30
0.0
 10
24.0799599195
 20
16.5347713692
 30
0.0
 10
24.0792691866
 20
16.5340130674
 30
0.0
  0
SPLINE
  5
500
100
AcDbEntity
  8
0
100
AcDbSpline
 62
9
  6
CONTINUOUS
 70
0
 71
3
 72
9
 73
5
 74
0
 42
0.0000001
 43
0.0000001
 44
0.0000000001
 40
0.0
 40
0.0
 40
0.0
 40
0.0
 40
0.5160506293
 40
1.0
 40
1.0
 40
1.0
 40
1.0
 10
32.447040364
 20
20.7565889052
 30
0.0
 10
32.429883793
 20
20.7664942561
 30
0.0
 10
32.3975768656
 20
20.7873818492
 30
0.0
 10
32.3678863515
 20
20.8119017248
 30
0.0
 10
32.3544189934
 20
20.824699611
 30
0.0
  0
SPLINE
  5
501
100
AcDbEntity
  8
0
100
AcDbSpline
 62
9
  6
CONTINUOUS
 70
0
 71
3
 72
9
 73
5
 74
0
 42
0.0000001
 43
0.0000001
 44
0.0000000001
 40
0.0
 40
0.0
 40
0.0
 40
0.0
 40
0.2612444156
 40
1.0
 40
1.0
 40
1.0
 40
1.0
 10
32.3544189934
 20
20.824699611
 30
0.0
 10
32.3490067869
 20
20.8298427728
 30
0.0
 10
32.3288524716
 20
20.85010301
 30
0.0
 10
32.3110449204
 20
20.8727784911
 30
0.0
 10
32.2999234341
 20
20.8907250218
 30
0.0
  0
SPLINE
  5
502
100
AcDbEntity
  8
0
100
AcDbSpline
 62
9
  6
CONTINUOUS
 70
0
 71
3
 72
9
 73
5
 74
0
 42
0.0000001
 43
0.0000001
 44
0.0000000001
 40
0.0
 40
0.0
 40
0.0
 40
0.0
 40
0.2556072376
 40
1.0
 40
1.0
 40
1.0
 40
1.0
 10
32.2893620771
 20
20.909343929
 30
0.0
 10
32.2872285353
 20
20.9134813704
 30
0.0
 10
32.2793139137
 20
20.9298855755
 30
0.0
 10
32.2732001948
 20
20.9471727775
 30
0.0
 10
32.2698670898
 20
20.9603136253
 30
0.0
  0
SPLINE
  5
503
100
AcDbEntity
  8
0
100
AcDbSpline
 62
9
  6
CONTINUOUS
 70
0
 71
3
 72
9
 73
5
 74
0
 42
0.0000001
 43
0.0000001
 44
0.0000000001
 40
0.0
 40
0.0
 40
0.0
 40
0.0
 40
0.5026079965
 40
1.0
 40
1.0
 40
1.0
 40
1.0
 10
32.2698670898
 20
20.9603136253
 30
0.0
 10
32.2676852642
 20
20.9689155262
 30
0.0
 10
32.2643648845
 20
20.9863080406
 30
0.0
 10
32.2632511624
 20
21.0039825114
 30
0.0
 10
32.2632526245
 20
21.0127647073
 30
0.0
  0
SPLINE
  5
504
100
AcDbEntity
  8
0
100
AcDbSpline
 62
9
  6
CONTINUOUS
 70
0
 71
3
 72
9
 73
5
 74
0
 42
0.0000001
 43
0.0000001
 44
0.0000000001
 40
0.0
 40
0.0
 40
0.0
 40
0.0
 40
0.4883767594
 40
1.0
 40
1.0
 40
1.0
 40
1.0
 10
25.4221015323
 20
16.5098038238
 30
0.0
 10
25.4213278109
 20
16.5107075223
 30
0.0
 10
25.4194117626
 20
16.5122933252
 30
0.0
 10
25.4171020905
 20
16.5131890087
 30
0.0
 10
25.41588946
 20
16.5134767345
 30
0.0
  0
SPLINE
  5
505
100
AcDbEntity
  8
0
100
AcDbSpline
 62
9
  6
CONTINUOUS
 70
0
 71
3
 72
9
 73
5
 74
0
 42
0.0000001
 43
0.0000001
 44
0.0000000001
 40
0.0
 40
0.0
 40
0.0
 40
0.0
 40
0.2369260616
 40
1.0
 40
1.0
 40
1.0
 40
1.0
 10
25.41588946
 20
16.5134767345
 30
0.0
 10
25.4151962159
 20
16.5136412234
 30
0.0
 10
25.4122166453
 20
16.5141053123
 30
0.0
 10
25.4091378525
 20
16.513730707
 30
0.0
 10
25.4069317963
 20
16.513098928
 30
0.0
  0
SPLINE
  5
506
100
AcDbEntity
  8
0
100
AcDbSpline
 62
7
  6
CONTINUOUS
 70
0
 71
3
 72
15
 73
11
 74
0
 42
0.0000001
 43
0.0000001
 44
0.0000000001
 40
0.0
 40
0.0
 40
0.0
 40
0.0
 40
0.1484017395
 40
0.2893995394
 40
0.4227488306
 40
0.5486801778
 40
0.6680138634
 40
0.78192844
 40
0.8919800929
 40
1.0
 40
1.0
 40
1.0
 40
1.0
 10
27.5450226035
 20
16.6975802773
 30
0.0
 10
27.5549338576
 20
16.7033025425
 30
0.0
 10
27.5738091525
 20
16.7152759729
 30
0.0
 10
27.5996324503
 20
16.7352591945
 30
0.0
 10
27.6219886157
 20
16.7566380709
 30
0.0
 10
27.6406125073
 20
16.7792230287
 30
0.0
 10
27.6553379082
 20
16.8027881191
 30
0.0
 10
27.6659868377
 20
16.8271411703
 30
0.0
 10
27.6724391963
 20
16.852028769
 30
0.0
 10
27.6738950651
 20
16.868879184
 30
0.0
 10
27.6738956197
 20
16.8772095251
 30
0.0
  0
SPLINE
  5
507
100
AcDbEntity
  8
0
100
AcDbSpline
 62
7
  6
CONTINUOUS
 70
0
 71
3
 72
11
 73
7
 74
0
 42
0.0000001
 43
0.0000001
 44
0.0000000001
 40
0.0
 40
0.0
 40
0.0
 40
0.0
 40
0.2306446623
 40
0.469870015
 40
0.7252386168
 40
1.0
 40
1.0
 40
1.0
 40
1.0
 10
26.9885389997
 20
16.9224184978
 30
0.0
 10
26.9855576106
 20
16.9206953483
 30
0.0
 10
26.9789107575
 20
16.9180957445
 30
0.0
 10
26.9679770461
 20
16.9172222427
 30
0.0
 10
26.9565842179
 20
16.9194387848
 30
0.0
 10
26.9493022142
 20
16.9227193518
 30
0.0
 10
26.9457496064
 20
16.9247704509
 30
0.0
  0
SPLINE
  5
508
100
AcDbEntity
  8
0
100
AcDbSpline
 62
7
  6
CONTINUOUS
 70
0
 71
3
 72
23
 73
19
 74
0
 42
0.0000001
 43
0.0000001
 44
0.0000000001
 40
0.0
 40
0.0
 40
0.0
 40
0.0
 40
0.0623527706
 40
0.1287521185
 40
0.1983592628
 40
0.2703350867
 40
0.3437259769
 40
0.417467801
 40
0.4905010801
 40
0.5617961362
 40
0.6304058451
 40
0.6955025596
 40
0.7564602857
 40
0.8129078828
 40
0.8648167079
 40
0.9126029463
 40
0.9571841265
 40
1.0
 40
1.0
 40
1.0
 40
1.0
 10
27.5450226035
 20
16.8608795935
 30
0.0
 10
27.5292250835
 20
16.8517588911
 30
0.0
 10
27.4953407922
 20
16.8350673347
 30
0.0
 10
27.4406986339
 20
16.8152446544
 30
0.0
 10
27.3816307139
 20
16.8002563057
 30
0.0
 10
27.3194349002
 20
16.7903977802
 30
0.0
 10
27.2554160976
 20
16.7858683055
 30
0.0
 10
27.1909359309
 20
16.7867777991
 30
0.0
 10
27.1273726747
 20
16.7930917558
 30
0.0
 10
27.0660821264
 20
16.8046995481
 30
0.0
 10
27.0083598415
 20
16.8213238502
 30
0.0
 10
26.9554349363
 20
16.8426511027
 30
0.0
 10
26.9084109451
 20
16.8682195191
 30
0.0
 10
26.868277146
 20
16.8975416693
 30
0.0
 10
26.835890998
 20
16.9300649888
 30
0.0
 10
26.8119834781
 20
16.9652046884
 30
0.0
 10
26.7972621117
 20
17.0022817257
 30
0.0
 10
26.7938981892
 20
17.0279566733
 30
0.0
 10
26.7938976414
 20
17.040482527
 30
0.0
  0
SPLINE
  5
509
100
AcDbEntity
  8
0
100
AcDbSpline
 62
7
  6
CONTINUOUS
 70
0
 71
3
 72
11
 73
7
 74
0
 42
0.0000001
 43
0.0000001
 44
0.0000000001
 40
0.0
 40
0.0
 40
0.0
 40
0.0
 40
0.2419049956
 40
0.4871903438
 40
0.7389933706
 40
1.0
 40
1.0
 40
1.0
 40
1.0
 10
27.8038929569
 20
17.5916440334
 30
0.0
 10
27.8038929569
 20
17.5823995754
 30
0.0
 10
27.8025288651
 20
17.5637534691
 30
0.0
 10
27.7963997445
 20
17.5360920533
 30
0.0
 10
27.7862597954
 20
17.5088633214
 30
0.0
 10
27.7770781283
 20
17.491483181
 30
0.0
 10
27.771909118
 20
17.4829526114
 30
0.0
  0
SPLINE
  5
50A
100
AcDbEntity
  8
0
100
AcDbSpline
 62
7
  6
CONTINUOUS
 70
0
 71
3
 72
10
 73
6
 74
0
 42
0.0000001
 43
0.0000001
 44
0.0000000001
 40
0.0
 40
0.0
 40
0.0
 40
0.0
 40
0.467717061
 40
0.7258790264
 40
1.0
 40
1.0
 40
1.0
 40
1.0
 10
27.771909118
 20
17.4829526114
 30
0.0
 10
27.7569738791
 20
17.4583045472
 30
0.0
 10
27.7272280112
 20
17.4238664936
 30
0.0
 10
27.6792402242
 20
17.385160844
 30
0.0
 10
27.6515744066
 20
17.3673879423
 30
0.0
 10
27.636946485
 20
17.3589425078
 30
0.0
  0
SPLINE
  5
50B
100
AcDbEntity
  8
0
100
AcDbSpline
 62
7
  6
CONTINUOUS
 70
0
 71
3
 72
23
 73
19
 74
0
 42
0.0000001
 43
0.0000001
 44
0.0000000001
 40
0.0
 40
0.0
 40
0.0
 40
0.0
 40
0.0623521401
 40
0.1287500854
 40
0.198356046
 40
0.2703316084
 40
0.3437231987
 40
0.4174676261
 40
0.490504153
 40
0.5618004662
 40
0.6304104832
 40
0.6955073708
 40
0.7564654762
 40
0.8129124114
 40
0.8648203205
 40
0.9126048051
 40
0.9571848859
 40
1.0
 40
1.0
 40
1.0
 40
1.0
 10
27.5220416331
 20
16.8741476629
 30
0.0
 10
27.5074106376
 20
16.8657004537
 30
0.0
 10
27.4760286834
 20
16.8502413816
 30
0.0
 10
27.4254216484
 20
16.831882791
 30
0.0
 10
27.3707156518
 20
16.818001193
 30
0.0
 10
27.313112092
 20
16.8088708646
 30
0.0
 10
27.2538191467
 20
16.8046757123
 30
0.0
 10
27.1940979657
 20
16.805519228
 30
0.0
 10
27.1352259103
 20
16.8113678314
 30
0.0
 10
27.07845958
 20
16.8221201594
 30
0.0
 10
27.0249990236
 20
16.83751865
 30
0.0
 10
26.9759825375
 20
16.8572738265
 30
0.0
 10
26.9324312194
 20
16.8809559942
 30
0.0
 10
26.8952636248
 20
16.9081167189
 30
0.0
 10
26.8652710014
 20
16.9382400057
 30
0.0
 10
26.8431344804
 20
16.9707880133
 30
0.0
 10
26.8295048564
 20
17.0051285967
 30
0.0
 10
26.8263948473
 20
17.0289080133
 30
0.0
 10
26.8263956197
 20
17.0405088413
 30
0.0
  0
SPLINE
  5
50C
100
AcDbEntity
  8
0
100
AcDbSpline
 62
9
  6
CONTINUOUS
 70
0
 71
3
 72
13
 73
9
 74
0
 42
0.0000001
 43
0.0000001
 44
0.0000000001
 40
0.0
 40
0.0
 40
0.0
 40
0.0
 40
0.1081052978
 40
0.2182358674
 40
0.3322337137
 40
0.4516610516
 40
0.7107242348
 40
1.0
 40
1.0
 40
1.0
 40
1.0
 10
24.8324034155
 20
16.4217199569
 30
0.0
 10
24.8324053693
 20
16.4158034299
 30
0.0
 10
24.8334386633
 20
16.4038363795
 30
0.0
 10
24.8380167773
 20
16.3861597492
 30
0.0
 10
24.8455830446
 20
16.3688648365
 30
0.0
 10
24.8599070015
 20
16.3459351632
 30
0.0
 10
24.8853517692
 20
16.3191820888
 30
0.0
 10
24.9102204325
 20
16.3020582962
 30
0.0
 10
24.9239312258
 20
16.294142366
 30
0.0
  0
SPLINE
  5
50D
100
AcDbEntity
  8
0
100
AcDbSpline
 62
7
  6
CONTINUOUS
 70
0
 71
3
 72
16
 73
12
 74
0
 42
0.0000001
 43
0.0000001
 44
0.0000000001
 40
0.0
 40
0.0
 40
0.0
 40
0.0
 40
0.0566269136
 40
0.116115508
 40
0.2419473495
 40
0.3742540234
 40
0.5093421109
 40
0.6431039707
 40
0.7715919398
 40
0.8913805389
 40
1.0
 40
1.0
 40
1.0
 40
1.0
 10
30.3274877874
 20
20.1836124296
 30
0.0
 10
30.3178183786
 20
20.1780297938
 30
0.0
 10
30.2974354929
 20
20.1675248592
 30
0.0
 10
30.2533335664
 20
20.1492279309
 30
0.0
 10
30.1928701318
 20
20.1320145819
 30
0.0
 10
30.11595353
 20
20.1207966202
 30
0.0
 10
30.0366750497
 20
20.1190817698
 30
0.0
 10
29.9585287807
 20
20.1269740471
 30
0.0
 10
29.8849384468
 20
20.1441254314
 30
0.0
 10
29.8191405973
 20
20.1697688981
 30
0.0
 10
29.7802451153
 20
20.1931179672
 30
0.0
 10
29.7632222335
 20
20.2061141082
 30
0.0
  0
SPLINE
  5
50E
100
AcDbEntity
  8
0
100
AcDbSpline
 62
7
  6
CONTINUOUS
 70
0
 71
3
 72
12
 73
8
 74
0
 42
0.0000001
 43
0.0000001
 44
0.0000000001
 40
0.0
 40
0.0
 40
0.0
 40
0.0
 40
0.2811313143
 40
0.5374781802
 40
0.7740380192
 40
0.8877467071
 40
1.0
 40
1.0
 40
1.0
 40
1.0
 10
29.7632222335
 20
20.2061141082
 30
0.0
 10
29.7515880788
 20
20.2149962187
 30
0.0
 10
29.7305904919
 20
20.2337499734
 30
0.0
 10
29.7060648776
 20
20.2660863234
 30
0.0
 10
29.6932149104
 20
20.2953483082
 30
0.0
 10
29.6881686827
 20
20.3189607799
 30
0.0
 10
29.6873325292
 20
20.3307428037
 30
0.0
 10
29.6873295768
 20
20.3365872801
 30
0.0
  0
SPLINE
  5
50F
100
AcDbEntity
  8
0
100
AcDbSpline
 62
7
  6
CONTINUOUS
 70
0
 71
3
 72
11
 73
7
 74
0
 42
0.0000001
 43
0.0000001
 44
0.0000000001
 40
0.0
 40
0.0
 40
0.0
 40
0.0
 40
0.2419049956
 40
0.4871903438
 40
0.7389933706
 40
1.0
 40
1.0
 40
1.0
 40
1.0
 10
33.4607472064
 20
20.8576303571
 30
0.0
 10
33.4607472064
 20
20.8483858991
 30
0.0
 10
33.4593831146
 20
20.8297397928
 30
0.0
 10
33.453253994
 20
20.802078377
 30
0.0
 10
33.4431140449
 20
20.7748496451
 30
0.0
 10
33.4339323778
 20
20.7574695047
 30
0.0
 10
33.4287633675
 20
20.7489389351
 30
0.0
  0
SPLINE
  5
510
100
AcDbEntity
  8
0
100
AcDbSpline
 62
7
  6
CONTINUOUS
 70
0
 71
3
 72
10
 73
6
 74
0
 42
0.0000001
 43
0.0000001
 44
0.0000000001
 40
0.0
 40
0.0
 40
0.0
 40
0.0
 40
0.467717061
 40
0.7258790264
 40
1.0
 40
1.0
 40
1.0
 40
1.0
 10
33.4287633675
 20
20.7489389351
 30
0.0
 10
33.4138281286
 20
20.7242908709
 30
0.0
 10
33.3840822607
 20
20.6898528173
 30
0.0
 10
33.3360944736
 20
20.6511471678
 30
0.0
 10
33.3084286561
 20
20.633374266
 30
0.0
 10
33.2938007345
 20
20.6249288316
 30
0.0
  0
SPLINE
  5
511
100
AcDbEntity
  8
0
100
AcDbSpline
 62
7
  6
CONTINUOUS
 70
0
 71
3
 72
15
 73
11
 74
0
 42
0.0000001
 43
0.0000001
 44
0.0000000001
 40
0.0
 40
0.0
 40
0.0
 40
0.0
 40
0.1484017395
 40
0.2893995394
 40
0.4227488306
 40
0.5486801778
 40
0.6680138634
 40
0.78192844
 40
0.8919800929
 40
1.0
 40
1.0
 40
1.0
 40
1.0
 10
33.201876853
 20
19.963566601
 30
0.0
 10
33.2117881071
 20
19.9692888662
 30
0.0
 10
33.230663402
 20
19.9812622966
 30
0.0
 10
33.2564866998
 20
20.0012455182
 30
0.0
 10
33.2788428652
 20
20.0226243946
 30
0.0
 10
33.2974667568
 20
20.0452093524
 30
0.0
 10
33.3121921577
 20
20.0687744428
 30
0.0
 10
33.3228410872
 20
20.093127494
 30
0.0
 10
33.3292934458
 20
20.1180150927
 30
0.0
 10
33.3307493146
 20
20.1348655077
 30
0.0
 10
33.3307498692
 20
20.1431958488
 30
0.0
  0
SPLINE
  5
512
100
AcDbEntity
  8
0
100
AcDbSpline
 62
7
  6
CONTINUOUS
 70
0
 71
3
 72
17
 73
13
 74
0
 42
0.0000001
 43
0.0000001
 44
0.0000000001
 40
0.0
 40
0.0
 40
0.0
 40
0.0
 40
0.0558167343
 40
0.1142106115
 40
0.2373771487
 40
0.3669971008
 40
0.5
 40
0.6330028992
 40
0.7626228513
 40
0.8857893885
 40
0.9441832657
 40
1.0
 40
1.0
 40
1.0
 40
1.0
 10
27.636946485
 20
17.1466533968
 30
0.0
 10
27.6234528977
 20
17.1388628705
 30
0.0
 10
27.5951361832
 20
17.1241215067
 30
0.0
 10
27.5341405561
 20
17.0981028297
 30
0.0
 10
27.4507536225
 20
17.0727587673
 30
0.0
 10
27.3443968852
 20
17.054388041
 30
0.0
 10
27.2338956197
 20
17.0481796454
 30
0.0
 10
27.1233943543
 20
17.054388041
 30
0.0
 10
27.017037617
 20
17.0727587673
 30
0.0
 10
26.9336506834
 20
17.0981028297
 30
0.0
 10
26.8726550563
 20
17.1241215067
 30
0.0
 10
26.8443383418
 20
17.1388628705
 30
0.0
 10
26.8308447545
 20
17.1466533968
 30
0.0
  0
SPLINE
  5
513
100
AcDbEntity
  8
0
100
AcDbSpline
 62
7
  6
CONTINUOUS
 70
0
 71
3
 72
11
 73
7
 74
0
 42
0.0000001
 43
0.0000001
 44
0.0000000001
 40
0.0
 40
0.0
 40
0.0
 40
0.0
 40
0.2471395543
 40
0.5000151917
 40
0.7528977305
 40
1.0
 40
1.0
 40
1.0
 40
1.0
 10
33.0384167974
 20
20.4743565082
 30
0.0
 10
33.0145032961
 20
20.4689875283
 30
0.0
 10
32.9654393379
 20
20.460996244
 30
0.0
 10
32.8907440861
 20
20.4570298864
 30
0.0
 10
32.8160531284
 20
20.4610005164
 30
0.0
 10
32.7669914876
 20
20.4689866108
 30
0.0
 10
32.7430813967
 20
20.4743539015
 30
0.0
  0
SPLINE
  5
514
100
AcDbEntity
  8
0
100
AcDbSpline
 62
7
  6
CONTINUOUS
 70
0
 71
3
 72
11
 73
7
 74
0
 42
0.0000001
 43
0.0000001
 44
0.0000000001
 40
0.0
 40
0.0
 40
0.0
 40
0.0
 40
0.2471395543
 40
0.5000151917
 40
0.7528977305
 40
1.0
 40
1.0
 40
1.0
 40
1.0
 10
27.3815625479
 20
17.2083701844
 30
0.0
 10
27.3576490466
 20
17.2030012046
 30
0.0
 10
27.3085850884
 20
17.1950099203
 30
0.0
 10
27.2338898367
 20
17.1910435627
 30
0.0
 10
27.1591988789
 20
17.1950141927
 30
0.0
 10
27.1101372381
 20
17.2030002871
 30
0.0
 10
27.0862271472
 20
17.2083675777
 30
0.0
  0
SPLINE
  5
515
100
AcDbEntity
  8
0
100
AcDbSpline
 62
7
  6
CONTINUOUS
 70
0
 71
3
 72
15
 73
11
 74
0
 42
0.0000001
 43
0.0000001
 44
0.0000000001
 40
0.0
 40
0.0
 40
0.0
 40
0.0
 40
0.1109821526
 40
0.2290343617
 40
0.3527801973
 40
0.4807882786
 40
0.6113458031
 40
0.7426259387
 40
0.8727830961
 40
1.0
 40
1.0
 40
1.0
 40
1.0
 10
27.636946485
 20
17.3589425078
 30
0.0
 10
27.6167013511
 20
17.3472539743
 30
0.0
 10
27.5733239712
 20
17.325837222
 30
0.0
 10
27.5033943164
 20
17.3003474434
 30
0.0
 10
27.4278286823
 20
17.2809587867
 30
0.0
 10
27.3482334197
 20
17.2680689552
 30
0.0
 10
27.2662491113
 20
17.2619281089
 30
0.0
 10
27.1835851637
 20
17.262677724
 30
0.0
 10
27.1019829395
 20
17.2703071368
 30
0.0
 10
27.0485586244
 20
17.2800129702
 30
0.0
 10
27.0224474055
 20
17.2860353161
 30
0.0
  0
SPLINE
  5
516
100
AcDbEntity
  8
0
100
AcDbSpline
 62
9
  6
CONTINUOUS
 70
0
 71
3
 72
21
 73
17
 74
0
 42
0.0000001
 43
0.0000001
 44
0.0000000001
 40
0.0
 40
0.0
 40
0.0
 40
0.0
 40
0.0428081329
 40
0.0873444329
 40
0.1350181047
 40
0.1867491577
 40
0.2429594973
 40
0.30363798
 40
0.368448747
 40
0.4367804454
 40
0.5806097741
 40
0.727675241
 40
0.7998998615
 40
0.8699516602
 40
0.9369516209
 40
1.0
 40
1.0
 40
1.0
 40
1.0
 10
26.8516465697
 20
17.6318099409
 30
0.0
 10
26.8516449522
 20
17.6374411512
 30
0.0
 10
26.8501664465
 20
17.648979792
 30
0.0
 10
26.8436176672
 20
17.665653955
 30
0.0
 10
26.8329959417
 20
17.6814843475
 30
0.0
 10
26.8185817179
 20
17.6961567812
 30
0.0
 10
26.8007106941
 20
17.7094230523
 30
0.0
 10
26.7797508912
 20
17.7210356378
 30
0.0
 10
26.7561321307
 20
17.7307714953
 30
0.0
 10
26.7211581094
 20
17.7411666038
 30
0.0
 10
26.6741632597
 20
17.7481804958
 30
0.0
 10
26.6261712786
 20
17.7473573897
 30
0.0
 10
26.5884670509
 20
17.741860691
 30
0.0
 10
26.5616481926
 20
17.7354627755
 30
0.0
 10
26.5367193673
 20
17.726885785
 30
0.0
 10
26.5211804827
 20
17.719623963
 30
0.0
 10
26.5139053381
 20
17.7156417433
 30
0.0
  0
SPLINE
  5
517
100
AcDbEntity
  8
0
100
AcDbSpline
 62
7
  6
CONTINUOUS
 70
0
 71
3
 72
14
 73
10
 74
0
 42
0.0000001
 43
0.0000001
 44
0.0000000001
 40
0.0
 40
0.0
 40
0.0
 40
0.0
 40
0.1080687362
 40
0.2181701366
 40
0.3321362069
 40
0.4515238358
 40
0.7104696411
 40
0.8515311773
 40
1.0
 40
1.0
 40
1.0
 40
1.0
 10
33.2982498692
 20
20.306495165
 30
0.0
 10
33.2982493555
 20
20.2987801332
 30
0.0
 10
33.2969009486
 20
20.2831742811
 30
0.0
 10
33.2909255264
 20
20.2601252949
 30
0.0
 10
33.2810618441
 20
20.2375697954
 30
0.0
 10
33.262385358
 20
20.2076770542
 30
0.0
 10
33.2365506427
 20
20.1805007927
 30
0.0
 10
33.2055606197
 20
20.1565275711
 30
0.0
 10
33.1880750554
 20
20.1454335845
 30
0.0
 10
33.1788958826
 20
20.1401339866
 30
0.0
  0
SPLINE
  5
518
100
AcDbEntity
  8
0
100
AcDbSpline
 62
9
  6
CONTINUOUS
 70
0
 71
3
 72
11
 73
7
 74
0
 42
0.0000001
 43
0.0000001
 44
0.0000000001
 40
0.0
 40
0.0
 40
0.0
 40
0.0
 40
0.2177670052
 40
0.4517776552
 40
0.7118830877
 40
1.0
 40
1.0
 40
1.0
 40
1.0
 10
24.1865250899
 20
16.5452804263
 30
0.0
 10
24.1871846445
 20
16.5456612203
 30
0.0
 10
24.1887031305
 20
16.5462144139
 30
0.0
 10
24.1912270863
 20
16.5462637236
 30
0.0
 10
24.1939079274
 20
16.5456145137
 30
0.0
 10
24.1956537501
 20
16.5447914347
 30
0.0
 10
24.1965263746
 20
16.5442876246
 30
0.0
  0
SPLINE
  5
519
100
AcDbEntity
  8
0
100
AcDbSpline
 62
7
  6
CONTINUOUS
 70
0
 71
3
 72
11
 73
7
 74
0
 42
0.0000001
 43
0.0000001
 44
0.0000000001
 40
0.0
 40
0.0
 40
0.0
 40
0.0
 40
0.2419049956
 40
0.4871903438
 40
0.7389933706
 40
1.0
 40
1.0
 40
1.0
 40
1.0
 10
33.4607472064
 20
20.6453412461
 30
0.0
 10
33.4607472064
 20
20.636096788
 30
0.0
 10
33.4593831146
 20
20.6174506817
 30
0.0
 10
33.453253994
 20
20.5897892659
 30
0.0
 10
33.4431140449
 20
20.562560534
 30
0.0
 10
33.4339323778
 20
20.5451803937
 30
0.0
 10
33.4287633675
 20
20.536649824
 30
0.0
  0
SPLINE
  5
51A
100
AcDbEntity
  8
0
100
AcDbSpline
 62
7
  6
CONTINUOUS
 70
0
 71
3
 72
10
 73
6
 74
0
 42
0.0000001
 43
0.0000001
 44
0.0000000001
 40
0.0
 40
0.0
 40
0.0
 40
0.0
 40
0.467717061
 40
0.7258790264
 40
1.0
 40
1.0
 40
1.0
 40
1.0
 10
33.4287633675
 20
20.536649824
 30
0.0
 10
33.4138281286
 20
20.5120017599
 30
0.0
 10
33.3840822607
 20
20.4775637063
 30
0.0
 10
33.3360944736
 20
20.4388580567
 30
0.0
 10
33.3084286561
 20
20.421085155
 30
0.0
 10
33.2938007345
 20
20.4126397205
 30
0.0
  0
SPLINE
  5
51B
100
AcDbEntity
  8
0
100
AcDbSpline
 62
7
  6
CONTINUOUS
 70
0
 71
3
 72
23
 73
19
 74
0
 42
0.0000001
 43
0.0000001
 44
0.0000000001
 40
0.0
 40
0.0
 40
0.0
 40
0.0
 40
0.0428151141
 40
0.0873951949
 40
0.1351796795
 40
0.1870875886
 40
0.2435345238
 40
0.3044926292
 40
0.3695895168
 40
0.4381995338
 40
0.509495847
 40
0.5825323739
 40
0.6562768013
 40
0.7296683916
 40
0.801643954
 40
0.8712499146
 40
0.9376478599
 40
1.0
 40
1.0
 40
1.0
 40
1.0
 10
32.4507498692
 20
20.1431958488
 30
0.0
 10
32.4507490352
 20
20.1306698015
 30
0.0
 10
32.4541070818
 20
20.104993867
 30
0.0
 10
32.4688237311
 20
20.067914464
 30
0.0
 10
32.4927257414
 20
20.032770603
 30
0.0
 10
32.5251104145
 20
20.0002448455
 30
0.0
 10
32.5652422959
 20
19.970917928
 30
0.0
 10
32.612267032
 20
19.9453469985
 30
0.0
 10
32.6651928084
 20
19.9240162558
 30
0.0
 10
32.7229170901
 20
19.9073896647
 30
0.0
 10
32.7842107965
 20
19.895779789
 30
0.0
 10
32.8477781691
 20
19.8894647326
 30
0.0
 10
32.9122623892
 20
19.8885539426
 30
0.0
 10
32.9762842196
 20
19.8930836777
 30
0.0
 10
33.0384819284
 20
19.9029421918
 30
0.0
 10
33.0975509799
 20
19.917930911
 30
0.0
 10
33.1521941588
 20
19.9377536837
 30
0.0
 10
33.1860789682
 20
19.954445688
 30
0.0
 10
33.201876853
 20
19.963566601
 30
0.0
  0
SPLINE
  5
51C
100
AcDbEntity
  8
0
100
AcDbSpline
 62
7
  6
CONTINUOUS
 70
0
 71
3
 72
23
 73
19
 74
0
 42
0.0000001
 43
0.0000001
 44
0.0000000001
 40
0.0
 40
0.0
 40
0.0
 40
0.0
 40
0.0623527706
 40
0.1287521185
 40
0.1983592628
 40
0.2703350867
 40
0.3437259769
 40
0.417467801
 40
0.4905010801
 40
0.5617961362
 40
0.6304058451
 40
0.6955025596
 40
0.7564602857
 40
0.8129078828
 40
0.8648167079
 40
0.9126029463
 40
0.9571841265
 40
1.0
 40
1.0
 40
1.0
 40
1.0
 10
33.201876853
 20
20.1268659172
 30
0.0
 10
33.186079333
 20
20.1177452148
 30
0.0
 10
33.1521950417
 20
20.1010536585
 30
0.0
 10
33.0975528834
 20
20.0812309782
 30
0.0
 10
33.0384849634
 20
20.0662426294
 30
0.0
 10
32.9762891497
 20
20.0563841039
 30
0.0
 10
32.9122703471
 20
20.0518546292
 30
0.0
 10
32.8477901804
 20
20.0527641228
 30
0.0
 10
32.7842269242
 20
20.0590780795
 30
0.0
 10
32.7229363759
 20
20.0706858719
 30
0.0
 10
32.665214091
 20
20.0873101739
 30
0.0
 10
32.6122891858
 20
20.1086374264
 30
0.0
 10
32.5652651946
 20
20.1342058428
 30
0.0
 10
32.5251313955
 20
20.163527993
 30
0.0
 10
32.4927452475
 20
20.1960513125
 30
0.0
 10
32.4688377275
 20
20.2311910121
 30
0.0
 10
32.4541163612
 20
20.2682680495
 30
0.0
 10
32.4507524387
 20
20.293942997
 30
0.0
 10
32.4507518909
 20
20.3064688507
 30
0.0
  0
SPLINE
  5
51D
100
AcDbEntity
  8
0
100
AcDbSpline
 62
7
  6
CONTINUOUS
 70
0
 71
3
 72
15
 73
11
 74
0
 42
0.0000001
 43
0.0000001
 44
0.0000000001
 40
0.0
 40
0.0
 40
0.0
 40
0.0
 40
0.1080198438
 40
0.2180702008
 40
0.3319840788
 40
0.4513190231
 40
0.5772529451
 40
0.7106052448
 40
0.8516019961
 40
1.0
 40
1.0
 40
1.0
 40
1.0
 10
33.3307478475
 20
20.3065214793
 30
0.0
 10
33.3307482119
 20
20.2981902347
 30
0.0
 10
33.3292952139
 20
20.2813379441
 30
0.0
 10
33.322847415
 20
20.2564463242
 30
0.0
 10
33.3121995603
 20
20.2320895917
 30
0.0
 10
33.2974745917
 20
20.2085203942
 30
0.0
 10
33.2788498241
 20
20.1859312554
 30
0.0
 10
33.256491409
 20
20.1645493096
 30
0.0
 10
33.2306659037
 20
20.1445633519
 30
0.0
 10
33.2117889382
 20
20.1325886623
 30
0.0
 10
33.201876853
 20
20.1268659172
 30
0.0
  0
SPLINE
  5
51E
100
AcDbEntity
  8
0
100
AcDbSpline
 62
9
  6
CONTINUOUS
 70
0
 71
3
 72
12
 73
8
 74
0
 42
0.0000001
 43
0.0000001
 44
0.0000000001
 40
0.0
 40
0.0
 40
0.0
 40
0.0
 40
0.2559694511
 40
0.5170895828
 40
0.7692194285
 40
0.8880848407
 40
1.0
 40
1.0
 40
1.0
 40
1.0
 10
26.7279686516
 20
17.514038102
 30
0.0
 10
26.7097491395
 20
17.5183815304
 30
0.0
 10
26.6720648815
 20
17.5237398274
 30
0.0
 10
26.6155750626
 20
17.5224765782
 30
0.0
 10
26.5698604965
 20
17.5137887316
 30
0.0
 10
26.5364215542
 20
17.5022181528
 30
0.0
 10
26.5210887819
 20
17.4950372087
 30
0.0
 10
26.5139053381
 20
17.4911051835
 30
0.0
  0
SPLINE
  5
51F
100
AcDbEntity
  8
0
100
AcDbSpline
 62
7
  6
CONTINUOUS
 70
0
 71
3
 72
14
 73
10
 74
0
 42
0.0000001
 43
0.0000001
 44
0.0000000001
 40
0.0
 40
0.0
 40
0.0
 40
0.0
 40
0.1080737018
 40
0.2181564118
 40
0.3321105751
 40
0.4515004065
 40
0.7105267255
 40
0.8515848368
 40
1.0
 40
1.0
 40
1.0
 40
1.0
 10
30.4373159122
 20
20.3368237969
 30
0.0
 10
30.4373195009
 20
20.3297196126
 30
0.0
 10
30.4360951832
 20
20.3153501966
 30
0.0
 10
30.4306186756
 20
20.2941211134
 30
0.0
 10
30.4215402195
 20
20.2733525244
 30
0.0
 10
30.4043592693
 20
20.2458125134
 30
0.0
 10
30.3805642669
 20
20.2207860508
 30
0.0
 10
30.3520330166
 20
20.1987054415
 30
0.0
 10
30.3359367455
 20
20.1884904378
 30
0.0
 10
30.3274877874
 20
20.1836124296
 30
0.0
  0
SPLINE
  5
520
100
AcDbEntity
  8
0
100
AcDbSpline
 62
7
  6
CONTINUOUS
 70
0
 71
3
 72
23
 73
19
 74
0
 42
0.0000001
 43
0.0000001
 44
0.0000000001
 40
0.0
 40
0.0
 40
0.0
 40
0.0
 40
0.0623521401
 40
0.1287500854
 40
0.198356046
 40
0.2703316084
 40
0.3437231987
 40
0.4174676261
 40
0.490504153
 40
0.5618004662
 40
0.6304104832
 40
0.6955073708
 40
0.7564654762
 40
0.8129124114
 40
0.8648203205
 40
0.9126048051
 40
0.9571848859
 40
1.0
 40
1.0
 40
1.0
 40
1.0
 10
33.1788958826
 20
20.1401339866
 30
0.0
 10
33.1642648871
 20
20.1316867774
 30
0.0
 10
33.1328829329
 20
20.1162277053
 30
0.0
 10
33.0822758979
 20
20.0978691147
 30
0.0
 10
33.0275699013
 20
20.0839875168
 30
0.0
 10
32.9699663415
 20
20.0748571884
 30
0.0
 10
32.9106733962
 20
20.070662036
 30
0.0
 10
32.8509522152
 20
20.0715055517
 30
0.0
 10
32.7920801598
 20
20.0773541551
 30
0.0
 10
32.7353138295
 20
20.0881064831
 30
0.0
 10
32.6818532731
 20
20.1035049737
 30
0.0
 10
32.632836787
 20
20.1232601503
 30
0.0
 10
32.5892854689
 20
20.1469423179
 30
0.0
 10
32.5521178743
 20
20.1741030426
 30
0.0
 10
32.5221252509
 20
20.2042263294
 30
0.0
 10
32.4999887299
 20
20.236774337
 30
0.0
 10
32.4863591059
 20
20.2711149204
 30
0.0
 10
32.4832490968
 20
20.294894337
 30
0.0
 10
32.4832498692
 20
20.306495165
 30
0.0
  0
SPLINE
  5
521
100
AcDbEntity
  8
0
100
AcDbSpline
 62
9
  6
CONTINUOUS
 70
0
 71
3
 72
23
 73
19
 74
0
 42
0.0000001
 43
0.0000001
 44
0.0000000001
 40
0.0
 40
0.0
 40
0.0
 40
0.0
 40
0.0428045989
 40
0.0873882336
 40
0.1351699112
 40
0.1870807426
 40
0.243526013
 40
0.304484733
 40
0.3695826036
 40
0.4381919694
 40
0.5094892832
 40
0.5825267995
 40
0.6562737588
 40
0.7296637088
 40
0.8016352452
 40
0.8712522092
 40
0.9376603944
 40
1.0
 40
1.0
 40
1.0
 40
1.0
 10
25.4574018528
 20
16.197183397
 30
0.0
 10
25.4574022268
 20
16.1882892611
 30
0.0
 10
25.4550213692
 20
16.1700540069
 30
0.0
 10
25.4445608599
 20
16.1437250449
 30
0.0
 10
25.4275962021
 20
16.1187572301
 30
0.0
 10
25.4045915044
 20
16.095659806
 30
0.0
 10
25.3760893545
 20
16.0748309914
 30
0.0
 10
25.3426931425
 20
16.0566653444
 30
0.0
 10
25.3051012749
 20
16.0415222195
 30
0.0
 10
25.2641064413
 20
16.0297039514
 30
0.0
 10
25.2205719986
 20
16.0214676579
 30
0.0
 10
25.1754249388
 20
16.0169720925
 30
0.0
 10
25.1296259819
 20
16.0163355849
 30
0.0
 10
25.0841561659
 20
16.0195429353
 30
0.0
 10
25.0399812269
 20
16.026549567
 30
0.0
 10
24.9980247215
 20
16.0371932233
 30
0.0
 10
24.9592158502
 20
16.0512773817
 30
0.0
 10
24.9351490341
 20
16.0631292016
 30
0.0
 10
24.9239312258
 20
16.0696058063
 30
0.0
  0
SPLINE
  5
522
100
AcDbEntity
  8
0
100
AcDbSpline
 62
7
  6
CONTINUOUS
 70
0
 71
3
 72
10
 73
6
 74
0
 42
0.0000001
 43
0.0000001
 44
0.0000000001
 40
0.0
 40
0.0
 40
0.0
 40
0.0
 40
0.2427530894
 40
0.4887902041
 40
1.0
 40
1.0
 40
1.0
 40
1.0
 10
30.6298230076
 20
20.3472711815
 30
0.0
 10
30.6298215411
 20
20.3384061065
 30
0.0
 10
30.6285525697
 20
20.3205273697
 30
0.0
 10
30.6209015676
 20
20.2847327084
 30
0.0
 10
30.6096353735
 20
20.259051036
 30
0.0
 10
30.6002416633
 20
20.2429177482
 30
0.0
  0
SPLINE
  5
523
100
AcDbEntity
  8
0
100
AcDbSpline
 62
9
  6
CONTINUOUS
 70
0
 71
3
 72
16
 73
12
 74
0
 42
0.0000001
 43
0.0000001
 44
0.0000000001
 40
0.0
 40
0.0
 40
0.0
 40
0.0
 40
0.2176008484
 40
0.4141922053
 40
0.5866540074
 40
0.7318717655
 40
0.8468401633
 40
0.929945944
 40
0.9806951218
 40
0.9939834358
 40
1.0
 40
1.0
 40
1.0
 40
1.0
 10
27.210108903
 20
17.3847514777
 30
0.0
 10
27.210108903
 20
17.38413582
 30
0.0
 10
27.2101121056
 20
17.3829639024
 30
0.0
 10
27.2101275076
 20
17.3813043
 30
0.0
 10
27.2101530542
 20
17.3798489979
 30
0.0
 10
27.2101873111
 20
17.3786267363
 30
0.0
 10
27.2102316435
 20
17.3776527523
 30
0.0
 10
27.2102794912
 20
17.3769587286
 30
0.0
 10
27.2103347533
 20
17.3765307572
 30
0.0
 10
27.2103779028
 20
17.3763521676
 30
0.0
 10
27.2104120511
 20
17.3762928541
 30
0.0
 10
27.2104290735
 20
17.3762927693
 30
0.0
  0
SPLINE
  5
524
100
AcDbEntity
  8
0
100
AcDbSpline
 62
9
  6
CONTINUOUS
 70
0
 71
3
 72
11
 73
7
 74
0
 42
0.0000001
 43
0.0000001
 44
0.0000000001
 40
0.0
 40
0.0
 40
0.0
 40
0.0
 40
0.2851725988
 40
0.5443681532
 40
0.7796214331
 40
1.0
 40
1.0
 40
1.0
 40
1.0
 10
27.1490463838
 20
17.370390389
 30
0.0
 10
27.1490463838
 20
17.3693975955
 30
0.0
 10
27.1488862309
 20
17.3674963081
 30
0.0
 10
27.1481114183
 20
17.3648720178
 30
0.0
 10
27.1468160489
 20
17.3627086952
 30
0.0
 10
27.1455909397
 20
17.3616491795
 30
0.0
 10
27.1449354894
 20
17.3612504152
 30
0.0
  0
SPLINE
  5
525
100
AcDbEntity
  8
0
100
AcDbSpline
 62
9
  6
CONTINUOUS
 70
0
 71
3
 72
11
 73
7
 74
0
 42
0.0000001
 43
0.0000001
 44
0.0000000001
 40
0.0
 40
0.0
 40
0.0
 40
0.0
 40
0.2912597925
 40
0.5523593558
 40
0.7850520896
 40
1.0
 40
1.0
 40
1.0
 40
1.0
 10
26.5139053381
 20
17.4911051835
 30
0.0
 10
26.5139053381
 20
17.4900834402
 30
0.0
 10
26.5137459042
 20
17.488139553
 30
0.0
 10
26.5129673983
 20
17.4854738989
 30
0.0
 10
26.5116584396
 20
17.4833171258
 30
0.0
 10
26.510410655
 20
17.4823008567
 30
0.0
 10
26.5097492256
 20
17.4819387962
 30
0.0
  0
SPLINE
  5
526
100
AcDbEntity
  8
0
100
AcDbSpline
 62
9
  6
CONTINUOUS
 70
0
 71
3
 72
11
 73
7
 74
0
 42
0.0000001
 43
0.0000001
 44
0.0000000001
 40
0.0
 40
0.0
 40
0.0
 40
0.0
 40
0.2910662246
 40
0.5512159474
 40
0.7837560679
 40
1.0
 40
1.0
 40
1.0
 40
1.0
 10
24.2671839382
 20
16.485846482
 30
0.0
 10
24.2634634395
 20
16.4838099804
 30
0.0
 10
24.2567053469
 20
16.4793707283
 30
0.0
 10
24.2485891305
 20
16.4711888098
 30
0.0
 10
24.2434335573
 20
16.4620649873
 30
0.0
 10
24.2422267056
 20
16.4554791379
 30
0.0
 10
24.2422260432
 20
16.4523280462
 30
0.0
  0
SPLINE
  5
527
100
AcDbEntity
  8
0
100
AcDbSpline
 62
9
  6
CONTINUOUS
 70
0
 71
3
 72
9
 73
5
 74
0
 42
0.0000001
 43
0.0000001
 44
0.0000000001
 40
0.0
 40
0.0
 40
0.0
 40
0.0
 40
0.2607356509
 40
1.0
 40
1.0
 40
1.0
 40
1.0
 10
25.4136824989
 20
16.5045285266
 30
0.0
 10
25.415903057
 20
16.5015048738
 30
0.0
 10
25.4239976288
 20
16.4896149968
 30
0.0
 10
25.4302773027
 20
16.4764080961
 30
0.0
 10
25.433305964
 20
16.4662119184
 30
0.0
  0
SPLINE
  5
528
100
AcDbEntity
  8
0
100
AcDbSpline
 62
9
  6
CONTINUOUS
 70
0
 71
3
 72
25
 73
21
 74
0
 42
0.0000001
 43
0.0000001
 44
0.0000000001
 40
0.0
 40
0.0
 40
0.0
 40
0.0
 40
0.0224497063
 40
0.0445877086
 40
0.0667911873
 40
0.0894197564
 40
0.1370805307
 40
0.1896436829
 40
0.2480053753
 40
0.3121631594
 40
0.3814243217
 40
0.4546374222
 40
0.5303383971
 40
0.6068803249
 40
0.6825700916
 40
0.7557594607
 40
0.8249939152
 40
0.8891167753
 40
0.9474512044
 40
1.0
 40
1.0
 40
1.0
 40
1.0
 10
25.433305964
 20
16.4662119184
 30
0.0
 10
25.4347941092
 20
16.4612019844
 30
0.0
 10
25.4369889394
 20
16.4510045739
 30
0.0
 10
25.4378000199
 20
16.4354132181
 30
0.0
 10
25.4361143182
 20
16.4198465673
 30
0.0
 10
25.4304883132
 20
16.3989837724
 30
0.0
 10
25.4169011825
 20
16.3733671087
 30
0.0
 10
25.3918712945
 20
16.3458325742
 30
0.0
 10
25.3588708576
 20
16.3215401047
 30
0.0
 10
25.3189565983
 20
16.3011745092
 30
0.0
 10
25.273405182
 20
16.2853146188
 30
0.0
 10
25.2236769306
 20
16.2744467827
 30
0.0
 10
25.1713795202
 20
16.2689396746
 30
0.0
 10
25.1182200769
 20
16.268946696
 30
0.0
 10
25.065933405
 20
16.2744800959
 30
0.0
 10
25.0162238695
 20
16.2853659697
 30
0.0
 10
24.9706973931
 20
16.3012333829
 30
0.0
 10
24.9308116538
 20
16.3216230694
 30
0.0
 10
24.8978488548
 20
16.3458982921
 30
0.0
 10
24.8803393501
 20
16.3652187608
 30
0.0
 10
24.8733671803
 20
16.3752707921
 30
0.0
  0
SPLINE
  5
529
100
AcDbEntity
  8
0
100
AcDbSpline
 62
9
  6
CONTINUOUS
 70
0
 71
3
 72
9
 73
5
 74
0
 42
0.0000001
 43
0.0000001
 44
0.0000000001
 40
0.0
 40
0.0
 40
0.0
 40
0.0
 40
0.5201453289
 40
1.0
 40
1.0
 40
1.0
 40
1.0
 10
25.3109767442
 20
16.5931124282
 30
0.0
 10
25.3187903788
 20
16.5942097063
 30
0.0
 10
25.3336961577
 20
16.5973678274
 30
0.0
 10
25.3478777857
 20
16.6030246471
 30
0.0
 10
25.354333207
 20
16.6063881425
 30
0.0
  0
SPLINE
  5
52A
100
AcDbEntity
  8
0
100
AcDbSpline
 62
9
  6
CONTINUOUS
 70
0
 71
3
 72
9
 73
5
 74
0
 42
0.0000001
 43
0.0000001
 44
0.0000000001
 40
0.0
 40
0.0
 40
0.0
 40
0.0
 40
0.2552785601
 40
1.0
 40
1.0
 40
1.0
 40
1.0
 10
25.354333207
 20
16.6063881425
 30
0.0
 10
25.3550347801
 20
16.6067536861
 30
0.0
 10
25.3577672481
 20
16.6082156651
 30
0.0
 10
25.3604355956
 20
16.6097980846
 30
0.0
 10
25.3623769697
 20
16.6110459688
 30
0.0
  0
SPLINE
  5
52B
100
AcDbEntity
  8
0
100
AcDbSpline
 62
9
  6
CONTINUOUS
 70
0
 71
3
 72
9
 73
5
 74
0
 42
0.0000001
 43
0.0000001
 44
0.0000000001
 40
0.0
 40
0.0
 40
0.0
 40
0.0
 40
0.5207525678
 40
1.0
 40
1.0
 40
1.0
 40
1.0
 10
26.8167080683
 20
17.5641438294
 30
0.0
 10
26.8238157227
 20
17.5688876135
 30
0.0
 10
26.8369178844
 20
17.5788597334
 30
0.0
 10
26.8483091159
 20
17.5908216876
 30
0.0
 10
26.8530901974
 20
17.5970656685
 30
0.0
  0
SPLINE
  5
52C
100
AcDbEntity
  8
0
100
AcDbSpline
 62
9
  6
CONTINUOUS
 70
0
 71
3
 72
21
 73
17
 74
0
 42
0.0000001
 43
0.0000001
 44
0.0000000001
 40
0.0
 40
0.0
 40
0.0
 40
0.0
 40
0.0489082675
 40
0.0944658766
 40
0.1389706726
 40
0.1849584482
 40
0.2346129334
 40
0.2892876411
 40
0.3494962297
 40
0.4150800564
 40
0.4853383375
 40
0.5592243
 40
0.7122827578
 40
0.788718727
 40
0.8630406691
 40
1.0
 40
1.0
 40
1.0
 40
1.0
 10
26.8530901974
 20
17.5970656685
 30
0.0
 10
26.8579370537
 20
17.6033955498
 30
0.0
 10
26.8659970595
 20
17.616736727
 30
0.0
 10
26.8721747117
 20
17.6388458285
 30
0.0
 10
26.8715743832
 20
17.6613558977
 30
0.0
 10
26.8642060232
 20
17.6833005421
 30
0.0
 10
26.8505259328
 20
17.7039086111
 30
0.0
 10
26.8311273411
 20
17.7226724411
 30
0.0
 10
26.8066281595
 20
17.7391821502
 30
0.0
 10
26.7777088985
 20
17.7530069497
 30
0.0
 10
26.7451894001
 20
17.76381741
 30
0.0
 10
26.6977239296
 20
17.7738806276
 30
0.0
 10
26.6479544926
 20
17.7766001677
 30
0.0
 10
26.598564939
 20
17.7721072426
 30
0.0
 10
26.5524842305
 20
17.7631239668
 30
0.0
 10
26.519809479
 20
17.7509218017
 30
0.0
 10
26.5001451435
 20
17.7403512062
 30
0.0
  0
SPLINE
  5
52D
100
AcDbEntity
  8
0
100
AcDbSpline
 62
9
  6
CONTINUOUS
 70
0
 71
3
 72
15
 73
11
 74
0
 42
0.0000001
 43
0.0000001
 44
0.0000000001
 40
0.0
 40
0.0
 40
0.0
 40
0.0
 40
0.1522438899
 40
0.293099308
 40
0.4219237505
 40
0.5408792271
 40
0.6535016038
 40
0.7642857295
 40
0.8784445832
 40
1.0
 40
1.0
 40
1.0
 40
1.0
 10
24.2534236162
 20
16.5105560225
 30
0.0
 10
24.2499258316
 20
16.5085994953
 30
0.0
 10
24.2433914564
 20
16.504454256
 30
0.0
 10
24.2348884962
 20
16.4972363433
 30
0.0
 10
24.2283765807
 20
16.4892574688
 30
0.0
 10
24.2240393014
 20
16.4807268231
 30
0.0
 10
24.2219793241
 20
16.4718536926
 30
0.0
 10
24.2223099076
 20
16.4628614748
 30
0.0
 10
24.225119919
 20
16.4540811172
 30
0.0
 10
24.2283317032
 20
16.448714307
 30
0.0
 10
24.2302078375
 20
16.4461220696
 30
0.0
  0
SPLINE
  5
52E
100
AcDbEntity
  8
0
100
AcDbSpline
 62
9
  6
CONTINUOUS
 70
0
 71
3
 72
32
 73
28
 74
0
 42
0.0000001
 43
0.0000001
 44
0.0000000001
 40
0.0
 40
0.0
 40
0.0
 40
0.0
 40
0.0254174825
 40
0.049636402
 40
0.0729294954
 40
0.0957529141
 40
0.1186119604
 40
0.1419904717
 40
0.1663141145
 40
0.1919317375
 40
0.2190975415
 40
0.2479472444
 40
0.2785377482
 40
0.3108431541
 40
0.3801220187
 40
0.4545463253
 40
0.5322473375
 40
0.6110407459
 40
0.6886482325
 40
0.7628982052
 40
0.79818699
 40
0.8319859132
 40
0.8945209612
 40
0.9232310002
 40
0.9502597852
 40
0.9757651876
 40
1.0
 40
1.0
 40
1.0
 40
1.0
 10
24.2393525303
 20
16.4345221622
 30
0.0
 10
24.2441226235
 20
16.4281419923
 30
0.0
 10
24.2526716645
 20
16.4150775647
 30
0.0
 10
24.2622853068
 20
16.3942365491
 30
0.0
 10
24.2679990936
 20
16.3728229219
 30
0.0
 10
24.2696968316
 20
16.3511502445
 30
0.0
 10
24.267424616
 20
16.3295060693
 30
0.0
 10
24.2612298239
 20
16.3081626918
 30
0.0
 10
24.2512384289
 20
16.2873625948
 30
0.0
 10
24.2375621562
 20
16.2673373852
 30
0.0
 10
24.2203615257
 20
16.2483046166
 30
0.0
 10
24.1998600587
 20
16.2304290979
 30
0.0
 10
24.1762637632
 20
16.2139109091
 30
0.0
 10
24.1401926266
 20
16.1934380898
 30
0.0
 10
24.0888658244
 20
16.1725490804
 30
0.0
 10
24.0213515893
 20
16.1557015063
 30
0.0
 10
23.9492944656
 20
16.1471901341
 30
0.0
 10
23.8757481142
 20
16.1473734802
 30
0.0
 10
23.8038285441
 20
16.1562376573
 30
0.0
 10
23.7468032144
 20
16.170786255
 30
0.0
 10
23.7047131351
 20
16.1866165607
 30
0.0
 10
23.6673313319
 20
16.2041144357
 30
0.0
 10
23.6339353505
 20
16.2251730883
 30
0.0
 10
23.606153544
 20
16.2498215375
 30
0.0
 10
23.5892423152
 20
16.2689554843
 30
0.0
 10
23.575860118
 20
16.2890438132
 30
0.0
 10
23.5692494516
 20
16.3032501406
 30
0.0
 10
23.5666473066
 20
16.3103860355
 30
0.0
  0
SPLINE
  5
52F
100
AcDbEntity
  8
0
100
AcDbSpline
 62
9
  6
CONTINUOUS
 70
0
 71
3
 72
9
 73
5
 74
0
 42
0.0000001
 43
0.0000001
 44
0.0000000001
 40
0.0
 40
0.0
 40
0.0
 40
0.0
 40
0.518666633
 40
1.0
 40
1.0
 40
1.0
 40
1.0
 10
24.1408204887
 20
16.5280320522
 30
0.0
 10
24.1494241474
 20
16.5287859222
 30
0.0
 10
24.1659418487
 20
16.5314604661
 30
0.0
 10
24.1817619122
 20
16.5370086228
 30
0.0
 10
24.1890165706
 20
16.5404159088
 30
0.0
  0
SPLINE
  5
530
100
AcDbEntity
  8
0
100
AcDbSpline
 62
9
  6
CONTINUOUS
 70
0
 71
3
 72
10
 73
6
 74
0
 42
0.0000001
 43
0.0000001
 44
0.0000000001
 40
0.0
 40
0.0
 40
0.0
 40
0.0
 40
0.2795339415
 40
0.5394606093
 40
1.0
 40
1.0
 40
1.0
 40
1.0
 10
26.5976652822
 20
17.9305858193
 30
0.0
 10
26.6007776196
 20
17.9324007101
 30
0.0
 10
26.6066047145
 20
17.9362421838
 30
0.0
 10
26.6163562925
 20
17.9446795492
 30
0.0
 10
26.6219391516
 20
17.9524633
 30
0.0
 10
26.6241991964
 20
17.9579519823
 30
0.0
  0
SPLINE
  5
531
100
AcDbEntity
  8
0
100
AcDbSpline
 62
9
  6
CONTINUOUS
 70
0
 71
3
 72
9
 73
5
 74
0
 42
0.0000001
 43
0.0000001
 44
0.0000000001
 40
0.0
 40
0.0
 40
0.0
 40
0.0
 40
0.2552148409
 40
1.0
 40
1.0
 40
1.0
 40
1.0
 10
26.6241991964
 20
17.9579519823
 30
0.0
 10
26.6245347198
 20
17.9587668253
 30
0.0
 10
26.6257388867
 20
17.9620038276
 30
0.0
 10
26.6264831821
 20
17.9654131483
 30
0.0
 10
26.6267501311
 20
17.967970885
 30
0.0
  0
SPLINE
  5
532
100
AcDbEntity
  8
0
100
AcDbSpline
 62
9
  6
CONTINUOUS
 70
0
 71
3
 72
34
 73
30
 74
0
 42
0.0000001
 43
0.0000001
 44
0.0000000001
 40
0.0
 40
0.0
 40
0.0
 40
0.0
 40
0.0227209809
 40
0.0457632331
 40
0.0695329428
 40
0.0944089133
 40
0.1206788913
 40
0.148534928
 40
0.2092251552
 40
0.2421080565
 40
0.276532976
 40
0.312351107
 40
0.3493642919
 40
0.4260326595
 40
0.5045676392
 40
0.582796689
 40
0.6585724435
 40
0.6949430391
 40
0.7300089457
 40
0.7635932125
 40
0.7955712224
 40
0.8258636623
 40
0.8544554666
 40
0.8814117439
 40
0.9068748977
 40
0.9310923919
 40
0.9543988188
 40
0.9772130435
 40
1.0
 40
1.0
 40
1.0
 40
1.0
 10
26.6268755418
 20
17.9737052374
 30
0.0
 10
26.6261060885
 20
17.9856405767
 30
0.0
 10
26.6266399678
 20
18.0098659308
 30
0.0
 10
26.6337796496
 20
18.0459411039
 30
0.0
 10
26.6473337972
 20
18.0813456645
 30
0.0
 10
26.6671233298
 20
18.1156229443
 30
0.0
 10
26.6928276819
 20
18.148471219
 30
0.0
 10
26.7358226153
 20
18.1911264794
 30
0.0
 10
26.7885586513
 20
18.2281400397
 30
0.0
 10
26.8482628385
 20
18.2594433983
 30
0.0
 10
26.8982676674
 20
18.2807318744
 30
0.0
 10
26.9517569537
 20
18.2989453034
 30
0.0
 10
27.0278647636
 20
18.3191614621
 30
0.0
 10
27.1280153467
 20
18.3354643476
 30
0.0
 10
27.2510574568
 20
18.3406573498
 30
0.0
 10
27.3733978435
 20
18.3314882316
 30
0.0
 10
27.4719888442
 20
18.3119314431
 30
0.0
 10
27.5461324919
 20
18.2892158803
 30
0.0
 10
27.5977502608
 20
18.2692789331
 30
0.0
 10
27.6455830985
 20
18.2463892822
 30
0.0
 10
27.6891462016
 20
18.2207983816
 30
0.0
 10
27.7279917693
 20
18.1927583769
 30
0.0
 10
27.7617015136
 20
18.1625283699
 30
0.0
 10
27.7899460221
 20
18.1304293543
 30
0.0
 10
27.8123763997
 20
18.0967370449
 30
0.0
 10
27.8287521783
 20
18.0618094964
 30
0.0
 10
27.8388333929
 20
18.0259944465
 30
0.0
 10
27.842451696
 20
17.9897201176
 30
0.0
 10
27.8405460123
 20
17.9656430299
 30
0.0
 10
27.8385605634
 20
17.9538136468
 30
0.0
  0
SPLINE
  5
533
100
AcDbEntity
  8
0
100
AcDbSpline
 62
9
  6
CONTINUOUS
 70
0
 71
3
 72
10
 73
6
 74
0
 42
0.0000001
 43
0.0000001
 44
0.0000000001
 40
0.0
 40
0.0
 40
0.0
 40
0.0
 40
0.2670196506
 40
0.5277449839
 40
1.0
 40
1.0
 40
1.0
 40
1.0
 10
27.2108670456
 20
17.6371566782
 30
0.0
 10
27.203815969
 20
17.637289014
 30
0.0
 10
27.1898404888
 20
17.6367533051
 30
0.0
 10
27.1637522643
 20
17.6325228655
 30
0.0
 10
27.1452256305
 20
17.6256369428
 30
0.0
 10
27.1345389284
 20
17.6192052969
 30
0.0
  0
SPLINE
  5
534
100
AcDbEntity
  8
0
100
AcDbSpline
 62
9
  6
CONTINUOUS
 70
0
 71
3
 72
15
 73
11
 74
0
 42
0.0000001
 43
0.0000001
 44
0.0000000001
 40
0.0
 40
0.0
 40
0.0
 40
0.0
 40
0.1499994511
 40
0.2889357223
 40
0.4165757534
 40
0.5352563489
 40
0.648531838
 40
0.7607252746
 40
0.8766637455
 40
1.0
 40
1.0
 40
1.0
 40
1.0
 10
25.4239763628
 20
16.5784986601
 30
0.0
 10
25.4207954003
 20
16.5765256073
 30
0.0
 10
25.4148739247
 20
16.5723734337
 30
0.0
 10
25.4072522169
 20
16.5652391858
 30
0.0
 10
25.4015096913
 20
16.5574490635
 30
0.0
 10
25.3978001057
 20
16.5491947315
 30
0.0
 10
25.396203094
 20
16.5406681939
 30
0.0
 10
25.3968017146
 20
16.5320718711
 30
0.0
 10
25.3996565761
 20
16.5236896404
 30
0.0
 10
25.4027856333
 20
16.5185529412
 30
0.0
 10
25.4046020797
 20
16.5160682924
 30
0.0
  0
SPLINE
  5
535
100
AcDbEntity
  8
0
100
AcDbSpline
 62
7
  6
CONTINUOUS
 70
0
 71
3
 72
14
 73
10
 74
0
 42
0.0000001
 43
0.0000001
 44
0.0000000001
 40
0.0
 40
0.0
 40
0.0
 40
0.0
 40
0.1080687362
 40
0.2181701366
 40
0.3321362069
 40
0.4515238358
 40
0.7104696411
 40
0.8515311773
 40
1.0
 40
1.0
 40
1.0
 40
1.0
 10
27.6413956197
 20
17.0405088413
 30
0.0
 10
27.641395106
 20
17.0327938094
 30
0.0
 10
27.6400466991
 20
17.0171879574
 30
0.0
 10
27.6340712769
 20
16.9941389712
 30
0.0
 10
27.6242075946
 20
16.9715834717
 30
0.0
 10
27.6055311086
 20
16.9416907305
 30
0.0
 10
27.5796963932
 20
16.9145144689
 30
0.0
 10
27.5487063702
 20
16.8905412474
 30
0.0
 10
27.5312208059
 20
16.8794472608
 30
0.0
 10
27.5220416331
 20
16.8741476629
 30
0.0
  0
SPLINE
  5
536
100
AcDbEntity
  8
0
100
AcDbSpline
 62
9
  6
CONTINUOUS
 70
0
 71
3
 72
11
 73
7
 74
0
 42
0.0000001
 43
0.0000001
 44
0.0000000001
 40
0.0
 40
0.0
 40
0.0
 40
0.0
 40
0.236204002
 40
0.4983522771
 40
0.7614058405
 40
1.0
 40
1.0
 40
1.0
 40
1.0
 10
25.4384838503
 20
16.5542202945
 30
0.0
 10
25.4384838503
 20
16.5565324174
 30
0.0
 10
25.4375839784
 20
16.5614119729
 30
0.0
 10
25.4344828143
 20
16.5682539971
 30
0.0
 10
25.4299098077
 20
16.5742433193
 30
0.0
 10
25.4260246086
 20
16.5773764571
 30
0.0
 10
25.4239763628
 20
16.5784986601
 30
0.0
  0
SPLINE
  5
537
100
AcDbEntity
  8
0
100
AcDbSpline
 62
9
  6
CONTINUOUS
 70
0
 71
3
 72
11
 73
7
 74
0
 42
0.0000001
 43
0.0000001
 44
0.0000000001
 40
0.0
 40
0.0
 40
0.0
 40
0.0
 40
0.2362040022
 40
0.4983522772
 40
0.7614058405
 40
1.0
 40
1.0
 40
1.0
 40
1.0
 10
27.1490463839
 20
17.5949269488
 30
0.0
 10
27.1490463839
 20
17.5972390717
 30
0.0
 10
27.1481465121
 20
17.6021186272
 30
0.0
 10
27.1450453479
 20
17.6089606514
 30
0.0
 10
27.1404723413
 20
17.6149499735
 30
0.0
 10
27.1365871422
 20
17.6180831113
 30
0.0
 10
27.1345388964
 20
17.6192053144
 30
0.0
  0
SPLINE
  5
538
100
AcDbEntity
  8
0
100
AcDbSpline
 62
9
  6
CONTINUOUS
 70
0
 71
3
 72
10
 73
6
 74
0
 42
0.0000001
 43
0.0000001
 44
0.0000000001
 40
0.0
 40
0.0
 40
0.0
 40
0.0
 40
0.5354267935
 40
0.7968846555
 40
1.0
 40
1.0
 40
1.0
 40
1.0
 10
27.210108903
 20
17.6092880375
 30
0.0
 10
27.210108903
 20
17.6142642716
 30
0.0
 10
27.2102344613
 20
17.6216707163
 30
0.0
 10
27.2105400707
 20
17.6309595104
 30
0.0
 10
27.2107432794
 20
17.6352729943
 30
0.0
 10
27.2108670456
 20
17.6371566782
 30
0.0
  0
SPLINE
  5
539
100
AcDbEntity
  8
0
100
AcDbSpline
 62
9
  6
CONTINUOUS
 70
0
 71
3
 72
10
 73
6
 74
0
 42
0.0000001
 43
0.0000001
 44
0.0000000001
 40
0.0
 40
0.0
 40
0.0
 40
0.0
 40
0.2339354381
 40
0.4780544861
 40
1.0
 40
1.0
 40
1.0
 40
1.0
 10
26.6068913974
 20
17.956916389
 30
0.0
 10
26.6068913974
 20
17.958343668
 30
0.0
 10
26.6073900183
 20
17.9612767076
 30
0.0
 10
26.6101621697
 20
17.9667892181
 30
0.0
 10
26.6140266593
 20
17.9698810827
 30
0.0
 10
26.6168834965
 20
17.9712879836
 30
0.0
  0
SPLINE
  5
53A
100
AcDbEntity
  8
0
100
AcDbSpline
 62
9
  6
CONTINUOUS
 70
0
 71
3
 72
9
 73
5
 74
0
 42
0.0000001
 43
0.0000001
 44
0.0000000001
 40
0.0
 40
0.0
 40
0.0
 40
0.0
 40
0.2475904535
 40
1.0
 40
1.0
 40
1.0
 40
1.0
 10
26.6168834965
 20
17.9712879836
 30
0.0
 10
26.6176479599
 20
17.9716644574
 30
0.0
 10
26.6208231192
 20
17.9730011759
 30
0.0
 10
26.6242866427
 20
17.9736457801
 30
0.0
 10
26.6268755418
 20
17.9737052374
 30
0.0
  0
SPLINE
  5
53B
100
AcDbEntity
  8
0
100
AcDbSpline
 62
7
  6
CONTINUOUS
 70
0
 71
3
 72
23
 73
19
 74
0
 42
0.0000001
 43
0.0000001
 44
0.0000000001
 40
0.0
 40
0.0
 40
0.0
 40
0.0
 40
0.0433343916
 40
0.0878609566
 40
0.1346226872
 40
0.1843971146
 40
0.2376821998
 40
0.29470262
 40
0.3554556489
 40
0.4197362614
 40
0.487199145
 40
0.5573670939
 40
0.6296792748
 40
0.7034844921
 40
0.7781127059
 40
0.8529020858
 40
0.9271461265
 40
1.0
 40
1.0
 40
1.0
 40
1.0
 10
30.5348227418
 20
20.3472865244
 30
0.0
 10
30.5348240057
 20
20.3581580784
 30
0.0
 10
30.5325163296
 20
20.3802653994
 30
0.0
 10
30.5222302221
 20
20.412649683
 30
0.0
 10
30.5053714936
 20
20.4439764954
 30
0.0
 10
30.4822381081
 20
20.4737910878
 30
0.0
 10
30.4532095184
 20
20.5017190811
 30
0.0
 10
30.4187103379
 20
20.52740883
 30
0.0
 10
30.3792246049
 20
20.5505250513
 30
0.0
 10
30.3353042693
 20
20.5707701883
 30
0.0
 10
30.2875548095
 20
20.5878566783
 30
0.0
 10
30.2366451912
 20
20.6015649104
 30
0.0
 10
30.1832869383
 20
20.6116844595
 30
0.0
 10
30.1282341911
 20
20.6181016217
 30
0.0
 10
30.0722490446
 20
20.6206996202
 30
0.0
 10
30.0161064099
 20
20.619458546
 30
0.0
 10
29.9606305507
 20
20.6143718997
 30
0.0
 10
29.9241706306
 20
20.6084269359
 30
0.0
 10
29.9062553416
 20
20.6048073502
 30
0.0
  0
SPLINE
  5
53C
100
AcDbEntity
  8
0
100
AcDbSpline
 62
9
  6
CONTINUOUS
 70
0
 71
3
 72
9
 73
5
 74
0
 42
0.0000001
 43
0.0000001
 44
0.0000000001
 40
0.0
 40
0.0
 40
0.0
 40
0.0
 40
0.2638451115
 40
1.0
 40
1.0
 40
1.0
 40
1.0
 10
24.2325117449
 20
16.4431530067
 30
0.0
 10
24.2332756932
 20
16.4433701957
 30
0.0
 10
24.2362106916
 20
16.444029594
 30
0.0
 10
24.2393277323
 20
16.4440300834
 30
0.0
 10
24.2414831716
 20
16.4435157301
 30
0.0
  0
SPLINE
  5
53D
100
AcDbEntity
  8
0
100
AcDbSpline
 62
9
  6
CONTINUOUS
 70
0
 71
3
 72
9
 73
5
 74
0
 42
0.0000001
 43
0.0000001
 44
0.0000000001
 40
0.0
 40
0.0
 40
0.0
 40
0.0
 40
0.51166434
 40
1.0
 40
1.0
 40
1.0
 40
1.0
 10
24.2414831716
 20
16.4435157301
 30
0.0
 10
24.2427041257
 20
16.4432243734
 30
0.0
 10
24.245028894
 20
16.4423182336
 30
0.0
 10
24.246954129
 20
16.4407152027
 30
0.0
 10
24.2477298652
 20
16.4398022679
 30
0.0
  0
SPLINE
  5
53E
100
AcDbEntity
  8
0
100
AcDbSpline
 62
9
  6
CONTINUOUS
 70
0
 71
3
 72
24
 73
20
 74
0
 42
0.0000001
 43
0.0000001
 44
0.0000000001
 40
0.0
 40
0.0
 40
0.0
 40
0.0
 40
0.062334497
 40
0.128736884
 40
0.1983477395
 40
0.2703131872
 40
0.3436969403
 40
0.4174375689
 40
0.490468864
 40
0.5617600435
 40
0.630363627
 40
0.6954558376
 40
0.7564094612
 40
0.8128497823
 40
0.8647562943
 40
0.9125338105
 40
0.957113615
 40
0.9786719536
 40
1.0
 40
1.0
 40
1.0
 40
1.0
 10
23.6488642391
 20
16.1831874313
 30
0.0
 10
23.6623256581
 20
16.1754154774
 30
0.0
 10
23.6912058373
 20
16.1611932257
 30
0.0
 10
23.7377765064
 20
16.1442923246
 30
0.0
 10
23.7881242586
 20
16.1315199192
 30
0.0
 10
23.8411341973
 20
16.1231120522
 30
0.0
 10
23.8956980024
 20
16.1192630576
 30
0.0
 10
23.9506567684
 20
16.120027073
 30
0.0
 10
24.0048332603
 20
16.1254215461
 30
0.0
 10
24.0570745541
 20
16.1353053629
 30
0.0
 10
24.1062684472
 20
16.1494870039
 30
0.0
 10
24.1513785589
 20
16.1676590153
 30
0.0
 10
24.1914541907
 20
16.1894578219
 30
0.0
 10
24.2256565977
 20
16.2144513922
 30
0.0
 10
24.2532621948
 20
16.2421726605
 30
0.0
 10
24.2736206649
 20
16.2721187295
 30
0.0
 10
24.2841967598
 20
16.2987923075
 30
0.0
 10
24.2883442737
 20
16.3202544818
 30
0.0
 10
24.2890291675
 20
16.3309621178
 30
0.0
 10
24.2890289725
 20
16.3362805402
 30
0.0
  0
SPLINE
  5
53F
100
AcDbEntity
  8
0
100
AcDbSpline
 62
7
  6
CONTINUOUS
 70
0
 71
3
 72
11
 73
7
 74
0
 42
0.0000001
 43
0.0000001
 44
0.0000000001
 40
0.0
 40
0.0
 40
0.0
 40
0.0
 40
0.2419049956
 40
0.4871903438
 40
0.7389933706
 40
1.0
 40
1.0
 40
1.0
 40
1.0
 10
27.8038929569
 20
17.3793549224
 30
0.0
 10
27.8038929569
 20
17.3701104643
 30
0.0
 10
27.8025288651
 20
17.351464358
 30
0.0
 10
27.7963997445
 20
17.3238029422
 30
0.0
 10
27.7862597954
 20
17.2965742103
 30
0.0
 10
27.7770781283
 20
17.27919407
 30
0.0
 10
27.771909118
 20
17.2706635003
 30
0.0
  0
SPLINE
  5
540
100
AcDbEntity
  8
0
100
AcDbSpline
 62
7
  6
CONTINUOUS
 70
0
 71
3
 72
10
 73
6
 74
0
 42
0.0000001
 43
0.0000001
 44
0.0000000001
 40
0.0
 40
0.0
 40
0.0
 40
0.0
 40
0.467717061
 40
0.7258790264
 40
1.0
 40
1.0
 40
1.0
 40
1.0
 10
27.771909118
 20
17.2706635003
 30
0.0
 10
27.7569738791
 20
17.2460154362
 30
0.0
 10
27.7272280112
 20
17.2115773826
 30
0.0
 10
27.6792402242
 20
17.172871733
 30
0.0
 10
27.6515744066
 20
17.1550988313
 30
0.0
 10
27.636946485
 20
17.1466533968
 30
0.0
  0
SPLINE
  5
541
100
AcDbEntity
  8
0
100
AcDbSpline
 62
7
  6
CONTINUOUS
 70
0
 71
3
 72
19
 73
15
 74
0
 42
0.0000001
 43
0.0000001
 44
0.0000000001
 40
0.0
 40
0.0
 40
0.0
 40
0.0
 40
0.0428430378
 40
0.0874415233
 40
0.1352501149
 40
0.1871732808
 40
0.2436497055
 40
0.304636322
 40
0.4382382094
 40
0.5825275567
 40
0.7296003172
 40
0.871199033
 40
0.9376761688
 40
1.0
 40
1.0
 40
1.0
 40
1.0
 10
29.9433270142
 20
19.4492197576
 30
0.0
 10
29.9433255935
 20
19.4458312756
 30
0.0
 10
29.9442229438
 20
19.4388858944
 30
0.0
 10
29.9481887027
 20
19.428849539
 30
0.0
 10
29.9546521093
 20
19.4193444135
 30
0.0
 10
29.9633995933
 20
19.410536781
 30
0.0
 10
29.9742554342
 20
19.4026059643
 30
0.0
 10
29.9917357925
 20
19.3930887188
 30
0.0
 10
30.017359784
 20
19.3845260427
 30
0.0
 10
30.0507987532
 20
19.3798302797
 30
0.0
 10
30.0851820245
 20
19.3807669361
 30
0.0
 10
30.1128996798
 20
19.3863117332
 30
0.0
 10
30.1330327486
 20
19.393617946
 30
0.0
 10
30.1421996128
 20
19.3981275933
 30
0.0
 10
30.1464684514
 20
19.4005922084
 30
0.0
  0
SPLINE
  5
542
100
AcDbEntity
  8
0
100
AcDbSpline
 62
9
  6
CONTINUOUS
 70
0
 71
3
 72
11
 73
7
 74
0
 42
0.0000001
 43
0.0000001
 44
0.0000000001
 40
0.0
 40
0.0
 40
0.0
 40
0.0
 40
0.2787713506
 40
0.5379374391
 40
0.7774384419
 40
1.0
 40
1.0
 40
1.0
 40
1.0
 10
23.6488642391
 20
15.9586508715
 30
0.0
 10
23.637294465
 20
15.9653306838
 30
0.0
 10
23.6156747265
 20
15.9795135456
 30
0.0
 10
23.5874243145
 20
16.0040031757
 30
0.0
 10
23.5651059357
 20
16.0306014851
 30
0.0
 10
23.554151733
 20
16.0500457745
 30
0.0
 10
23.5499586647
 20
16.0598528612
 30
0.0
  0
SPLINE
  5
543
100
AcDbEntity
  8
0
100
AcDbSpline
 62
9
  6
CONTINUOUS
 70
0
 71
3
 72
9
 73
5
 74
0
 42
0.0000001
 43
0.0000001
 44
0.0000000001
 40
0.0
 40
0.0
 40
0.0
 40
0.0
 40
0.5069152235
 40
1.0
 40
1.0
 40
1.0
 40
1.0
 10
23.5499586647
 20
16.0598528612
 30
0.0
 10
23.5464179005
 20
16.0681342868
 30
0.0
 10
23.5409342243
 20
16.0851696649
 30
0.0
 10
23.5390377348
 20
16.1029831044
 30
0.0
 10
23.5390340415
 20
16.1117439811
 30
0.0
  0
SPLINE
  5
544
100
AcDbEntity
  8
0
100
AcDbSpline
 62
9
  6
CONTINUOUS
 70
0
 71
3
 72
19
 73
15
 74
0
 42
0.0000001
 43
0.0000001
 44
0.0000000001
 40
0.0
 40
0.0
 40
0.0
 40
0.0
 40
0.1544125715
 40
0.3055415587
 40
0.4494385861
 40
0.5829701813
 40
0.6451840094
 40
0.7041321321
 40
0.7598155986
 40
0.8123737
 40
0.8621014378
 40
0.9094890529
 40
0.9551865913
 40
1.0
 40
1.0
 40
1.0
 40
1.0
 10
27.210108903
 20
17.6092880375
 30
0.0
 10
27.2520261425
 20
17.6083699902
 30
0.0
 10
27.3351535578
 20
17.6113420703
 30
0.0
 10
27.4560565919
 20
17.6299190029
 30
0.0
 10
27.5682701621
 20
17.6619159202
 30
0.0
 10
27.6528980082
 20
17.6996014108
 30
0.0
 10
27.7119753227
 20
17.7357155764
 30
0.0
 10
27.7504635273
 20
17.764563979
 30
0.0
 10
27.7837835358
 20
17.7955336598
 30
0.0
 10
27.8116112843
 20
17.8283236851
 30
0.0
 10
27.8336116648
 20
17.862652734
 30
0.0
 10
27.8495650919
 20
17.8981700619
 30
0.0
 10
27.8592249572
 20
17.9345193613
 30
0.0
 10
27.8613893664
 20
17.9591468618
 30
0.0
 10
27.8613914893
 20
17.9713149438
 30
0.0
  0
SPLINE
  5
545
100
AcDbEntity
  8
0
100
AcDbSpline
 62
9
  6
CONTINUOUS
 70
0
 71
3
 72
11
 73
7
 74
0
 42
0.0000001
 43
0.0000001
 44
0.0000000001
 40
0.0
 40
0.0
 40
0.0
 40
0.0
 40
0.2265834122
 40
0.4730358696
 40
0.7333573531
 40
1.0
 40
1.0
 40
1.0
 40
1.0
 10
27.1490463839
 20
17.5949269488
 30
0.0
 10
27.1531422292
 20
17.5974188621
 30
0.0
 10
27.162213496
 20
17.6017841724
 30
0.0
 10
27.1771004648
 20
17.6063271684
 30
0.0
 10
27.1932944015
 20
17.6089743584
 30
0.0
 10
27.2044683055
 20
17.6094115746
 30
0.0
 10
27.210108903
 20
17.6092880375
 30
0.0
  0
SPLINE
  5
546
100
AcDbEntity
  8
0
100
AcDbSpline
 62
9
  6
CONTINUOUS
 70
0
 71
3
 72
9
 73
5
 74
0
 42
0.0000001
 43
0.0000001
 44
0.0000000001
 40
0.0
 40
0.0
 40
0.0
 40
0.0
 40
0.2510180789
 40
1.0
 40
1.0
 40
1.0
 40
1.0
 10
27.210108903
 20
17.3847514777
 30
0.0
 10
27.2082257973
 20
17.3847927204
 30
0.0
 10
27.2007215075
 20
17.3848013132
 30
0.0
 10
27.1932150528
 20
17.3842051501
 30
0.0
 10
27.1876525367
 20
17.3834025906
 30
0.0
  0
SPLINE
  5
547
100
AcDbEntity
  8
0
100
AcDbSpline
 62
9
  6
CONTINUOUS
 70
0
 71
3
 72
9
 73
5
 74
0
 42
0.0000001
 43
0.0000001
 44
0.0000000001
 40
0.0
 40
0.0
 40
0.0
 40
0.0
 40
0.2566473636
 40
1.0
 40
1.0
 40
1.0
 40
1.0
 10
27.1876525367
 20
17.3834025906
 30
0.0
 10
27.1858324163
 20
17.3831399837
 30
0.0
 10
27.1787637806
 20
17.3819658434
 30
0.0
 10
27.1717901966
 20
17.380187502
 30
0.0
 10
27.166743236
 20
17.3784850024
 30
0.0
  0
SPLINE
  5
548
100
AcDbEntity
  8
0
100
AcDbSpline
 62
9
  6
CONTINUOUS
 70
0
 71
3
 72
9
 73
5
 74
0
 42
0.0000001
 43
0.0000001
 44
0.0000000001
 40
0.0
 40
0.0
 40
0.0
 40
0.0
 40
0.2617139665
 40
1.0
 40
1.0
 40
1.0
 40
1.0
 10
27.166743236
 20
17.3784850024
 30
0.0
 10
27.1651328581
 20
17.377941771
 30
0.0
 10
27.1590330462
 20
17.3757157933
 30
0.0
 10
27.1531422292
 20
17.3728823023
 30
0.0
 10
27.1490463839
 20
17.370390389
 30
0.0
  0
SPLINE
  5
549
100
AcDbEntity
  8
0
100
AcDbSpline
 62
7
  6
CONTINUOUS
 70
0
 71
3
 72
15
 73
11
 74
0
 42
0.0000001
 43
0.0000001
 44
0.0000000001
 40
0.0
 40
0.0
 40
0.0
 40
0.0
 40
0.1210645535
 40
0.2529931949
 40
0.3919819842
 40
0.5332366179
 40
0.6706378452
 40
0.7976233202
 40
0.9083236508
 40
1.0
 40
1.0
 40
1.0
 40
1.0
 10
26.9457496064
 20
16.9247704509
 30
0.0
 10
26.940771631
 20
16.9276444864
 30
0.0
 10
26.9311840142
 20
16.9350999725
 30
0.0
 10
26.9190828131
 20
16.9493677176
 30
0.0
 10
26.9091195073
 20
16.9663083457
 30
0.0
 10
26.9016012556
 20
16.984722064
 30
0.0
 10
26.896685201
 20
17.0033976754
 30
0.0
 10
26.8944664765
 20
17.0211338229
 30
0.0
 10
26.8949558802
 20
17.0368246152
 30
0.0
 10
26.8973629528
 20
17.0462903167
 30
0.0
 10
26.8992094667
 20
17.0502319794
 30
0.0
  0
SPLINE
  5
54A
100
AcDbEntity
  8
0
100
AcDbSpline
 62
9
  6
CONTINUOUS
 70
0
 71
3
 72
23
 73
19
 74
0
 42
0.0000001
 43
0.0000001
 44
0.0000000001
 40
0.0
 40
0.0
 40
0.0
 40
0.0
 40
0.0623396056
 40
0.1287477908
 40
0.1983647548
 40
0.2703362912
 40
0.3437262412
 40
0.4174732005
 40
0.4905107168
 40
0.5618080306
 40
0.6304173964
 40
0.695515267
 40
0.756473987
 40
0.8129192574
 40
0.8648300888
 40
0.9126117664
 40
0.9571954011
 40
1.0
 40
1.0
 40
1.0
 40
1.0
 10
24.9239312258
 20
16.294142366
 30
0.0
 10
24.9351490341
 20
16.2876657614
 30
0.0
 10
24.9592158502
 20
16.2758139414
 30
0.0
 10
24.9980247215
 20
16.2617297831
 30
0.0
 10
25.0399812269
 20
16.2510861267
 30
0.0
 10
25.0841561659
 20
16.2440794951
 30
0.0
 10
25.1296259819
 20
16.2408721447
 30
0.0
 10
25.1754249388
 20
16.2415086522
 30
0.0
 10
25.2205719986
 20
16.2460042176
 30
0.0
 10
25.2641064413
 20
16.2542405112
 30
0.0
 10
25.3051012749
 20
16.2660587793
 30
0.0
 10
25.3426931425
 20
16.2812019041
 30
0.0
 10
25.3760893545
 20
16.2993675512
 30
0.0
 10
25.4045915044
 20
16.3201963658
 30
0.0
 10
25.4275962021
 20
16.3432937898
 30
0.0
 10
25.4445608599
 20
16.3682616047
 30
0.0
 10
25.4550213692
 20
16.3945905667
 30
0.0
 10
25.4574022268
 20
16.4128258208
 30
0.0
 10
25.4574018528
 20
16.4217199568
 30
0.0
  0
SPLINE
  5
54B
100
AcDbEntity
  8
0
100
AcDbSpline
 62
9
  6
CONTINUOUS
 70
0
 71
3
 72
11
 73
7
 74
0
 42
0.0000001
 43
0.0000001
 44
0.0000000001
 40
0.0
 40
0.0
 40
0.0
 40
0.0
 40
0.2782635225
 40
0.5372975874
 40
0.7770278665
 40
1.0
 40
1.0
 40
1.0
 40
1.0
 10
24.9239312258
 20
16.0696058063
 30
0.0
 10
24.9144659206
 20
16.0750706028
 30
0.0
 10
24.8967568415
 20
16.0866602892
 30
0.0
 10
24.8735407611
 20
16.1066280229
 30
0.0
 10
24.8550700285
 20
16.1282940807
 30
0.0
 10
24.8458758904
 20
16.1441271897
 30
0.0
 10
24.8423044403
 20
16.1521237492
 30
0.0
  0
SPLINE
  5
54C
100
AcDbEntity
  8
0
100
AcDbSpline
 62
9
  6
CONTINUOUS
 70
0
 71
3
 72
9
 73
5
 74
0
 42
0.0000001
 43
0.0000001
 44
0.0000000001
 40
0.0
 40
0.0
 40
0.0
 40
0.0
 40
0.5075071476
 40
1.0
 40
1.0
 40
1.0
 40
1.0
 10
24.8423044403
 20
16.1521237492
 30
0.0
 10
24.8391039724
 20
16.159289671
 30
0.0
 10
24.8341337559
 20
16.1740601259
 30
0.0
 10
24.8324059304
 20
16.1895674321
 30
0.0
 10
24.8324034155
 20
16.1971833972
 30
0.0
  0
SPLINE
  5
54D
100
AcDbEntity
  8
0
100
AcDbSpline
 62
9
  6
CONTINUOUS
 70
0
 71
3
 72
11
 73
7
 74
0
 42
0.0000001
 43
0.0000001
 44
0.0000000001
 40
0.0
 40
0.0
 40
0.0
 40
0.0
 40
0.3355719963
 40
0.6093901645
 40
0.8249836505
 40
1.0
 40
1.0
 40
1.0
 40
1.0
 10
25.2510519616
 20
16.5954119505
 30
0.0
 10
25.251407535
 20
16.5959390709
 30
0.0
 10
25.2521043539
 20
16.5968652903
 30
0.0
 10
25.2532365064
 20
16.5979539655
 30
0.0
 10
25.254340279
 20
16.598602593
 30
0.0
 10
25.2551164069
 20
16.5986697107
 30
0.0
 10
25.2554400071
 20
16.598597229
 30
0.0
  0
SPLINE
  5
54E
100
AcDbEntity
  8
0
100
AcDbSpline
 62
9
  6
CONTINUOUS
 70
0
 71
3
 72
11
 73
7
 74
0
 42
0.0000001
 43
0.0000001
 44
0.0000000001
 40
0.0
 40
0.0
 40
0.0
 40
0.0
 40
0.2378643642
 40
0.501691787
 40
0.7645938367
 40
1.0
 40
1.0
 40
1.0
 40
1.0
 10
24.2671839383
 20
16.485846482
 30
0.0
 10
24.2671839383
 20
16.4881664884
 30
0.0
 10
24.2663298443
 20
16.4930602118
 30
0.0
 10
24.2634013786
 20
16.4999754119
 30
0.0
 10
24.2590811321
 20
16.5060883903
 30
0.0
 10
24.2553846439
 20
16.5093618175
 30
0.0
 10
24.2534236162
 20
16.5105560225
 30
0.0
  0
SPLINE
  5
54F
100
AcDbEntity
  8
0
100
AcDbSpline
 62
9
  6
CONTINUOUS
 70
0
 71
3
 72
11
 73
7
 74
0
 42
0.0000001
 43
0.0000001
 44
0.0000000001
 40
0.0
 40
0.0
 40
0.0
 40
0.0
 40
0.2848895562
 40
0.5443261802
 40
0.7796026033
 40
1.0
 40
1.0
 40
1.0
 40
1.0
 10
25.3623774725
 20
16.611045713
 30
0.0
 10
25.3614075799
 20
16.6115390321
 30
0.0
 10
25.3594658717
 20
16.6123225653
 30
0.0
 10
25.3565088862
 20
16.6128488703
 30
0.0
 10
25.3537492524
 20
16.6126155453
 30
0.0
 10
25.3521175349
 20
16.6119071891
 30
0.0
 10
25.3514134367
 20
16.6114457828
 30
0.0
  0
SPLINE
  5
550
100
AcDbEntity
  8
0
100
AcDbSpline
 62
9
  6
CONTINUOUS
 70
0
 71
3
 72
11
 73
7
 74
0
 42
0.0000001
 43
0.0000001
 44
0.0000000001
 40
0.0
 40
0.0
 40
0.0
 40
0.0
 40
0.2354061633
 40
0.4983082128
 40
0.7621356355
 40
1.0
 40
1.0
 40
1.0
 40
1.0
 10
26.5001450161
 20
17.7403512838
 30
0.0
 10
26.5021060438
 20
17.7391570788
 30
0.0
 10
26.505802532
 20
17.7358836516
 30
0.0
 10
26.5101227785
 20
17.7297706732
 30
0.0
 10
26.5130512442
 20
17.7228554731
 30
0.0
 10
26.5139053381
 20
17.7179617497
 30
0.0
 10
26.5139053381
 20
17.7156417433
 30
0.0
  0
SPLINE
  5
551
100
AcDbEntity
  8
0
100
AcDbSpline
 62
9
  6
CONTINUOUS
 70
0
 71
3
 72
11
 73
7
 74
0
 42
0.0000001
 43
0.0000001
 44
0.0000000001
 40
0.0
 40
0.0
 40
0.0
 40
0.0
 40
0.2848895563
 40
0.5443261803
 40
0.7796026034
 40
1.0
 40
1.0
 40
1.0
 40
1.0
 10
26.8167080683
 20
17.5641438294
 30
0.0
 10
26.8157381757
 20
17.5646371485
 30
0.0
 10
26.8137964675
 20
17.5654206817
 30
0.0
 10
26.810839482
 20
17.5659469867
 30
0.0
 10
26.8080798482
 20
17.5657136617
 30
0.0
 10
26.8064481307
 20
17.5650053055
 30
0.0
 10
26.8057440325
 20
17.5645438992
 30
0.0
  0
SPLINE
  5
552
100
AcDbEntity
  8
0
100
AcDbSpline
 62
9
  6
CONTINUOUS
 70
0
 71
3
 72
23
 73
19
 74
0
 42
0.0000001
 43
0.0000001
 44
0.0000000001
 40
0.0
 40
0.0
 40
0.0
 40
0.0
 40
0.045404065
 40
0.0896673426
 40
0.1345203584
 40
0.1815811839
 40
0.2321107458
 40
0.2868678207
 40
0.3461777572
 40
0.4099487634
 40
0.4778129587
 40
0.5491405552
 40
0.6231556404
 40
0.6989456183
 40
0.7755305675
 40
0.8518991991
 40
0.9270578211
 40
1.0
 40
1.0
 40
1.0
 40
1.0
 10
36.0631119773
 20
23.2173541831
 30
0.0
 10
36.0668448412
 20
23.2083419627
 30
0.0
 10
36.0723003559
 20
23.1896529523
 30
0.0
 10
36.0734950237
 20
23.1604897481
 30
0.0
 10
36.0674055623
 20
23.131580385
 30
0.0
 10
36.0543378347
 20
23.1036431387
 30
0.0
 10
36.034650824
 20
23.0772560126
 30
0.0
 10
36.008868846
 20
23.0528389129
 30
0.0
 10
35.9774861385
 20
23.0308434831
 30
0.0
 10
35.9411459122
 20
23.0116114383
 30
0.0
 10
35.9005278746
 20
22.9955385947
 30
0.0
 10
35.8564341139
 20
22.9828884855
 30
0.0
 10
35.8097124083
 20
22.973952472
 30
0.0
 10
35.7612877856
 20
22.9688454869
 30
0.0
 10
35.712103959
 20
22.9676926004
 30
0.0
 10
35.6631203016
 20
22.9705385202
 30
0.0
 10
35.6153339014
 20
22.9774256241
 30
0.0
 10
35.584284583
 20
22.9845797329
 30
0.0
 10
35.569182348
 20
22.98876359
 30
0.0
  0
SPLINE
  5
553
100
AcDbEntity
  8
0
100
AcDbSpline
 62
9
  6
CONTINUOUS
 70
0
 71
3
 72
23
 73
19
 74
0
 42
0.0000001
 43
0.0000001
 44
0.0000000001
 40
0.0
 40
0.0
 40
0.0
 40
0.0
 40
0.0466025046
 40
0.0913772143
 40
0.136106537
 40
0.1825822169
 40
0.2322858912
 40
0.2861750166
 40
0.3447208347
 40
0.4079160224
 40
0.4754339522
 40
0.5466568677
 40
0.6207961051
 40
0.6968993394
 40
0.7739365374
 40
0.8508400162
 40
0.9265547642
 40
1.0
 40
1.0
 40
1.0
 40
1.0
 10
35.8475589239
 20
22.5072743532
 30
0.0
 10
35.8514093806
 20
22.4999119411
 30
0.0
 10
35.857467796
 20
22.484609364
 30
0.0
 10
35.8607541474
 20
22.4603161481
 30
0.0
 10
35.8577721423
 20
22.4359948145
 30
0.0
 10
35.8487115534
 20
22.4123228723
 30
0.0
 10
35.8338583952
 20
22.3898523366
 30
0.0
 10
35.8136700706
 20
22.368970615
 30
0.0
 10
35.7885631292
 20
22.3500795107
 30
0.0
 10
35.7590890408
 20
22.3334806461
 30
0.0
 10
35.7258242053
 20
22.3195281878
 30
0.0
 10
35.6894576098
 20
22.3084621727
 30
0.0
 10
35.650721307
 20
22.3005450697
 30
0.0
 10
35.6104204878
 20
22.2958876782
 30
0.0
 10
35.5693799872
 20
22.2946113091
 30
0.0
 10
35.5284413988
 20
22.2967573651
 30
0.0
 10
35.4884814759
 20
22.3023636852
 30
0.0
 10
35.4625189758
 20
22.308298658
 30
0.0
 10
35.4498988954
 20
22.3117900729
 30
0.0
  0
SPLINE
  5
554
100
AcDbEntity
  8
0
100
AcDbSpline
 62
9
  6
CONTINUOUS
 70
0
 71
3
 72
22
 73
18
 74
0
 42
0.0000001
 43
0.0000001
 44
0.0000000001
 40
0.0
 40
0.0
 40
0.0
 40
0.0
 40
0.0447804839
 40
0.0910613926
 40
0.1394283934
 40
0.1903316989
 40
0.2440573196
 40
0.3007721339
 40
0.3605142553
 40
0.4232149108
 40
0.4887309852
 40
0.5568186822
 40
0.6994132459
 40
0.7732864598
 40
0.84834592
 40
0.9241059236
 40
1.0
 40
1.0
 40
1.0
 40
1.0
 10
32.2861936332
 20
21.2881039307
 30
0.0
 10
32.2880946908
 20
21.2992177198
 30
0.0
 10
32.2938229994
 20
21.3215352155
 30
0.0
 10
32.307671623
 20
21.353924723
 30
0.0
 10
32.326740561
 20
21.3853538296
 30
0.0
 10
32.3508364592
 20
21.4155300932
 30
0.0
 10
32.3797008951
 20
21.4442299934
 30
0.0
 10
32.4130946217
 20
21.4711899644
 30
0.0
 10
32.4507091448
 20
21.4961950564
 30
0.0
 10
32.4922132787
 20
21.5190398489
 30
0.0
 10
32.5372553745
 20
21.5395040776
 30
0.0
 10
32.6024667665
 20
21.5637910485
 30
0.0
 10
32.671961092
 20
21.582108187
 30
0.0
 10
32.7443219395
 20
21.5945910513
 30
0.0
 10
32.8005708915
 20
21.6009653877
 30
0.0
 10
32.8575842531
 20
21.6042671204
 30
0.0
 10
32.8957886561
 20
21.6044793649
 30
0.0
 10
32.9148940299
 20
21.6040944031
 30
0.0
  0
SPLINE
  5
555
100
AcDbEntity
  8
0
100
AcDbSpline
 62
9
  6
CONTINUOUS
 70
0
 71
3
 72
23
 73
19
 74
0
 42
0.0000001
 43
0.0000001
 44
0.0000000001
 40
0.0
 40
0.0
 40
0.0
 40
0.0
 40
0.0491258495
 40
0.0954504669
 40
0.1406126654
 40
0.1864813551
 40
0.2347928973
 40
0.2868403678
 40
0.3434087007
 40
0.4047454082
 40
0.4707168672
 40
0.5408433208
 40
0.6144323106
 40
0.6905845374
 40
0.7682971273
 40
0.8465056477
 40
0.9241294705
 40
1.0
 40
1.0
 40
1.0
 40
1.0
 10
24.8733671803
 20
16.3752707921
 30
0.0
 10
24.8683032346
 20
16.3825716673
 30
0.0
 10
24.8597826717
 20
16.3977591332
 30
0.0
 10
24.8525958098
 20
16.422405436
 30
0.0
 10
24.8518134977
 20
16.4475089631
 30
0.0
 10
24.8574199559
 20
16.4723421656
 30
0.0
 10
24.8692269591
 20
16.4962484825
 30
0.0
 10
24.8867901911
 20
16.5187568517
 30
0.0
 10
24.9097122687
 20
16.5394312069
 30
0.0
 10
24.9374592946
 20
16.5579456889
 30
0.0
 10
24.9694887299
 20
16.5739166701
 30
0.0
 10
25.0051315227
 20
16.587070526
 30
0.0
 10
25.0436723416
 20
16.597103046
 30
0.0
 10
25.0843047142
 20
16.6038627945
 30
0.0
 10
25.1261969552
 20
16.6071833319
 30
0.0
 10
25.1684886842
 20
16.6069813754
 30
0.0
 10
25.2102708752
 20
16.6031780305
 30
0.0
 10
25.2376518079
 20
16.598368304
 30
0.0
 10
25.2510519164
 20
16.5954118835
 30
0.0
  0
SPLINE
  5
556
100
AcDbEntity
  8
0
100
AcDbSpline
 62
9
  6
CONTINUOUS
 70
0
 71
3
 72
23
 73
19
 74
0
 42
0.0000001
 43
0.0000001
 44
0.0000000001
 40
0.0
 40
0.0
 40
0.0
 40
0.0
 40
0.0448306186
 40
0.0888520152
 40
0.1337955978
 40
0.1812181308
 40
0.2322873761
 40
0.2876643281
 40
0.3475900459
 40
0.4119056051
 40
0.4801915133
 40
0.551780319
 40
0.6258689294
 40
0.7015292558
 40
0.7777732372
 40
0.8535889219
 40
0.9279908439
 40
1.0
 40
1.0
 40
1.0
 40
1.0
 10
23.5666473066
 20
16.3103860355
 30
0.0
 10
23.563279634
 20
16.3196212466
 30
0.0
 10
23.5586347173
 20
16.3387630825
 30
0.0
 10
23.5588616826
 20
16.3683921024
 30
0.0
 10
23.5664683411
 20
16.397609668
 30
0.0
 10
23.581096997
 20
16.4257154407
 30
0.0
 10
23.602363218
 20
16.4521466397
 30
0.0
 10
23.6297249605
 20
16.4764893268
 30
0.0
 10
23.6626626806
 20
16.4982884448
 30
0.0
 10
23.7005053864
 20
16.5172023153
 30
0.0
 10
23.7425414787
 20
16.5328368416
 30
0.0
 10
23.7879392083
 20
16.5449353053
 30
0.0
 10
23.8358216261
 20
16.5532150046
 30
0.0
 10
23.8852390579
 20
16.5575739754
 30
0.0
 10
23.9352248873
 20
16.5579009748
 30
0.0
 10
23.9848006769
 20
16.5541677304
 30
0.0
 10
24.0329541915
 20
16.5463475485
 30
0.0
 10
24.0641402515
 20
16.5385324927
 30
0.0
 10
24.0792691866
 20
16.5340130674
 30
0.0
  0
SPLINE
  5
557
100
AcDbEntity
  8
0
100
AcDbSpline
 62
9
  6
CONTINUOUS
 70
0
 71
3
 72
22
 73
18
 74
0
 42
0.0000001
 43
0.0000001
 44
0.0000000001
 40
0.0
 40
0.0
 40
0.0
 40
0.0
 40
0.0447855399
 40
0.091059794
 40
0.1394113357
 40
0.190293491
 40
0.2439952581
 40
0.3006861525
 40
0.3604065362
 40
0.4230894895
 40
0.4885934116
 40
0.5566756521
 40
0.6992826108
 40
0.7731750112
 40
0.8482627835
 40
0.924060093
 40
1.0
 40
1.0
 40
1.0
 40
1.0
 10
27.8385605634
 20
17.9538136468
 30
0.0
 10
27.8366951731
 20
17.9426995766
 30
0.0
 10
27.8310390889
 20
17.9203785132
 30
0.0
 10
27.817293598
 20
17.8879729532
 30
0.0
 10
27.7983243057
 20
17.8565223248
 30
0.0
 10
27.7743238306
 20
17.826319491
 30
0.0
 10
27.7455500673
 20
17.7975882936
 30
0.0
 10
27.7122415274
 20
17.7705925023
 30
0.0
 10
27.6747060777
 20
17.7455473273
 30
0.0
 10
27.6332742454
 20
17.7226584676
 30
0.0
 10
27.5882970086
 20
17.7021465243
 30
0.0
 10
27.5231589505
 20
17.6777891566
 30
0.0
 10
27.4537224075
 20
17.6593991801
 30
0.0
 10
27.3814053313
 20
17.6468404888
 30
0.0
 10
27.3251767612
 20
17.640406679
 30
0.0
 10
27.2681740905
 20
17.6370446489
 30
0.0
 10
27.2299725643
 20
17.6367920022
 30
0.0
 10
27.2108670456
 20
17.6371566782
 30
0.0
  0
ENDSEC
  0
SECTION
  2
OBJECTS
  0
DICTIONARY
  5
C
100
AcDbDictionary
280
0
281
1
  3
ACAD_GROUP
350
D
  3
ACAD_MLINESTYLE
350
17
  3
ACAD_LAYOUT
350
1A
  3
ACAD_PLOTSETTINGS
350
19
  3
ACAD_PLOTSTYLENAME
350
E
  0
DICTIONARY
  5
D
102
{ACAD_REACTORS
330
C
102
}
100
AcDbDictionary
280
0
281
1
  0
ACDBDICTIONARYWDFLT
  5
E
102
{ACAD_REACTORS
330
C
102
}
100
AcDbDictionary
281
1
  3
Normal
350
F
100
AcDbDictionaryWithDefault
340
F
  0
DICTIONARY
  5
17
102
{ACAD_REACTORS
330
C
102
}
100
AcDbDictionary
280
0
281
1
  3
Standard
350
18
  0
DICTIONARY
  5
19
102
{ACAD_REACTORS
330
C
102
}
100
AcDbDictionary
281
1
  0
DICTIONARY
  5
1A
102
{ACAD_REACTORS
330
C
102
}
100
AcDbDictionary
281
1
  3
Model
350
558
  3
Layout1
350
559
  0
ACDBPLACEHOLDER
  5
F
102
{ACAD_REACTORS
330
E
102
}
  0
MLINESTYLE
  5
18
102
{ACAD_REACTORS
330
17
102
}
100
AcDbMlineStyle
  2
STANDARD
 70
0
  3

 62
256
 51
90.0
 52
90.0
 71
2
 49
0.5
 62
256
  6
BYLAYER
 49
-0.5
 62
256
  6
BYLAYER
  0
LAYOUT
  5
558
102
{ACAD_REACTORS
330
1A
102
}
100
AcDbPlotSettings
  1

  2
none_device
  4

  6

 40
0.0
 41
0.0
 42
0.0
 43
0.0
 44
1016.0
 45
711.2
 46
0.0
 47
0.0
 48
0.0
 49
0.0
140
0.0
141
0.0
142
1.0
143
1.0
 70
1024
 72
0
 73
0
 74
0
  7

 75
0
147
1.0
148
0.0
149
0.0
100
AcDbLayout
  1
Model
 70
0
 71
0
 10
0.0
 20
0.0
 11
40.0
 21
28.0
 12
0.0
 22
0.0
 32
0.0
 14
0.0
 24
0.0
 34
0.0
 15
0.0
 25
0.0
 35
0.0
146
0.0
 13
0.0
 23
0.0
 33
0.0
 16
1.0
 26
0.0
 36
0.0
 17
0.0
 27
1.0
 37
0.0
 76
0
330
1FF
345
0
346
0
  0
LAYOUT
  5
559
102
{ACAD_REACTORS
330
1A
102
}
100
AcDbPlotSettings
  1

  2
none_device
  4

  6

 40
0.0
 41
0.0
 42
0.0
 43
0.0
 44
1016.0
 45
711.2
 46
0.0
 47
0.0
 48
0.0
 49
0.0
140
0.0
141
0.0
142
1.0
143
1.0
 70
0
 72
0
 73
0
 74
0
  7

 75
0
147
1.0
148
0.0
149
0.0
100
AcDbLayout
  1
Layout1
 70
0
 71
1
 10
0.0
 20
0.0
 11
40.0
 21
28.0
 12
0.0
 22
0.0
 32
0.0
 14
0.0
 24
0.0
 34
0.0
 15
0.0
 25
0.0
 35
0.0
146
0.0
 13
0.0
 23
0.0
 33
0.0
 16
1.0
 26
0.0
 36
0.0
 17
0.0
 27
1.0
 37
0.0
 76
0
330
200
345
0
346
0
  0
ENDSEC
  0
EOF
