999
DXF file: 2106bsn108-xxxx-xx.dxf
999
Pro/ENGINEER 2015070 by Parametric Technology Corporation
  0
SECTION
  2
HEADER
  9
$ACADVER
  1
AC1021
  9
$DWGCODEPAGE
  3
ANSI_936
  9
$EXTMAX
 10
40.0
 20
28.0
 30
0.0
  9
$EXTMIN
 10
0.0
 20
0.0
 30
0.0
  9
$LIMMIN
 10
0.0
 20
0.0
  9
$LIMMAX
 10
40.0
 20
28.0
  9
$VIEWCTR
 10
20.0
 20
14.0
  9
$VIEWSIZE
 40
28.0
  9
$CLAYER
  8
0
  9
$LTSCALE
 40
2.2
  9
$CELTYPE
  6
BYLAYER
  9
$DIMSCALE
 40
1.0
  9
$DIMASZ
 40
0.125
  9
$DIMEXO
 40
0.0625
  9
$DIMDLI
 40
1.52
  9
$DIMEXE
 40
0.125
  9
$DIMCEN
 40
0.36
  9
$DIMLFAC
 40
1.0
  9
$DIMBLK
  1
_FILLED
  9
$DIMTXT
 40
0.12
  9
$DIMTOL
 70
1
  9
$DIMLIM
 70
0
  9
$DIMTFAC
 40
1.0
  9
$DIMTP
 40
0.001
  9
$DIMTM
 40
0.001
  9
$DIMGAP
 40
0.09
  9
$DIMDSEP
 70
46
  9
$PDMODE
 70
3
  9
$PDSIZE
 40
0.125
  9
$HANDSEED
  5
44B
  9
$TILEMODE
 70
1
  9
$MEASUREMENT
 70
0
  9
$INSUNITS
 70
1
  0
ENDSEC
  0
SECTION
  2
CLASSES
  0
CLASS
  1
ACDBDICTIONARYWDFLT
  2
AcDbDictionaryWithDefault
  3
AutoCAD 2000
 90
0
 91
1
280
0
281
0
  0
CLASS
  1
ACDBPLACEHOLDER
  2
AcDbPlaceHolder
  3
AutoCAD 2000
 90
0
 91
1
280
0
281
0
  0
CLASS
  1
LAYOUT
  2
AcDbLayout
  3
AutoCAD 2000
 90
0
 91
0
280
0
281
0
  0
ENDSEC
  0
SECTION
  2
TABLES
  0
TABLE
  2
VPORT
  5
8
100
AcDbSymbolTable
 70
2
  0
VPORT
  5
1F4
100
AcDbSymbolTableRecord
100
AcDbViewportTableRecord
  2
*ACTIVE
 70
0
 10
0.0
 20
0.0
 11
1.0
 21
1.0
 12
20.0
 22
14.0
 13
0.0
 23
0.0
 14
1.0
 24
1.0
 15
0.0
 25
0.0
 16
0.0
 26
0.0
 36
1.0
 17
0.0
 27
0.0
 37
0.0
 40
28.0
 41
1.4285714286
 42
50.0
 43
0.0
 44
0.0
 50
0.0
 51
0.0
 71
0
 72
100
 73
1
 74
1
 75
0
 76
0
 77
0
 78
0
  0
ENDTAB
  0
TABLE
  2
LTYPE
  5
5
100
AcDbSymbolTable
 70
6
  0
LTYPE
  5
14
100
AcDbSymbolTableRecord
100
AcDbLinetypeTableRecord
  2
BYBLOCK
 70
0
  3

 72
65
 73
0
 40
0.0
  0
LTYPE
  5
15
100
AcDbSymbolTableRecord
100
AcDbLinetypeTableRecord
  2
BYLAYER
 70
0
  3

 72
65
 73
0
 40
0.0
  0
LTYPE
  5
16
100
AcDbSymbolTableRecord
100
AcDbLinetypeTableRecord
  2
CONTINUOUS
 70
64
  3
Solid line
 72
65
 73
0
 40
0.0
  0
LTYPE
  5
1F5
100
AcDbSymbolTableRecord
100
AcDbLinetypeTableRecord
  2
CENTER
 70
64
  3
____ _ ____ _ ____ _ ____ _ ____ _ ____ _ ____
 72
65
 73
4
 40
0.6
 49
0.375
 74
0
 49
-0.075
 74
0
 49
0.075
 74
0
 49
-0.075
 74
0
  0
LTYPE
  5
1F6
100
AcDbSymbolTableRecord
100
AcDbLinetypeTableRecord
  2
HIDDEN
 70
64
  3
- - - - - - - - - - - - - - - - - - - -
 72
65
 73
2
 40
0.2
 49
0.1
 74
0
 49
-0.1
 74
0
  0
LTYPE
  5
1F7
100
AcDbSymbolTableRecord
100
AcDbLinetypeTableRecord
  2
PHANTOM
 70
64
  3
_____ _ _ _____ _ _ _____ _ _ _____
 72
65
 73
6
 40
0.8
 49
0.45
 74
0
 49
-0.05
 74
0
 49
0.1
 74
0
 49
-0.05
 74
0
 49
0.1
 74
0
 49
-0.05
 74
0
  0
LTYPE
  5
1F8
100
AcDbSymbolTableRecord
100
AcDbLinetypeTableRecord
  2
DOT
 70
64
  3
. . . . . . . . . . . . . . . . . . . .
 72
65
 73
2
 40
0.2
 49
0.1
 74
0
 49
-0.1
 74
0
  0
LTYPE
  5
1F9
100
AcDbSymbolTableRecord
100
AcDbLinetypeTableRecord
  2
DASHED
 70
64
  3
- - - - - - - - - - - - - - - - - - - -
 72
65
 73
2
 40
0.2
 49
0.1
 74
0
 49
-0.1
 74
0
  0
ENDTAB
  0
TABLE
  2
LAYER
  5
2
100
AcDbSymbolTable
 70
36
  0
LAYER
  5
10
100
AcDbSymbolTableRecord
100
AcDbLayerTableRecord
  2
0
 70
0
 62
7
  6
CONTINUOUS
370
-3
390
F
  0
LAYER
  5
1FA
100
AcDbSymbolTableRecord
100
AcDbLayerTableRecord
  2
DEFAULT_1
 70
0
 62
7
  6
CENTER
370
-3
390
F
  0
LAYER
  5
1FB
100
AcDbSymbolTableRecord
100
AcDbLayerTableRecord
  2
DEFAULT_2
 70
0
 62
8
  6
HIDDEN
370
-3
390
F
  0
LAYER
  5
1FC
100
AcDbSymbolTableRecord
100
AcDbLayerTableRecord
  2
DEFAULT_3
 70
0
 62
7
  6
PHANTOM
370
-3
390
F
  0
LAYER
  5
1FD
100
AcDbSymbolTableRecord
100
AcDbLayerTableRecord
  2
___SHELL
 70
0
 62
7
  6
CONTINUOUS
370
-3
390
F
  0
ENDTAB
  0
TABLE
  2
STYLE
  5
3
100
AcDbSymbolTable
 70
1
  0
STYLE
  5
11
100
AcDbSymbolTableRecord
100
AcDbTextStyleTableRecord
  2
STANDARD
 70
0
 40
0.0
 41
1.0
 50
0.0
 71
0
 42
0.2
  3
txt
  4

  0
STYLE
  5
1FE
100
AcDbSymbolTableRecord
100
AcDbTextStyleTableRecord
  2
TEXTSTYLE_1
 70
0
 40
0.0
 41
0.8
 50
0.0
 71
0
 42
0.2
  3
gdt
  4

  0
ENDTAB
  0
TABLE
  2
VIEW
  5
6
100
AcDbSymbolTable
 70
0
  0
ENDTAB
  0
TABLE
  2
UCS
  5
7
100
AcDbSymbolTable
 70
0
  0
ENDTAB
  0
TABLE
  2
APPID
  5
9
100
AcDbSymbolTable
 70
1
  0
APPID
  5
1FF
100
AcDbSymbolTableRecord
100
AcDbRegAppTableRecord
  2
ACAD
 70
0
  0
ENDTAB
  0
TABLE
  2
BLOCK_RECORD
  5
1
100
AcDbSymbolTable
 70
0
  0
BLOCK_RECORD
  5
200
100
AcDbSymbolTableRecord
100
AcDbBlockTableRecord
  2
*Model_Space
  0
BLOCK_RECORD
  5
201
100
AcDbSymbolTableRecord
100
AcDbBlockTableRecord
  2
*Paper_Space
  0
ENDTAB
  0
TABLE
  2
DIMSTYLE
  5
A
100
AcDbSymbolTable
 70
1
100
AcDbDimStyleTable
 71
0
  0
DIMSTYLE
105
202
100
AcDbSymbolTableRecord
100
AcDbDimStyleTableRecord
  2
STANDARD
 70
0
  3

  4

 40
1.0
 41
0.125
 42
0.0625
 43
0.38
 44
0.125
 45
0.0
 46
0.0
 47
0.001
 48
0.001
140
0.12
141
0.09
142
0.0
143
25.4
144
1.0
145
0.0
146
1.0
147
0.09
 71
1.0
 72
0.0
 73
1
 74
1
 75
0
 76
0
 77
0
 78
4
170
0
171
2
172
0
173
0
174
0
175
0
176
0
177
0
178
0
270
2
271
3
272
3
273
2
274
2
275
0
280
0
281
0
282
0
283
1
284
4
285
0
286
0
287
3
288
0
340
11
278
46
  0
ENDTAB
  0
ENDSEC
  0
SECTION
  2
BLOCKS
  0
BLOCK
  5
20
100
AcDbEntity
  8
0
100
AcDbBlockBegin
  2
*Model_Space
 70
0
 10
0.0
 20
0.0
 30
0.0
  3
*Model_Space
  1

  0
ENDBLK
  5
21
100
AcDbEntity
  8
0
100
AcDbBlockEnd
  0
BLOCK
  5
1C
100
AcDbEntity
  8
0
100
AcDbBlockBegin
  2
*Paper_Space
 70
0
 10
0.0
 20
0.0
 30
0.0
  3
*Paper_Space
  1

  0
ENDBLK
  5
1D
100
AcDbEntity
  8
0
100
AcDbBlockEnd
  0
ENDSEC
  0
SECTION
  2
ENTITIES
  0
LINE
  5
203
100
AcDbEntity
  8
0
100
AcDbLine
 62
7
  6
CONTINUOUS
 10
0.0
 20
0.0
 11
0.0
 21
28.0
  0
LINE
  5
204
100
AcDbEntity
  8
0
100
AcDbLine
 62
7
  6
CONTINUOUS
 10
0.0
 20
0.0
 11
40.0
 21
0.0
  0
LINE
  5
205
100
AcDbEntity
  8
0
100
AcDbLine
 62
7
  6
CONTINUOUS
 10
0.0
 20
28.0
 11
40.0
 21
28.0
  0
LINE
  5
206
100
AcDbEntity
  8
0
100
AcDbLine
 62
7
  6
CONTINUOUS
 10
40.0
 20
0.0
 11
40.0
 21
28.0
  0
LINE
  5
207
100
AcDbEntity
  8
0
100
AcDbLine
 62
7
  6
CONTINUOUS
 10
7.6428457106
 20
3.4986657758
 11
7.6428457106
 21
3.1186657758
  0
LINE
  5
208
100
AcDbEntity
  8
0
100
AcDbLine
 62
9
  6
CONTINUOUS
 10
7.6628457106
 20
3.5186657758
 11
7.6628457106
 21
3.1186657758
  0
LINE
  5
209
100
AcDbEntity
  8
0
100
AcDbLine
 62
7
  6
CONTINUOUS
 10
7.6428457106
 20
3.1186657758
 11
9.6428457106
 21
3.1186657758
  0
LINE
  5
20A
100
AcDbEntity
  8
0
100
AcDbLine
 62
7
  6
CONTINUOUS
 10
11.3928457106
 20
3.1186657758
 11
13.8928457106
 21
3.1186657758
  0
LINE
  5
20B
100
AcDbEntity
  8
0
100
AcDbLine
 62
7
  6
CONTINUOUS
 10
15.6428457106
 20
3.1186657758
 11
17.6428457106
 21
3.1186657758
  0
LINE
  5
20C
100
AcDbEntity
  8
0
100
AcDbLine
 62
7
  6
CONTINUOUS
 10
8.2028457106
 20
3.7186657758
 11
8.2028457106
 21
3.5186657758
  0
LINE
  5
20D
100
AcDbEntity
  8
0
100
AcDbLine
 62
7
  6
CONTINUOUS
 10
8.2803457106
 20
4.251498783
 11
8.2803457106
 21
3.7186657758
  0
LINE
  5
20E
100
AcDbEntity
  8
0
100
AcDbLine
 62
9
  6
CONTINUOUS
 10
17.6428457106
 20
3.4986657758
 11
15.6428457106
 21
3.4986657758
  0
LINE
  5
20F
100
AcDbEntity
  8
0
100
AcDbLine
 62
9
  6
CONTINUOUS
 10
13.8928457106
 20
3.4986657758
 11
11.3928457106
 21
3.4986657758
  0
LINE
  5
210
100
AcDbEntity
  8
0
100
AcDbLine
 62
9
  6
CONTINUOUS
 10
9.6428457106
 20
3.4986657758
 11
7.6428457106
 21
3.4986657758
  0
LINE
  5
211
100
AcDbEntity
  8
0
100
AcDbLine
 62
7
  6
CONTINUOUS
 10
17.6228457106
 20
3.5186657758
 11
15.6628457106
 21
3.5186657758
  0
LINE
  5
212
100
AcDbEntity
  8
0
100
AcDbLine
 62
7
  6
CONTINUOUS
 10
9.6228457106
 20
3.5186657758
 11
7.6628457106
 21
3.5186657758
  0
LINE
  5
213
100
AcDbEntity
  8
0
100
AcDbLine
 62
7
  6
CONTINUOUS
 10
11.4128457106
 20
3.5186657758
 11
13.8728457106
 21
3.5186657758
  0
LINE
  5
214
100
AcDbEntity
  8
0
100
AcDbLine
 62
7
  6
CONTINUOUS
 10
17.08284319
 20
3.7186657758
 11
16.2028482312
 21
3.7186657758
  0
LINE
  5
215
100
AcDbEntity
  8
0
100
AcDbLine
 62
7
  6
CONTINUOUS
 10
9.08284319
 20
3.7186657758
 11
8.2028482312
 21
3.7186657758
  0
LINE
  5
216
100
AcDbEntity
  8
0
100
AcDbLine
 62
9
  6
CONTINUOUS
 10
13.6901682851
 20
3.9186707933
 11
11.5955231252
 21
3.9186707335
  0
LINE
  5
217
100
AcDbEntity
  8
0
100
AcDbLine
 62
7
  6
CONTINUOUS
 10
9.0053457106
 20
4.251498783
 11
9.0053457106
 21
3.7186657758
  0
LINE
  5
218
100
AcDbEntity
  8
0
100
AcDbLine
 62
7
  6
CONTINUOUS
 10
9.0828457106
 20
3.7186657758
 11
9.0828457106
 21
3.5186657758
  0
LINE
  5
219
100
AcDbEntity
  8
0
100
AcDbLine
 62
7
  6
CONTINUOUS
 10
17.0053457106
 20
4.251498783
 11
16.2803457106
 21
4.251498783
  0
LINE
  5
21A
100
AcDbEntity
  8
0
100
AcDbLine
 62
7
  6
CONTINUOUS
 10
9.0053457106
 20
4.251498783
 11
8.2803457106
 21
4.251498783
  0
LINE
  5
21B
100
AcDbEntity
  8
0
100
AcDbLine
 62
9
  6
CONTINUOUS
 10
9.6228457106
 20
3.1186657758
 11
9.6228457106
 21
3.5186657758
  0
LINE
  5
21C
100
AcDbEntity
  8
0
100
AcDbLine
 62
7
  6
CONTINUOUS
 10
9.6428457106
 20
3.4986657758
 11
9.6428457106
 21
3.1186657758
  0
LINE
  5
21D
100
AcDbEntity
  8
0
100
AcDbLine
 62
7
  6
CONTINUOUS
 10
17.807843523
 20
5.3586657758
 11
15.4778478982
 21
5.3586657758
  0
LINE
  5
21E
100
AcDbEntity
  8
0
100
AcDbLine
 62
7
  6
CONTINUOUS
 10
9.807843523
 20
5.3586657758
 11
7.4778478982
 21
5.3586657758
  0
LINE
  5
21F
100
AcDbEntity
  8
0
100
AcDbLine
 62
7
  6
CONTINUOUS
 10
11.3928457106
 20
3.4986657758
 11
11.3928457106
 21
3.1186657758
  0
LINE
  5
220
100
AcDbEntity
  8
0
100
AcDbLine
 62
9
  6
CONTINUOUS
 10
11.4128457106
 20
3.5186657758
 11
11.4128457106
 21
3.1186657758
  0
LINE
  5
221
100
AcDbEntity
  8
0
100
AcDbLine
 62
9
  6
CONTINUOUS
 10
11.9908555598
 20
9.2237249022
 11
11.9908555597
 21
9.1981879084
  0
LINE
  5
222
100
AcDbEntity
  8
0
100
AcDbLine
 62
7
  6
CONTINUOUS
 10
11.99085483
 20
9.2237249317
 11
11.9987884545
 21
9.392219852
  0
LINE
  5
223
100
AcDbEntity
  8
0
100
AcDbLine
 62
7
  6
CONTINUOUS
 10
12.036855349
 20
10.5741505474
 11
11.9708770706
 21
9.2176865348
  0
LINE
  5
224
100
AcDbEntity
  8
0
100
AcDbLine
 62
7
  6
CONTINUOUS
 10
12.0693258634
 20
11.1918449957
 11
12.036855349
 21
10.5741505474
  0
LINE
  5
225
100
AcDbEntity
  8
0
100
AcDbLine
 62
7
  6
CONTINUOUS
 10
12.0897651126
 20
11.5509815115
 11
12.0693258634
 21
11.1918449957
  0
LWPOLYLINE
  5
226
100
AcDbEntity
  8
0
100
AcDbPolyline
 62
7
  6
CONTINUOUS
 90
4
 70
0
 10
11.7181444193
 20
5.8844146288
 10
11.6760760897
 20
5.2877251308
 10
11.6284790147
 20
4.627893039
 10
11.5755372808
 20
3.919242031
  0
LINE
  5
227
100
AcDbEntity
  8
0
100
AcDbLine
 62
9
  6
CONTINUOUS
 10
11.5649478476
 20
3.5186657768
 11
11.5955231252
 21
3.9186707335
  0
LINE
  5
228
100
AcDbEntity
  8
0
100
AcDbLine
 62
7
  6
CONTINUOUS
 10
11.5449345327
 20
3.5186686193
 11
11.5755812519
 21
3.9192430094
  0
LWPOLYLINE
  5
229
100
AcDbEntity
  8
0
100
AcDbPolyline
 62
7
  6
CONTINUOUS
 90
6
 70
0
 10
11.9592589327
 20
9.2336116279
 10
11.9339810026
 20
8.9153004944
 10
11.9079635679
 20
8.5736880568
 10
11.8809423687
 20
8.2068452296
 10
11.8526236675
 20
7.8123367645
 10
11.7181444193
 20
5.8844146288
  0
LINE
  5
22A
100
AcDbEntity
  8
0
100
AcDbLine
 62
7
  6
CONTINUOUS
 10
11.9840489043
 20
9.5301684719
 11
11.9592589327
 21
9.2336116279
  0
LINE
  5
22B
100
AcDbEntity
  8
0
100
AcDbLine
 62
7
  6
CONTINUOUS
 10
11.9875958454
 20
9.5700345141
 11
11.9840489043
 21
9.5301684719
  0
LINE
  5
22C
100
AcDbEntity
  8
0
100
AcDbLine
 62
9
  6
CONTINUOUS
 10
13.2948278577
 20
9.1981896197
 11
12.6428457107
 21
8.7736250363
  0
LINE
  5
22D
100
AcDbEntity
  8
0
100
AcDbLine
 62
7
  6
CONTINUOUS
 10
12.6451759201
 20
8.7698136777
 11
13.3057584534
 21
9.1999822129
  0
LINE
  5
22E
100
AcDbEntity
  8
0
100
AcDbLine
 62
7
  6
CONTINUOUS
 10
12.6428111794
 20
8.7685043082
 11
12.6428444182
 21
8.7686211375
  0
LINE
  5
22F
100
AcDbEntity
  8
0
100
AcDbLine
 62
7
  6
CONTINUOUS
 10
13.3027124064
 20
9.5177235245
 11
13.2981248907
 21
9.5694451212
  0
LINE
  5
230
100
AcDbEntity
  8
0
100
AcDbLine
 62
7
  6
CONTINUOUS
 10
13.3526384435
 20
8.903340521
 11
13.3276387473
 21
9.2187032179
  0
LINE
  5
231
100
AcDbEntity
  8
0
100
AcDbLine
 62
7
  6
CONTINUOUS
 10
13.3276387473
 20
9.2187032179
 11
13.3027124064
 21
9.5177235245
  0
LINE
  5
232
100
AcDbEntity
  8
0
100
AcDbLine
 62
9
  6
CONTINUOUS
 10
13.6901682851
 20
3.9186707933
 11
13.7207435736
 21
3.5186657768
  0
LINE
  5
233
100
AcDbEntity
  8
0
100
AcDbLine
 62
7
  6
CONTINUOUS
 10
13.7407568743
 20
3.5186687823
 11
13.7101100392
 21
3.9192447248
  0
LWPOLYLINE
  5
234
100
AcDbEntity
  8
0
100
AcDbPolyline
 62
7
  6
CONTINUOUS
 90
10
 70
0
 10
13.1629493404
 20
12.0589164648
 10
13.1543743081
 20
12.1720495517
 10
13.1460611821
 20
12.2724505546
 10
13.1380104282
 20
12.3599720711
 10
13.13021954
 20
12.4345831959
 10
13.1226985541
 20
12.4962954305
 10
13.1154608307
 20
12.5453052497
 10
13.1084818447
 20
12.5822980291
 10
13.1015883754
 20
12.6086294046
 10
13.0927501715
 20
12.6285170935
  0
LWPOLYLINE
  5
235
100
AcDbEntity
  8
0
100
AcDbPolyline
 62
7
  6
CONTINUOUS
 90
3
 70
0
 10
13.7101540253
 20
3.9192435169
 10
13.6573941567
 20
4.6254114146
 10
13.6099359544
 20
5.2832199677
  0
LWPOLYLINE
  5
236
100
AcDbEntity
  8
0
100
AcDbPolyline
 62
7
  6
CONTINUOUS
 90
3
 70
0
 10
13.4055493459
 20
8.1958226889
 10
13.3785913232
 20
8.5621381989
 10
13.3526384435
 20
8.903340521
  0
LINE
  5
237
100
AcDbEntity
  8
0
100
AcDbLine
 62
7
  6
CONTINUOUS
 10
13.463702705
 20
7.3775003118
 11
13.4055493459
 21
8.1958226889
  0
LWPOLYLINE
  5
238
100
AcDbEntity
  8
0
100
AcDbPolyline
 62
7
  6
CONTINUOUS
 90
3
 70
0
 10
13.6099359544
 20
5.2832199677
 10
13.5301849795
 20
6.4209816081
 10
13.463702705
 20
7.3775003118
  0
LINE
  5
239
100
AcDbEntity
  8
0
100
AcDbLine
 62
7
  6
CONTINUOUS
 10
13.180868574
 20
11.7956092948
 11
13.1629493404
 21
12.0589164648
  0
LINE
  5
23A
100
AcDbEntity
  8
0
100
AcDbLine
 62
7
  6
CONTINUOUS
 10
13.1997648332
 20
11.4857221452
 11
13.180868574
 21
11.7956092948
  0
LINE
  5
23B
100
AcDbEntity
  8
0
100
AcDbLine
 62
7
  6
CONTINUOUS
 10
13.2195776347
 20
11.1330280981
 11
13.1997648332
 21
11.4857221452
  0
LINE
  5
23C
100
AcDbEntity
  8
0
100
AcDbLine
 62
7
  6
CONTINUOUS
 10
13.2509717952
 20
10.5319737709
 11
13.2195776347
 21
11.1330280981
  0
LINE
  5
23D
100
AcDbEntity
  8
0
100
AcDbLine
 62
7
  6
CONTINUOUS
 10
13.2509717952
 20
10.5319737709
 11
13.3144850416
 21
9.2246536357
  0
LINE
  5
23E
100
AcDbEntity
  8
0
100
AcDbLine
 62
7
  6
CONTINUOUS
 10
13.3144850416
 20
9.2246536357
 11
13.3148143461
 21
9.2176865912
  0
LINE
  5
23F
100
AcDbEntity
  8
0
100
AcDbLine
 62
7
  6
CONTINUOUS
 10
13.2868852081
 20
9.3925813664
 11
13.2948365907
 21
9.2237249317
  0
LINE
  5
240
100
AcDbEntity
  8
0
100
AcDbLine
 62
7
  6
CONTINUOUS
 10
11.9799244272
 20
9.1999802472
 11
12.6405244282
 21
8.7698153796
  0
LINE
  5
241
100
AcDbEntity
  8
0
100
AcDbLine
 62
9
  6
CONTINUOUS
 10
12.6428457107
 20
8.7736250363
 11
11.9908555597
 21
9.1981879084
  0
LINE
  5
242
100
AcDbEntity
  8
0
100
AcDbLine
 62
9
  6
CONTINUOUS
 10
13.8728457106
 20
3.1186657758
 11
13.8728457106
 21
3.5186657758
  0
LINE
  5
243
100
AcDbEntity
  8
0
100
AcDbLine
 62
7
  6
CONTINUOUS
 10
13.8928457106
 20
3.4986657758
 11
13.8928457106
 21
3.1186657758
  0
LINE
  5
244
100
AcDbEntity
  8
0
100
AcDbLine
 62
9
  6
CONTINUOUS
 10
11.9908555597
 20
9.1981879084
 11
13.2948278577
 21
9.1981896197
  0
LINE
  5
245
100
AcDbEntity
  8
0
100
AcDbLine
 62
9
  6
CONTINUOUS
 10
13.2948365907
 20
9.2237249317
 11
11.99085483
 21
9.2237249317
  0
LINE
  5
246
100
AcDbEntity
  8
0
100
AcDbLine
 62
9
  6
CONTINUOUS
 10
11.9987884545
 20
9.392219852
 11
13.2868852081
 21
9.3925813664
  0
LINE
  5
247
100
AcDbEntity
  8
0
100
AcDbLine
 62
7
  6
CONTINUOUS
 10
15.6428457106
 20
3.4986657758
 11
15.6428457106
 21
3.1186657758
  0
LINE
  5
248
100
AcDbEntity
  8
0
100
AcDbLine
 62
9
  6
CONTINUOUS
 10
15.6628457106
 20
3.5186657758
 11
15.6628457106
 21
3.1186657758
  0
LINE
  5
249
100
AcDbEntity
  8
0
100
AcDbLine
 62
7
  6
CONTINUOUS
 10
16.2028457106
 20
3.7186657758
 11
16.2028457106
 21
3.5186657758
  0
LINE
  5
24A
100
AcDbEntity
  8
0
100
AcDbLine
 62
7
  6
CONTINUOUS
 10
16.2803457106
 20
4.251498783
 11
16.2803457106
 21
3.7186657758
  0
LWPOLYLINE
  5
24B
100
AcDbEntity
  8
0
100
AcDbPolyline
 62
7
  6
CONTINUOUS
 90
3
 70
0
 10
13.0927501715
 20
12.6285170935
 10
13.0748712425
 20
12.6418651765
 10
13.0694189432
 20
12.6424001593
  0
LINE
  5
24C
100
AcDbEntity
  8
0
100
AcDbLine
 62
7
  6
CONTINUOUS
 10
17.0053457106
 20
4.251498783
 11
17.0053457106
 21
3.7186657758
  0
LINE
  5
24D
100
AcDbEntity
  8
0
100
AcDbLine
 62
7
  6
CONTINUOUS
 10
17.0828457106
 20
3.7186657758
 11
17.0828457106
 21
3.5186657758
  0
LINE
  5
24E
100
AcDbEntity
  8
0
100
AcDbLine
 62
9
  6
CONTINUOUS
 10
17.6228457106
 20
3.1186657758
 11
17.6228457106
 21
3.5186657758
  0
LINE
  5
24F
100
AcDbEntity
  8
0
100
AcDbLine
 62
7
  6
CONTINUOUS
 10
17.6428457106
 20
3.4986657758
 11
17.6428457106
 21
3.1186657758
  0
LWPOLYLINE
  5
250
100
AcDbEntity
  8
0
100
AcDbPolyline
 62
7
  6
CONTINUOUS
 90
14
 70
0
 10
12.2167220211
 20
12.6424099293
 10
12.2082180059
 20
12.6411286367
 10
12.1909330996
 20
12.6251723645
 10
12.182975191
 20
12.6050136816
 10
12.1757992987
 20
12.5756531583
 10
12.1684882974
 20
12.5344747428
 10
12.1608956236
 20
12.4801573299
 10
12.1530010757
 20
12.412053067
 10
12.1448147615
 20
12.3299734944
 10
12.1363392204
 20
12.2338636513
 10
12.127575325
 20
12.1238163104
 10
12.1185279159
 20
12.0000772161
 10
12.1092046148
 20
11.8630376345
 10
12.0897651126
 20
11.5509815115
  0
LINE
  5
251
100
AcDbEntity
  8
0
100
AcDbLine
 62
7
  6
CONTINUOUS
 10
13.0695346714
 20
12.6424001593
 11
12.2161569748
 21
12.6424001593
  0
LINE
  5
252
100
AcDbEntity
  8
0
100
AcDbLine
 62
7
  6
CONTINUOUS
 10
30.5252254093
 20
3.1186657758
 11
33.0252254093
 21
3.1186657758
  0
LINE
  5
253
100
AcDbEntity
  8
0
100
AcDbLine
 62
7
  6
CONTINUOUS
 10
24.6911577529
 20
9.2139881322
 11
24.7538141246
 21
9.3833664109
  0
LINE
  5
254
100
AcDbEntity
  8
0
100
AcDbLine
 62
7
  6
CONTINUOUS
 10
24.7257283981
 20
9.3925813664
 11
24.6628240259
 21
9.2237249317
  0
LINE
  5
255
100
AcDbEntity
  8
0
100
AcDbLine
 62
9
  6
CONTINUOUS
 10
33.0252254093
 20
3.4986657758
 11
30.5252254093
 21
3.4986657758
  0
LINE
  5
256
100
AcDbEntity
  8
0
100
AcDbLine
 62
7
  6
CONTINUOUS
 10
33.0052254093
 20
3.5186657758
 11
30.5452254093
 21
3.5186657758
  0
LINE
  5
257
100
AcDbEntity
  8
0
100
AcDbLine
 62
7
  6
CONTINUOUS
 10
32.2152254093
 20
3.7186657758
 11
31.3352254093
 21
3.7186657758
  0
LINE
  5
258
100
AcDbEntity
  8
0
100
AcDbLine
 62
9
  6
CONTINUOUS
 10
32.7185890107
 20
3.917572664
 11
32.1300428346
 21
3.9179174411
  0
LINE
  5
259
100
AcDbEntity
  8
0
100
AcDbLine
 62
9
  6
CONTINUOUS
 10
31.4127254093
 20
3.9183376539
 11
30.8513121524
 21
3.9186665363
  0
LINE
  5
25A
100
AcDbEntity
  8
0
100
AcDbLine
 62
7
  6
CONTINUOUS
 10
32.1377254093
 20
4.251498783
 11
31.4127254093
 21
4.251498783
  0
LINE
  5
25B
100
AcDbEntity
  8
0
100
AcDbLine
 62
9
  6
CONTINUOUS
 10
25.7595696853
 20
8.7814090233
 11
25.8313811117
 21
8.9482410078
  0
LINE
  5
25C
100
AcDbEntity
  8
0
100
AcDbLine
 62
7
  6
CONTINUOUS
 10
25.8410117302
 20
8.9443695772
 11
25.8138447733
 21
8.8815691941
  0
LINE
  5
25D
100
AcDbEntity
  8
0
100
AcDbLine
 62
7
  6
CONTINUOUS
 10
32.9402254093
 20
5.3586657758
 11
30.6102254093
 21
5.3586657758
  0
LINE
  5
25E
100
AcDbEntity
  8
0
100
AcDbLine
 62
7
  6
CONTINUOUS
 10
24.6740977087
 20
9.1981896197
 11
25.7295704185
 21
8.7736250363
  0
LINE
  5
25F
100
AcDbEntity
  8
0
100
AcDbLine
 62
7
  6
CONTINUOUS
 10
24.7534809571
 20
9.3822380312
 11
25.8313810976
 21
8.9482410164
  0
LINE
  5
260
100
AcDbEntity
  8
0
100
AcDbLine
 62
7
  6
CONTINUOUS
 10
25.7595778429
 20
8.781404123
 11
24.6911646309
 21
9.2139857139
  0
LINE
  5
261
100
AcDbEntity
  8
0
100
AcDbLine
 62
7
  6
CONTINUOUS
 10
30.5252254093
 20
3.1186657758
 11
30.5252254093
 21
3.4986657758
  0
LINE
  5
262
100
AcDbEntity
  8
0
100
AcDbLine
 62
9
  6
CONTINUOUS
 10
30.5452254093
 20
3.1186657758
 11
30.5452254093
 21
3.5186657758
  0
LINE
  5
263
100
AcDbEntity
  8
0
100
AcDbLine
 62
7
  6
CONTINUOUS
 10
30.7752254093
 20
3.4986657758
 11
30.7752254093
 21
3.1186657758
  0
LINE
  5
264
100
AcDbEntity
  8
0
100
AcDbLine
 62
9
  6
CONTINUOUS
 10
30.7952254093
 20
3.1186657758
 11
30.7952254093
 21
3.5186657758
  0
LINE
  5
265
100
AcDbEntity
  8
0
100
AcDbLine
 62
9
  6
CONTINUOUS
 10
30.8513119086
 20
3.9186665187
 11
30.8412726628
 21
3.518665762
  0
LINE
  5
266
100
AcDbEntity
  8
0
100
AcDbLine
 62
7
  6
CONTINUOUS
 10
30.8216632885
 20
3.9186707933
 11
30.8113254093
 21
3.5186657768
  0
LINE
  5
267
100
AcDbEntity
  8
0
100
AcDbLine
 62
7
  6
CONTINUOUS
 10
31.3352254093
 20
3.7186657758
 11
31.3352254093
 21
3.5186657758
  0
LINE
  5
268
100
AcDbEntity
  8
0
100
AcDbLine
 62
7
  6
CONTINUOUS
 10
31.4127254093
 20
4.251498783
 11
31.4127254093
 21
3.7186657758
  0
LINE
  5
269
100
AcDbEntity
  8
0
100
AcDbLine
 62
7
  6
CONTINUOUS
 10
32.1377254093
 20
4.251498783
 11
32.1377254093
 21
3.9766657758
  0
LINE
  5
26A
100
AcDbEntity
  8
0
100
AcDbLine
 62
7
  6
CONTINUOUS
 10
32.1377254093
 20
3.8206657758
 11
32.1377254093
 21
3.7186657758
  0
LINE
  5
26B
100
AcDbEntity
  8
0
100
AcDbLine
 62
7
  6
CONTINUOUS
 10
32.2152254093
 20
3.7186657758
 11
32.2152254093
 21
3.5186657758
  0
LINE
  5
26C
100
AcDbEntity
  8
0
100
AcDbLine
 62
9
  6
CONTINUOUS
 10
32.7185361298
 20
3.918325008
 11
32.7289968257
 21
3.518665774
  0
LINE
  5
26D
100
AcDbEntity
  8
0
100
AcDbLine
 62
7
  6
CONTINUOUS
 10
32.7336270463
 20
3.7303097367
 11
32.7287587748
 21
3.9186671549
  0
LINE
  5
26E
100
AcDbEntity
  8
0
100
AcDbLine
 62
9
  6
CONTINUOUS
 10
32.7552254093
 20
3.1186657758
 11
32.7552254093
 21
3.5186657758
  0
LINE
  5
26F
100
AcDbEntity
  8
0
100
AcDbLine
 62
7
  6
CONTINUOUS
 10
32.7752254093
 20
3.4986657758
 11
32.7752254093
 21
3.1186657758
  0
LINE
  5
270
100
AcDbEntity
  8
0
100
AcDbLine
 62
9
  6
CONTINUOUS
 10
33.0052254093
 20
3.1186657758
 11
33.0052254093
 21
3.5186657758
  0
LINE
  5
271
100
AcDbEntity
  8
0
100
AcDbLine
 62
7
  6
CONTINUOUS
 10
33.0252254093
 20
3.4986657758
 11
33.0252254093
 21
3.1186657758
  0
LINE
  5
272
100
AcDbEntity
  8
0
100
AcDbLine
 62
7
  6
CONTINUOUS
 10
7.6428457106
 20
22.0865749717
 11
7.6428457106
 21
22.4779647406
  0
LINE
  5
273
100
AcDbEntity
  8
0
100
AcDbLine
 62
7
  6
CONTINUOUS
 10
7.6428457106
 20
23.6551852029
 11
7.6428457106
 21
24.0465749717
  0
LINE
  5
274
100
AcDbEntity
  8
0
100
AcDbLine
 62
9
  6
CONTINUOUS
 10
7.6628457106
 20
22.0665749717
 11
7.6628457106
 21
22.4405473723
  0
LINE
  5
275
100
AcDbEntity
  8
0
100
AcDbLine
 62
9
  6
CONTINUOUS
 10
7.6628457106
 20
23.6926025711
 11
7.6628457106
 21
24.0665749717
  0
LINE
  5
276
100
AcDbEntity
  8
0
100
AcDbLine
 62
7
  6
CONTINUOUS
 10
13.2948358695
 20
15.9529153258
 11
11.9908555598
 21
15.9529153258
  0
LINE
  5
277
100
AcDbEntity
  8
0
100
AcDbLine
 62
9
  6
CONTINUOUS
 10
13.2948365907
 20
15.9541735883
 11
11.99085483
 21
15.9541735883
  0
LINE
  5
278
100
AcDbEntity
  8
0
100
AcDbLine
 62
9
  6
CONTINUOUS
 10
11.9987884545
 20
16.0169432849
 11
13.2868852081
 21
16.0170779605
  0
LINE
  5
279
100
AcDbEntity
  8
0
100
AcDbLine
 62
9
  6
CONTINUOUS
 10
12.6338888375
 20
24.0201083431
 11
12.6428458764
 21
24.0249766087
  0
LINE
  5
27A
100
AcDbEntity
  8
0
100
AcDbLine
 62
7
  6
CONTINUOUS
 10
12.6416824045
 20
24.0271038085
 11
12.6243353569
 21
24.017695876
  0
LINE
  5
27B
100
AcDbEntity
  8
0
100
AcDbLine
 62
9
  6
CONTINUOUS
 10
9.6228457106
 20
22.0665749717
 11
9.6228457106
 21
22.4405473723
  0
LINE
  5
27C
100
AcDbEntity
  8
0
100
AcDbLine
 62
9
  6
CONTINUOUS
 10
9.6228457106
 20
23.6926025711
 11
9.6228457106
 21
24.0665749717
  0
LINE
  5
27D
100
AcDbEntity
  8
0
100
AcDbLine
 62
7
  6
CONTINUOUS
 10
9.6428457106
 20
24.0465749717
 11
9.6428457106
 21
23.6551852029
  0
LINE
  5
27E
100
AcDbEntity
  8
0
100
AcDbLine
 62
7
  6
CONTINUOUS
 10
9.6428457106
 20
22.4779647406
 11
9.6428457106
 21
22.0865749717
  0
LINE
  5
27F
100
AcDbEntity
  8
0
100
AcDbLine
 62
7
  6
CONTINUOUS
 10
12.6242331444
 20
24.0176806281
 11
12.5971099786
 21
23.9956946774
  0
LINE
  5
280
100
AcDbEntity
  8
0
100
AcDbLine
 62
7
  6
CONTINUOUS
 10
12.5971099786
 20
23.9956946774
 11
12.5716386895
 21
23.9594504031
  0
LINE
  5
281
100
AcDbEntity
  8
0
100
AcDbLine
 62
9
  6
CONTINUOUS
 10
11.5649478476
 20
22.1026749717
 11
11.5955231252
 21
22.1130128494
  0
LINE
  5
282
100
AcDbEntity
  8
0
100
AcDbLine
 62
9
  6
CONTINUOUS
 10
11.5476103749
 20
22.1326312935
 11
11.5780397209
 21
22.1426668621
  0
LINE
  5
283
100
AcDbEntity
  8
0
100
AcDbLine
 62
7
  6
CONTINUOUS
 10
12.563569027
 20
23.9444550928
 11
12.5589293178
 21
23.9348897967
  0
LINE
  5
284
100
AcDbEntity
  8
0
100
AcDbLine
 62
7
  6
CONTINUOUS
 10
12.5716386895
 20
23.9594504031
 11
12.4684246544
 21
23.7583295313
  0
LWPOLYLINE
  5
285
100
AcDbEntity
  8
0
100
AcDbPolyline
 62
7
  6
CONTINUOUS
 90
3
 70
0
 10
12.4684246544
 20
23.7583295313
 10
12.3468338466
 20
23.528546071
 10
12.2269999488
 20
23.3096585786
  0
LINE
  5
286
100
AcDbEntity
  8
0
100
AcDbLine
 62
7
  6
CONTINUOUS
 10
12.2269999488
 20
23.3096585786
 11
12.2541850854
 21
23.3585432713
  0
LINE
  5
287
100
AcDbEntity
  8
0
100
AcDbLine
 62
9
  6
CONTINUOUS
 10
11.5780393803
 20
22.1426670899
 11
12.2269999488
 21
23.3096585786
  0
LINE
  5
288
100
AcDbEntity
  8
0
100
AcDbLine
 62
7
  6
CONTINUOUS
 10
12.2541354492
 20
23.3585718773
 11
11.5476101524
 21
22.1326314218
  0
LINE
  5
289
100
AcDbEntity
  8
0
100
AcDbLine
 62
7
  6
CONTINUOUS
 10
12.5589293178
 20
23.9348897967
 11
12.5478148743
 21
23.9091620564
  0
LINE
  5
28A
100
AcDbEntity
  8
0
100
AcDbLine
 62
7
  6
CONTINUOUS
 10
11.3928457106
 20
24.2965749717
 11
11.3928457106
 21
21.8365749717
  0
LINE
  5
28B
100
AcDbEntity
  8
0
100
AcDbLine
 62
9
  6
CONTINUOUS
 10
11.4128457106
 20
24.3165749717
 11
11.4128457106
 21
21.8165749717
  0
LINE
  5
28C
100
AcDbEntity
  8
0
100
AcDbLine
 62
9
  6
CONTINUOUS
 10
11.9908555598
 20
15.9541735773
 11
11.9908555598
 21
15.9529153258
  0
LWPOLYLINE
  5
28D
100
AcDbEntity
  8
0
100
AcDbPolyline
 62
7
  6
CONTINUOUS
 90
10
 70
0
 10
12.1851956085
 20
19.160347337
 10
12.166758404
 20
18.7293060031
 10
12.1472902531
 20
18.3054131278
 10
12.1267059821
 20
17.8988475025
 10
12.1049779362
 20
17.5163704544
 10
12.0821096877
 20
17.1615729469
 10
12.0580837775
 20
16.835750137
 10
12.0328072625
 20
16.538724027
 10
12.00613496
 20
16.2701674905
 10
11.9790084179
 20
16.038838889
  0
LINE
  5
28E
100
AcDbEntity
  8
0
100
AcDbLine
 62
7
  6
CONTINUOUS
 10
12.2441191782
 20
20.5750673558
 11
12.1851956085
 21
19.160347337
  0
LWPOLYLINE
  5
28F
100
AcDbEntity
  8
0
100
AcDbPolyline
 62
7
  6
CONTINUOUS
 90
3
 70
0
 10
12.1566417031
 20
20.0217804869
 10
12.1948922957
 20
19.7826686529
 10
12.2076857205
 20
19.7070802185
  0
LINE
  5
290
100
AcDbEntity
  8
0
100
AcDbLine
 62
7
  6
CONTINUOUS
 10
12.0596355896
 20
20.6573040689
 11
12.1566417031
 21
20.0217804869
  0
LINE
  5
291
100
AcDbEntity
  8
0
100
AcDbLine
 62
7
  6
CONTINUOUS
 10
11.99085483
 20
15.9541735883
 11
11.9987884545
 21
16.0169432849
  0
LINE
  5
292
100
AcDbEntity
  8
0
100
AcDbLine
 62
7
  6
CONTINUOUS
 10
11.9790496397
 20
16.0387674886
 11
11.9710138308
 21
15.9754324527
  0
LWPOLYLINE
  5
293
100
AcDbEntity
  8
0
100
AcDbPolyline
 62
7
  6
CONTINUOUS
 90
3
 70
0
 10
13.0983299572
 20
19.212378637
 10
13.0635603957
 20
20.0588550241
 10
13.0415672517
 20
20.5751763578
  0
LWPOLYLINE
  5
294
100
AcDbEntity
  8
0
100
AcDbPolyline
 62
7
  6
CONTINUOUS
 90
13
 70
0
 10
13.224351607
 20
20.6462933735
 10
13.2539173515
 20
20.83417058
 10
13.2831252124
 20
21.0114052177
 10
13.3124147574
 20
21.1784548199
 10
13.3421665566
 20
21.3355474946
 10
13.3728346806
 20
21.4829347752
 10
13.4049811715
 20
21.6208009141
 10
13.4388887714
 20
21.7473441697
 10
13.4745684705
 20
21.8596238399
 10
13.5148016169
 20
21.9610519346
 10
13.5638450631
 20
22.0499484589
 10
13.6172914441
 20
22.1051275355
 10
13.6612617115
 20
22.1183827098
  0
LWPOLYLINE
  5
295
100
AcDbEntity
  8
0
100
AcDbPolyline
 62
7
  6
CONTINUOUS
 90
4
 70
0
 10
13.078013269
 20
19.7069540831
 10
13.088818333
 20
19.7706438381
 10
13.1272006965
 20
20.0099389074
 10
13.224351607
 20
20.6462933735
  0
LINE
  5
296
100
AcDbEntity
  8
0
100
AcDbLine
 62
7
  6
CONTINUOUS
 10
13.306672886
 20
16.0385217705
 11
13.3146775857
 21
15.9754324746
  0
LINE
  5
297
100
AcDbEntity
  8
0
100
AcDbLine
 62
7
  6
CONTINUOUS
 10
13.2868852081
 20
16.0170779605
 11
13.2948365907
 21
15.9541735883
  0
LWPOLYLINE
  5
298
100
AcDbEntity
  8
0
100
AcDbPolyline
 62
7
  6
CONTINUOUS
 90
10
 70
0
 10
13.3067251692
 20
16.0385095752
 10
13.2778725427
 20
16.2858654571
 10
13.2501220256
 20
16.5690704076
 10
13.2241809943
 20
16.8795023688
 10
13.1997591517
 20
17.217695338
 10
13.1766491099
 20
17.5844109116
 10
13.1549010408
 20
17.9760305858
 10
13.134684326
 20
18.3834815491
 10
13.115995588
 20
18.796291048
 10
13.0983299572
 20
19.212378637
  0
LINE
  5
299
100
AcDbEntity
  8
0
100
AcDbLine
 62
9
  6
CONTINUOUS
 10
13.2948358655
 20
15.9529153258
 11
13.2948365907
 21
15.9541735883
  0
LINE
  5
29A
100
AcDbEntity
  8
0
100
AcDbLine
 62
9
  6
CONTINUOUS
 10
13.8728457106
 20
21.8165749717
 11
13.8728457106
 21
24.3165749717
  0
LINE
  5
29B
100
AcDbEntity
  8
0
100
AcDbLine
 62
7
  6
CONTINUOUS
 10
13.8928457106
 20
24.2965749717
 11
13.8928457106
 21
21.8365749717
  0
LINE
  5
29C
100
AcDbEntity
  8
0
100
AcDbLine
 62
7
  6
CONTINUOUS
 10
13.8728457106
 20
21.8165749717
 11
13.4608886061
 21
21.8165749717
  0
LINE
  5
29D
100
AcDbEntity
  8
0
100
AcDbLine
 62
7
  6
CONTINUOUS
 10
11.824756738
 20
21.8165749717
 11
11.4128457106
 21
21.8165749717
  0
LINE
  5
29E
100
AcDbEntity
  8
0
100
AcDbLine
 62
9
  6
CONTINUOUS
 10
11.3928457106
 20
21.8365749717
 11
11.8183124545
 21
21.8365749717
  0
LINE
  5
29F
100
AcDbEntity
  8
0
100
AcDbLine
 62
9
  6
CONTINUOUS
 10
13.4672441109
 20
21.8365749717
 11
13.8928457106
 21
21.8365749717
  0
LWPOLYLINE
  5
2A0
100
AcDbEntity
  8
0
100
AcDbPolyline
 62
7
  6
CONTINUOUS
 90
13
 70
0
 10
11.6244514951
 20
22.118383205
 10
11.6666550292
 20
22.1062052711
 10
11.7202369997
 20
22.0522386086
 10
11.7686320803
 20
21.9659681169
 10
11.8084504849
 20
21.8671818485
 10
11.8442748989
 20
21.7559998565
 10
11.8783844707
 20
21.6301012624
 10
11.9107330894
 20
21.4925732449
 10
11.9415464923
 20
21.3455132562
 10
11.9714009308
 20
21.1887486559
 10
12.0007716074
 20
21.0219671479
 10
12.0300380412
 20
20.844964295
 10
12.0596355896
 20
20.6573040689
  0
LINE
  5
2A1
100
AcDbEntity
  8
0
100
AcDbLine
 62
7
  6
CONTINUOUS
 10
12.8164856357
 20
23.7598335927
 11
12.7144581454
 21
23.9587333827
  0
LINE
  5
2A2
100
AcDbEntity
  8
0
100
AcDbLine
 62
7
  6
CONTINUOUS
 10
12.7267779066
 20
23.9348559517
 11
12.7221212119
 21
23.9444574446
  0
LINE
  5
2A3
100
AcDbEntity
  8
0
100
AcDbLine
 62
7
  6
CONTINUOUS
 10
12.738945186
 20
23.9064734386
 11
12.7267779066
 21
23.9348559517
  0
LINE
  5
2A4
100
AcDbEntity
  8
0
100
AcDbLine
 62
9
  6
CONTINUOUS
 10
11.5955231252
 20
22.1130128494
 11
11.6243433634
 21
22.1182996237
  0
LINE
  5
2A5
100
AcDbEntity
  8
0
100
AcDbLine
 62
7
  6
CONTINUOUS
 10
11.6243433634
 20
22.1182996237
 11
11.6264239948
 21
22.1183241236
  0
LINE
  5
2A6
100
AcDbEntity
  8
0
100
AcDbLine
 62
7
  6
CONTINUOUS
 10
17.6228457106
 20
22.0665749717
 11
17.2314559418
 21
22.0665749717
  0
LINE
  5
2A7
100
AcDbEntity
  8
0
100
AcDbLine
 62
7
  6
CONTINUOUS
 10
16.0542354795
 20
22.0665749717
 11
15.6628457106
 21
22.0665749717
  0
LINE
  5
2A8
100
AcDbEntity
  8
0
100
AcDbLine
 62
7
  6
CONTINUOUS
 10
9.6228457106
 20
22.0665749717
 11
9.2314559418
 21
22.0665749717
  0
LINE
  5
2A9
100
AcDbEntity
  8
0
100
AcDbLine
 62
7
  6
CONTINUOUS
 10
8.0542354795
 20
22.0665749717
 11
7.6628457106
 21
22.0665749717
  0
LINE
  5
2AA
100
AcDbEntity
  8
0
100
AcDbLine
 62
9
  6
CONTINUOUS
 10
7.6428457106
 20
22.0865749717
 11
8.0168181112
 21
22.0865749717
  0
LINE
  5
2AB
100
AcDbEntity
  8
0
100
AcDbLine
 62
9
  6
CONTINUOUS
 10
9.26887331
 20
22.0865749717
 11
9.6428457106
 21
22.0865749717
  0
LINE
  5
2AC
100
AcDbEntity
  8
0
100
AcDbLine
 62
9
  6
CONTINUOUS
 10
15.6428457106
 20
22.0865749717
 11
16.0168181112
 21
22.0865749717
  0
LINE
  5
2AD
100
AcDbEntity
  8
0
100
AcDbLine
 62
9
  6
CONTINUOUS
 10
17.26887331
 20
22.0865749717
 11
17.6428457106
 21
22.0865749717
  0
LINE
  5
2AE
100
AcDbEntity
  8
0
100
AcDbLine
 62
7
  6
CONTINUOUS
 10
13.7207435736
 20
22.1026749717
 11
13.6149158941
 21
22.1026749717
  0
LINE
  5
2AF
100
AcDbEntity
  8
0
100
AcDbLine
 62
7
  6
CONTINUOUS
 10
11.6701601634
 20
22.1026749717
 11
11.5649478476
 21
22.1026749717
  0
LINE
  5
2B0
100
AcDbEntity
  8
0
100
AcDbLine
 62
9
  6
CONTINUOUS
 10
13.6901682851
 20
22.1130128509
 11
13.6434487332
 21
22.1130128509
  0
LINE
  5
2B1
100
AcDbEntity
  8
0
100
AcDbLine
 62
9
  6
CONTINUOUS
 10
11.643062861
 20
22.1130128494
 11
11.5955231252
 21
22.1130128494
  0
LINE
  5
2B2
100
AcDbEntity
  8
0
100
AcDbLine
 62
7
  6
CONTINUOUS
 10
13.6592685708
 20
22.1183241236
 11
13.6613711077
 21
22.1182991041
  0
LINE
  5
2B3
100
AcDbEntity
  8
0
100
AcDbLine
 62
9
  6
CONTINUOUS
 10
13.6613711077
 20
22.1182991041
 11
13.6901682851
 21
22.1130128525
  0
LINE
  5
2B4
100
AcDbEntity
  8
0
100
AcDbLine
 62
9
  6
CONTINUOUS
 10
13.7076520062
 20
22.142661471
 11
13.738086271
 21
22.1326222252
  0
LINE
  5
2B5
100
AcDbEntity
  8
0
100
AcDbLine
 62
9
  6
CONTINUOUS
 10
13.6901682851
 20
22.1130128509
 11
13.7207435736
 21
22.1026749717
  0
LINE
  5
2B6
100
AcDbEntity
  8
0
100
AcDbLine
 62
7
  6
CONTINUOUS
 10
12.7144581454
 20
23.9587333827
 11
12.6885788117
 21
23.9956975799
  0
LINE
  5
2B7
100
AcDbEntity
  8
0
100
AcDbLine
 62
7
  6
CONTINUOUS
 10
13.7380864943
 20
22.1326223538
 11
13.0314952866
 21
23.3586771756
  0
LINE
  5
2B8
100
AcDbEntity
  8
0
100
AcDbLine
 62
9
  6
CONTINUOUS
 10
13.0588372263
 20
23.3093964858
 11
13.7076523604
 21
22.1426617148
  0
LINE
  5
2B9
100
AcDbEntity
  8
0
100
AcDbLine
 62
7
  6
CONTINUOUS
 10
13.0314464664
 20
23.35864904
 11
13.0588372263
 21
23.3093964858
  0
LWPOLYLINE
  5
2BA
100
AcDbEntity
  8
0
100
AcDbPolyline
 62
7
  6
CONTINUOUS
 90
3
 70
0
 10
13.0588372263
 20
23.3093964858
 10
12.9385295274
 20
23.5291550642
 10
12.8164856357
 20
23.7598335927
  0
LINE
  5
2BB
100
AcDbEntity
  8
0
100
AcDbLine
 62
7
  6
CONTINUOUS
 10
15.6428457106
 20
22.0865749717
 11
15.6428457106
 21
22.4779647406
  0
LINE
  5
2BC
100
AcDbEntity
  8
0
100
AcDbLine
 62
7
  6
CONTINUOUS
 10
15.6428457106
 20
23.6551852029
 11
15.6428457106
 21
24.0465749717
  0
LINE
  5
2BD
100
AcDbEntity
  8
0
100
AcDbLine
 62
9
  6
CONTINUOUS
 10
15.6628457106
 20
22.0665749717
 11
15.6628457106
 21
22.4405473723
  0
LINE
  5
2BE
100
AcDbEntity
  8
0
100
AcDbLine
 62
9
  6
CONTINUOUS
 10
15.6628457106
 20
23.6926025711
 11
15.6628457106
 21
24.0665749717
  0
LINE
  5
2BF
100
AcDbEntity
  8
0
100
AcDbLine
 62
7
  6
CONTINUOUS
 10
12.6885788117
 20
23.9956975799
 11
12.6614019865
 21
24.0177110618
  0
LINE
  5
2C0
100
AcDbEntity
  8
0
100
AcDbLine
 62
7
  6
CONTINUOUS
 10
12.6440016885
 20
24.0271077818
 11
12.661315964
 21
24.017717625
  0
LINE
  5
2C1
100
AcDbEntity
  8
0
100
AcDbLine
 62
9
  6
CONTINUOUS
 10
12.6428458764
 20
24.0249766087
 11
12.6518027989
 21
24.0201083372
  0
LINE
  5
2C2
100
AcDbEntity
  8
0
100
AcDbLine
 62
9
  6
CONTINUOUS
 10
12.6518027989
 20
24.0201083372
 11
12.6338888375
 21
24.0201083431
  0
LINE
  5
2C3
100
AcDbEntity
  8
0
100
AcDbLine
 62
9
  6
CONTINUOUS
 10
7.6428457106
 20
24.0465749717
 11
8.0168181112
 21
24.0465749717
  0
LINE
  5
2C4
100
AcDbEntity
  8
0
100
AcDbLine
 62
9
  6
CONTINUOUS
 10
9.26887331
 20
24.0465749717
 11
9.6428457106
 21
24.0465749717
  0
LINE
  5
2C5
100
AcDbEntity
  8
0
100
AcDbLine
 62
9
  6
CONTINUOUS
 10
15.6428457106
 20
24.0465749717
 11
16.0168181112
 21
24.0465749717
  0
LINE
  5
2C6
100
AcDbEntity
  8
0
100
AcDbLine
 62
9
  6
CONTINUOUS
 10
17.26887331
 20
24.0465749717
 11
17.6428457106
 21
24.0465749717
  0
LINE
  5
2C7
100
AcDbEntity
  8
0
100
AcDbLine
 62
7
  6
CONTINUOUS
 10
7.6628457106
 20
24.0665749717
 11
8.0542354795
 21
24.0665749717
  0
LINE
  5
2C8
100
AcDbEntity
  8
0
100
AcDbLine
 62
7
  6
CONTINUOUS
 10
9.2314559418
 20
24.0665749717
 11
9.6228457106
 21
24.0665749717
  0
LINE
  5
2C9
100
AcDbEntity
  8
0
100
AcDbLine
 62
7
  6
CONTINUOUS
 10
15.6628457106
 20
24.0665749717
 11
16.0542354795
 21
24.0665749717
  0
LINE
  5
2CA
100
AcDbEntity
  8
0
100
AcDbLine
 62
7
  6
CONTINUOUS
 10
17.2314559418
 20
24.0665749717
 11
17.6228457106
 21
24.0665749717
  0
LINE
  5
2CB
100
AcDbEntity
  8
0
100
AcDbLine
 62
9
  6
CONTINUOUS
 10
13.8928457106
 20
24.2965749717
 11
11.3928457106
 21
24.2965749717
  0
LINE
  5
2CC
100
AcDbEntity
  8
0
100
AcDbLine
 62
7
  6
CONTINUOUS
 10
11.4128457106
 20
24.3165749717
 11
13.8728457106
 21
24.3165749717
  0
LINE
  5
2CD
100
AcDbEntity
  8
0
100
AcDbLine
 62
9
  6
CONTINUOUS
 10
17.6228457106
 20
22.0665749717
 11
17.6228457106
 21
22.4405473723
  0
LINE
  5
2CE
100
AcDbEntity
  8
0
100
AcDbLine
 62
9
  6
CONTINUOUS
 10
17.6228457106
 20
23.6926025711
 11
17.6228457106
 21
24.0665749717
  0
LINE
  5
2CF
100
AcDbEntity
  8
0
100
AcDbLine
 62
7
  6
CONTINUOUS
 10
17.6428457106
 20
24.0465749717
 11
17.6428457106
 21
23.6551852029
  0
LINE
  5
2D0
100
AcDbEntity
  8
0
100
AcDbLine
 62
7
  6
CONTINUOUS
 10
17.6428457106
 20
22.4779647406
 11
17.6428457106
 21
22.0865749717
  0
LINE
  5
2D1
100
AcDbEntity
  8
0
100
AcDbLine
 62
7
  6
CONTINUOUS
 10
24.3293357246
 20
15.2334937851
 11
22.9434064335
 21
16.0336604344
  0
LINE
  5
2D2
100
AcDbEntity
  8
0
100
AcDbLine
 62
9
  6
CONTINUOUS
 10
24.3293357246
 20
15.5437624859
 11
22.9434064335
 21
16.3439291352
  0
LINE
  5
2D3
100
AcDbEntity
  8
0
100
AcDbLine
 62
9
  6
CONTINUOUS
 10
24.3434778603
 20
15.5682573833
 11
22.9575485691
 21
16.3684240326
  0
LINE
  5
2D4
100
AcDbEntity
  8
0
100
AcDbLine
 62
7
  6
CONTINUOUS
 10
22.9375485691
 20
16.352094101
 11
22.9375485691
 21
16.0418254002
  0
LINE
  5
2D5
100
AcDbEntity
  8
0
100
AcDbLine
 62
9
  6
CONTINUOUS
 10
22.9434064335
 20
16.0336604344
 11
22.9434064335
 21
16.3439291352
  0
LINE
  5
2D6
100
AcDbEntity
  8
0
100
AcDbLine
 62
9
  6
CONTINUOUS
 10
24.8975431569
 20
16.8487009338
 11
25.7294071514
 21
16.3684240326
  0
LINE
  5
2D7
100
AcDbEntity
  8
0
100
AcDbLine
 62
7
  6
CONTINUOUS
 10
25.7394071514
 20
16.3694146091
 11
24.9040466603
 21
16.8517102134
  0
LINE
  5
2D8
100
AcDbEntity
  8
0
100
AcDbLine
 62
7
  6
CONTINUOUS
 10
23.9034778603
 20
16.5317233488
 11
23.9034778603
 21
16.3684240326
  0
LINE
  5
2D9
100
AcDbEntity
  8
0
100
AcDbLine
 62
7
  6
CONTINUOUS
 10
23.9809778603
 20
16.7645436895
 11
23.9809778603
 21
16.5317233488
  0
LINE
  5
2DA
100
AcDbEntity
  8
0
100
AcDbLine
 62
7
  6
CONTINUOUS
 10
28.5693034011
 20
24.2031902325
 11
28.4820978903
 21
24.1555334405
  0
LINE
  5
2DB
100
AcDbEntity
  8
0
100
AcDbLine
 62
9
  6
CONTINUOUS
 10
24.3293357246
 20
15.5437624859
 11
24.3293357246
 21
15.2334937851
  0
LINE
  5
2DC
100
AcDbEntity
  8
0
100
AcDbLine
 62
9
  6
CONTINUOUS
 10
24.3576199959
 20
15.5437624859
 11
24.3576199959
 21
15.2334937851
  0
LINE
  5
2DD
100
AcDbEntity
  8
0
100
AcDbLine
 62
7
  6
CONTINUOUS
 10
24.7059778603
 20
16.7660148796
 11
24.7059778603
 21
16.5317233488
  0
LWPOLYLINE
  5
2DE
100
AcDbEntity
  8
0
100
AcDbPolyline
 62
7
  6
CONTINUOUS
 90
11
 70
0
 10
28.02645128
 20
23.8924850283
 10
27.8607409502
 20
23.7819342435
 10
27.6002136631
 20
23.5355505603
 10
27.3575476721
 20
23.2070587921
 10
27.1413633439
 20
22.8063994442
 10
26.9529166417
 20
22.3376123839
 10
26.7909185697
 20
21.7941562604
 10
26.6572691631
 20
21.1683007975
 10
26.5565382639
 20
20.4518006888
 10
26.4955780465
 20
19.629976502
 10
26.4854049881
 20
18.7047580922
  0
LINE
  5
2DF
100
AcDbEntity
  8
0
100
AcDbLine
 62
7
  6
CONTINUOUS
 10
28.0203247279
 20
23.8889689541
 11
28.491486109
 21
24.1609627185
  0
LINE
  5
2E0
100
AcDbEntity
  8
0
100
AcDbLine
 62
7
  6
CONTINUOUS
 10
24.7834778603
 20
16.5317233488
 11
24.7834778603
 21
16.3684240326
  0
LINE
  5
2E1
100
AcDbEntity
  8
0
100
AcDbLine
 62
7
  6
CONTINUOUS
 10
27.1577628494
 20
16.6623628017
 11
25.4828234302
 21
17.6293895262
  0
LINE
  5
2E2
100
AcDbEntity
  8
0
100
AcDbLine
 62
9
  6
CONTINUOUS
 10
25.4981209985
 20
17.9308261719
 11
27.1577628494
 21
16.9726315025
  0
LINE
  5
2E3
100
AcDbEntity
  8
0
100
AcDbLine
 62
9
  6
CONTINUOUS
 10
25.491865416
 20
17.9670976974
 11
27.171904985
 21
16.9971263999
  0
LINE
  5
2E4
100
AcDbEntity
  8
0
100
AcDbLine
 62
9
  6
CONTINUOUS
 10
25.743549287
 20
16.3439291352
 11
25.743549287
 21
16.0336604344
  0
LINE
  5
2E5
100
AcDbEntity
  8
0
100
AcDbLine
 62
7
  6
CONTINUOUS
 10
25.7494071514
 20
16.352094101
 11
25.7494071514
 21
16.0418254002
  0
LWPOLYLINE
  5
2E6
100
AcDbEntity
  8
0
100
AcDbPolyline
 62
7
  6
CONTINUOUS
 90
17
 70
0
 10
28.731880987
 20
22.5101488624
 10
28.758285472
 20
22.5260768609
 10
28.9223186362
 20
22.605035112
 10
29.0966815961
 20
22.6524687573
 10
29.2756768092
 20
22.6634080784
 10
29.456155354
 20
22.6360103045
 10
29.6561839269
 20
22.5596786869
 10
29.8642596659
 20
22.4284301936
 10
30.0664145837
 20
22.2518484998
 10
30.2565997717
 20
22.0435318324
 10
30.4358831034
 20
21.8105057545
 10
30.6064752245
 20
21.5556995385
 10
30.7700381473
 20
21.2801110543
 10
30.9274006019
 20
20.9844126275
 10
31.0791397271
 20
20.6688291135
 10
31.2255156404
 20
20.3332474666
 10
31.3582867012
 20
19.9994259158
  0
LINE
  5
2E7
100
AcDbEntity
  8
0
100
AcDbLine
 62
7
  6
CONTINUOUS
 10
26.4923099741
 20
18.3878039127
 11
27.0578543122
 21
17.1730082925
  0
LINE
  5
2E8
100
AcDbEntity
  8
0
100
AcDbLine
 62
7
  6
CONTINUOUS
 10
26.4916057845
 20
18.3907152265
 11
26.4854496692
 21
18.7046537341
  0
LINE
  5
2E9
100
AcDbEntity
  8
0
100
AcDbLine
 62
9
  6
CONTINUOUS
 10
26.4862209499
 20
18.7014053158
 11
26.4923099122
 21
18.3878039015
  0
LINE
  5
2EA
100
AcDbEntity
  8
0
100
AcDbLine
 62
7
  6
CONTINUOUS
 10
26.4854498908
 20
18.7046428317
 11
26.4854484276
 21
18.7047444599
  0
LINE
  5
2EB
100
AcDbEntity
  8
0
100
AcDbLine
 62
9
  6
CONTINUOUS
 10
27.0722747366
 20
17.5160920864
 11
26.4861869739
 21
18.7020186265
  0
LINE
  5
2EC
100
AcDbEntity
  8
0
100
AcDbLine
 62
9
  6
CONTINUOUS
 10
26.4862209499
 20
18.7014053158
 11
26.4854498908
 21
18.7046428317
  0
LINE
  5
2ED
100
AcDbEntity
  8
0
100
AcDbLine
 62
9
  6
CONTINUOUS
 10
28.6107672454
 20
18.1749804756
 11
28.9113876667
 21
18.0014171945
  0
LINE
  5
2EE
100
AcDbEntity
  8
0
100
AcDbLine
 62
7
  6
CONTINUOUS
 10
28.9213876667
 20
18.0024077709
 11
28.6101180147
 21
18.1821193883
  0
LINE
  5
2EF
100
AcDbEntity
  8
0
100
AcDbLine
 62
9
  6
CONTINUOUS
 10
27.1577628494
 20
16.9726315025
 11
27.1577628494
 21
16.6623628017
  0
LINE
  5
2F0
100
AcDbEntity
  8
0
100
AcDbLine
 62
9
  6
CONTINUOUS
 10
27.1860471206
 20
16.9726315025
 11
27.1860471206
 21
16.6623628017
  0
LINE
  5
2F1
100
AcDbEntity
  8
0
100
AcDbLine
 62
9
  6
CONTINUOUS
 10
27.091296323
 20
17.1678567082
 11
27.1056063257
 21
17.5111621134
  0
LINE
  5
2F2
100
AcDbEntity
  8
0
100
AcDbLine
 62
9
  6
CONTINUOUS
 10
27.0578545602
 20
17.1730083197
 11
27.0722751385
 21
17.5160921187
  0
LINE
  5
2F3
100
AcDbEntity
  8
0
100
AcDbLine
 62
7
  6
CONTINUOUS
 10
29.9861899741
 20
18.4994801088
 11
28.600260683
 21
19.2996467581
  0
LINE
  5
2F4
100
AcDbEntity
  8
0
100
AcDbLine
 62
7
  6
CONTINUOUS
 10
26.4871657974
 20
18.6171377138
 11
25.4712232856
 21
18.0305830312
  0
LINE
  5
2F5
100
AcDbEntity
  8
0
100
AcDbLine
 62
9
  6
CONTINUOUS
 10
26.4872969514
 20
18.6104493565
 11
25.4739647281
 21
18.0254017246
  0
LINE
  5
2F6
100
AcDbEntity
  8
0
100
AcDbLine
 62
9
  6
CONTINUOUS
 10
29.9861899741
 20
18.8097488096
 11
28.600260683
 21
19.6099154589
  0
LINE
  5
2F7
100
AcDbEntity
  8
0
100
AcDbLine
 62
9
  6
CONTINUOUS
 10
30.0003321098
 20
18.834243707
 11
28.6144028186
 21
19.6344103563
  0
LINE
  5
2F8
100
AcDbEntity
  8
0
100
AcDbLine
 62
9
  6
CONTINUOUS
 10
28.5867441214
 20
18.3662974685
 11
28.6156740997
 21
18.0479566279
  0
LINE
  5
2F9
100
AcDbEntity
  8
0
100
AcDbLine
 62
7
  6
CONTINUOUS
 10
28.6215167574
 20
18.0567793069
 11
28.5925179936
 21
18.3756484596
  0
LWPOLYLINE
  5
2FA
100
AcDbEntity
  8
0
100
AcDbPolyline
 62
7
  6
CONTINUOUS
 90
14
 70
0
 10
28.5925262126
 20
18.3756112785
 10
28.5475496999
 20
19.0623450233
 10
28.5380744431
 20
19.6662092577
 10
28.5548467223
 20
20.1868962371
 10
28.5915006445
 20
20.6460797947
 10
28.6413378735
 20
21.0350677807
 10
28.6969981686
 20
21.3512201022
 10
28.7584219627
 20
21.6245756712
 10
28.8274384427
 20
21.8729953141
 10
28.9038064691
 20
22.0982976678
 10
28.9862785106
 20
22.2987594334
 10
29.0741252939
 20
22.474688093
 10
29.1673333211
 20
22.6271202135
 10
29.1910703725
 20
22.6582373425
  0
LINE
  5
2FB
100
AcDbEntity
  8
0
100
AcDbLine
 62
7
  6
CONTINUOUS
 10
28.5944028186
 20
19.6180804247
 11
28.5944028186
 21
19.3078117239
  0
LINE
  5
2FC
100
AcDbEntity
  8
0
100
AcDbLine
 62
9
  6
CONTINUOUS
 10
28.600260683
 20
19.2996467581
 11
28.600260683
 21
19.6099154589
  0
LINE
  5
2FD
100
AcDbEntity
  8
0
100
AcDbLine
 62
7
  6
CONTINUOUS
 10
29.4406415634
 20
20.1182035972
 11
28.6044028186
 21
19.6354009328
  0
LINE
  5
2FE
100
AcDbEntity
  8
0
100
AcDbLine
 62
7
  6
CONTINUOUS
 10
23.7837873139
 20
16.8522172734
 11
22.9475485691
 21
16.3694146091
  0
LINE
  5
2FF
100
AcDbEntity
  8
0
100
AcDbLine
 62
9
  6
CONTINUOUS
 10
22.9575485691
 20
16.3684240326
 11
23.7894423113
 21
16.8487181086
  0
LINE
  5
300
100
AcDbEntity
  8
0
100
AcDbLine
 62
9
  6
CONTINUOUS
 10
28.6144028186
 20
19.6344103563
 11
29.4462965608
 21
20.1147044323
  0
LINE
  5
301
100
AcDbEntity
  8
0
100
AcDbLine
 62
9
  6
CONTINUOUS
 10
28.9255298023
 20
17.6666535963
 11
28.9255298023
 21
17.976922297
  0
LINE
  5
302
100
AcDbEntity
  8
0
100
AcDbLine
 62
7
  6
CONTINUOUS
 10
28.9313876667
 20
17.9850872628
 11
28.9313876667
 21
17.6748185621
  0
LINE
  5
303
100
AcDbEntity
  8
0
100
AcDbLine
 62
7
  6
CONTINUOUS
 10
29.5603321098
 20
19.7977096725
 11
29.5603321098
 21
19.6344103563
  0
LINE
  5
304
100
AcDbEntity
  8
0
100
AcDbLine
 62
7
  6
CONTINUOUS
 10
29.6378321098
 20
20.0305300132
 11
29.6378321098
 21
19.7977096725
  0
LINE
  5
305
100
AcDbEntity
  8
0
100
AcDbLine
 62
9
  6
CONTINUOUS
 10
28.5867441214
 20
18.3662974685
 11
27.1056063257
 21
17.5111621134
  0
LINE
  5
306
100
AcDbEntity
  8
0
100
AcDbLine
 62
9
  6
CONTINUOUS
 10
30.5543974064
 20
20.1146872575
 11
31.3862614009
 21
19.6344103563
  0
LINE
  5
307
100
AcDbEntity
  8
0
100
AcDbLine
 62
7
  6
CONTINUOUS
 10
31.3962614009
 20
19.6354009328
 11
30.5609009098
 21
20.1176965372
  0
LINE
  5
308
100
AcDbEntity
  8
0
100
AcDbLine
 62
9
  6
CONTINUOUS
 10
29.9861899741
 20
18.8097488096
 11
29.9861899741
 21
18.4994801088
  0
LINE
  5
309
100
AcDbEntity
  8
0
100
AcDbLine
 62
9
  6
CONTINUOUS
 10
30.0144742454
 20
18.8097488096
 11
30.0144742454
 21
18.4994801088
  0
LINE
  5
30A
100
AcDbEntity
  8
0
100
AcDbLine
 62
9
  6
CONTINUOUS
 10
31.7368717139
 20
19.4744197233
 11
31.7368609992
 21
19.4744135044
  0
LINE
  5
30B
100
AcDbEntity
  8
0
100
AcDbLine
 62
9
  6
CONTINUOUS
 10
32.6588948448
 20
20.0067500012
 11
32.6589247
 21
20.0067672626
  0
LINE
  5
30C
100
AcDbEntity
  8
0
100
AcDbLine
 62
9
  6
CONTINUOUS
 10
31.7013301023
 20
19.6562186573
 11
32.6120568216
 21
20.1824321113
  0
LINE
  5
30D
100
AcDbEntity
  8
0
100
AcDbLine
 62
7
  6
CONTINUOUS
 10
28.6156740997
 20
18.0479566279
 11
27.091296323
 21
17.1678567082
  0
LINE
  5
30E
100
AcDbEntity
  8
0
100
AcDbLine
 62
9
  6
CONTINUOUS
 10
31.3862614009
 20
19.6344103563
 11
30.0003321098
 21
18.834243707
  0
LINE
  5
30F
100
AcDbEntity
  8
0
100
AcDbLine
 62
9
  6
CONTINUOUS
 10
25.7294071514
 20
16.3684240326
 11
24.3434778603
 21
15.5682573833
  0
LINE
  5
310
100
AcDbEntity
  8
0
100
AcDbLine
 62
9
  6
CONTINUOUS
 10
31.4004035365
 20
19.6099154589
 11
30.0144742454
 21
18.8097488096
  0
LINE
  5
311
100
AcDbEntity
  8
0
100
AcDbLine
 62
9
  6
CONTINUOUS
 10
25.743549287
 20
16.3439291352
 11
24.3576199959
 21
15.5437624859
  0
LINE
  5
312
100
AcDbEntity
  8
0
100
AcDbLine
 62
9
  6
CONTINUOUS
 10
27.171904985
 20
16.9971263999
 11
28.9113876667
 21
18.0014171945
  0
LINE
  5
313
100
AcDbEntity
  8
0
100
AcDbLine
 62
9
  6
CONTINUOUS
 10
28.9255298023
 20
17.976922297
 11
27.1860471206
 21
16.9726315025
  0
LINE
  5
314
100
AcDbEntity
  8
0
100
AcDbLine
 62
7
  6
CONTINUOUS
 10
31.4004035365
 20
19.2996467581
 11
30.0144742454
 21
18.4994801088
  0
LINE
  5
315
100
AcDbEntity
  8
0
100
AcDbLine
 62
7
  6
CONTINUOUS
 10
25.743549287
 20
16.0336604344
 11
24.3576199959
 21
15.2334937851
  0
LINE
  5
316
100
AcDbEntity
  8
0
100
AcDbLine
 62
9
  6
CONTINUOUS
 10
32.6621594063
 20
20.0221269456
 11
31.7401050608
 21
19.489778621
  0
LINE
  5
317
100
AcDbEntity
  8
0
100
AcDbLine
 62
7
  6
CONTINUOUS
 10
32.6589060383
 20
20.0067564489
 11
31.7368531671
 21
19.4744089755
  0
LINE
  5
318
100
AcDbEntity
  8
0
100
AcDbLine
 62
7
  6
CONTINUOUS
 10
30.3628321098
 20
20.0320012033
 11
30.3628321098
 21
19.7977096725
  0
LINE
  5
319
100
AcDbEntity
  8
0
100
AcDbLine
 62
7
  6
CONTINUOUS
 10
30.4403321098
 20
19.7977096725
 11
30.4403321098
 21
19.6344103563
  0
LINE
  5
31A
100
AcDbEntity
  8
0
100
AcDbLine
 62
7
  6
CONTINUOUS
 10
27.1860471206
 20
16.6623628017
 11
28.9255298023
 21
17.6666535963
  0
LINE
  5
31B
100
AcDbEntity
  8
0
100
AcDbLine
 62
7
  6
CONTINUOUS
 10
31.3586712297
 20
19.9988154689
 11
31.6691481786
 21
19.6526716239
  0
LINE
  5
31C
100
AcDbEntity
  8
0
100
AcDbLine
 62
7
  6
CONTINUOUS
 10
31.7077963947
 20
19.4863154076
 11
31.4194571248
 21
19.8389933628
  0
LINE
  5
31D
100
AcDbEntity
  8
0
100
AcDbLine
 62
7
  6
CONTINUOUS
 10
31.7113260302
 20
19.479095492
 11
31.4222643018
 21
19.8341348264
  0
LINE
  5
31E
100
AcDbEntity
  8
0
100
AcDbLine
 62
9
  6
CONTINUOUS
 10
31.7113196524
 20
19.4791033301
 11
31.711143862
 21
19.479323057
  0
LINE
  5
31F
100
AcDbEntity
  8
0
100
AcDbLine
 62
7
  6
CONTINUOUS
 10
31.711143862
 20
19.479323057
 11
31.7095566559
 21
19.4817180206
  0
LINE
  5
320
100
AcDbEntity
  8
0
100
AcDbLine
 62
9
  6
CONTINUOUS
 10
31.3582888046
 20
19.9994218423
 11
31.3587007977
 21
19.9987823966
  0
LINE
  5
321
100
AcDbEntity
  8
0
100
AcDbLine
 62
9
  6
CONTINUOUS
 10
31.4190909266
 20
19.8396506504
 11
31.422260126
 21
19.8341399573
  0
LINE
  5
322
100
AcDbEntity
  8
0
100
AcDbLine
 62
9
  6
CONTINUOUS
 10
31.4004035365
 20
19.6099154589
 11
31.4004035365
 21
19.2996467581
  0
LINE
  5
323
100
AcDbEntity
  8
0
100
AcDbLine
 62
7
  6
CONTINUOUS
 10
31.4062614009
 20
19.6180804247
 11
31.4062614009
 21
19.3078117239
  0
LINE
  5
324
100
AcDbEntity
  8
0
100
AcDbLine
 62
9
  6
CONTINUOUS
 10
31.7095566559
 20
19.4817180206
 11
31.7077963947
 21
19.4863154076
  0
LINE
  5
325
100
AcDbEntity
  8
0
100
AcDbLine
 62
7
  6
CONTINUOUS
 10
31.3582890697
 20
19.9994211453
 11
31.4190909266
 21
19.8396506503
  0
LINE
  5
326
100
AcDbEntity
  8
0
100
AcDbLine
 62
9
  6
CONTINUOUS
 10
31.4194653353
 20
19.8389968832
 11
31.4190909266
 21
19.8396506503
  0
LINE
  5
327
100
AcDbEntity
  8
0
100
AcDbLine
 62
7
  6
CONTINUOUS
 10
31.7401050608
 20
19.489778621
 11
31.7013301023
 21
19.6562186573
  0
LINE
  5
328
100
AcDbEntity
  8
0
100
AcDbLine
 62
9
  6
CONTINUOUS
 10
31.707814355
 20
19.4863198382
 11
31.6691475609
 21
19.6526714329
  0
LWPOLYLINE
  5
329
100
AcDbEntity
  8
0
100
AcDbPolyline
 62
7
  6
CONTINUOUS
 90
15
 70
0
 10
32.6177652114
 20
20.190679798
 10
32.3955970648
 20
20.8425086701
 10
32.1575333202
 20
21.4362835707
 10
31.91053521
 20
21.9640608336
 10
31.6524365657
 20
22.4379411298
 10
31.3784763554
 20
22.868101206
 10
31.0829544087
 20
23.2599002105
 10
30.768814216
 20
23.6039687115
 10
30.4462629001
 20
23.8870423187
 10
30.1282740595
 20
24.1010068297
 10
29.8181916915
 20
24.2492644566
 10
29.5081890239
 20
24.3375257494
 10
29.1924632192
 20
24.3633206311
 10
28.8759698949
 20
24.3194407438
 10
28.5693034011
 20
24.2031902325
  0
LINE
  5
32A
100
AcDbEntity
  8
0
100
AcDbLine
 62
7
  6
CONTINUOUS
 10
32.6177632664
 20
20.190687016
 11
32.6679957954
 21
20.030045815
  0
LINE
  5
32B
100
AcDbEntity
  8
0
100
AcDbLine
 62
7
  6
CONTINUOUS
 10
32.6120568216
 20
20.1824321113
 11
32.6621594063
 21
20.0221269456
  0
ARC
  5
32C
100
AcDbEntity
  8
0
100
AcDbCircle
 62
7
  6
CONTINUOUS
 10
8.6428457106
 20
5.3586657758
 40
1.165
100
AcDbArc
 50
180.0
 51
251.8709210687
  0
ARC
  5
32D
100
AcDbEntity
  8
0
100
AcDbCircle
 62
7
  6
CONTINUOUS
 10
8.6428457106
 20
5.3586657758
 40
1.165
100
AcDbArc
 50
288.1290789313
 51
360.0
  0
ARC
  5
32E
100
AcDbEntity
  8
0
100
AcDbCircle
 62
7
  6
CONTINUOUS
 10
8.6428457106
 20
5.3586657758
 40
0.495
100
AcDbArc
 50
0.0
 51
180.0
  0
ARC
  5
32F
100
AcDbEntity
  8
0
100
AcDbCircle
 62
7
  6
CONTINUOUS
 10
11.4128457106
 20
3.4986657758
 40
0.02
100
AcDbArc
 50
90.0
 51
180.0
  0
ARC
  5
330
100
AcDbEntity
  8
0
100
AcDbCircle
 62
7
  6
CONTINUOUS
 10
7.6628457106
 20
3.4986657758
 40
0.02
100
AcDbArc
 50
90.0
 51
180.0
  0
ARC
  5
331
100
AcDbEntity
  8
0
100
AcDbCircle
 62
7
  6
CONTINUOUS
 10
9.6228457106
 20
3.4986657758
 40
0.02
100
AcDbArc
 50
0.0
 51
90.0
  0
ARC
  5
332
100
AcDbEntity
  8
0
100
AcDbCircle
 62
9
  6
CONTINUOUS
 10
10.6293654674
 20
9.2057627819
 40
2.6654731537
100
AcDbArc
 50
359.8371738
 51
0.0824465219
  0
ARC
  5
333
100
AcDbEntity
  8
0
100
AcDbCircle
 62
7
  6
CONTINUOUS
 10
11.9907858401
 20
9.2166884207
 40
0.0199138871
100
AcDbArc
 50
204.5650164882
 51
237.1177601978
  0
ARC
  5
334
100
AcDbEntity
  8
0
100
AcDbCircle
 62
7
  6
CONTINUOUS
 10
16.6428457106
 20
5.3586657758
 40
1.165
100
AcDbArc
 50
180.0
 51
251.8709210687
  0
ARC
  5
335
100
AcDbEntity
  8
0
100
AcDbCircle
 62
7
  6
CONTINUOUS
 10
16.6428457106
 20
5.3586657758
 40
1.165
100
AcDbArc
 50
288.1290789313
 51
360.0
  0
ARC
  5
336
100
AcDbEntity
  8
0
100
AcDbCircle
 62
7
  6
CONTINUOUS
 10
16.6428457106
 20
5.3586657758
 40
0.495
100
AcDbArc
 50
0.0
 51
180.0
  0
ARC
  5
337
100
AcDbEntity
  8
0
100
AcDbCircle
 62
7
  6
CONTINUOUS
 10
13.8728457106
 20
3.4986657758
 40
0.02
100
AcDbArc
 50
0.0
 51
90.0
  0
ARC
  5
338
100
AcDbEntity
  8
0
100
AcDbCircle
 62
7
  6
CONTINUOUS
 10
17.6228457106
 20
3.4986657758
 40
0.02
100
AcDbArc
 50
0.0
 51
90.0
  0
ARC
  5
339
100
AcDbEntity
  8
0
100
AcDbCircle
 62
7
  6
CONTINUOUS
 10
15.6628457106
 20
3.4986657758
 40
0.02
100
AcDbArc
 50
90.0
 51
180.0
  0
ARC
  5
33A
100
AcDbEntity
  8
0
100
AcDbCircle
 62
7
  6
CONTINUOUS
 10
13.2949056506
 20
9.2166883147
 40
0.0199137734
100
AcDbArc
 50
302.8786446091
 51
335.4171942037
  0
ARC
  5
33B
100
AcDbEntity
  8
0
100
AcDbCircle
 62
7
  6
CONTINUOUS
 10
13.914234372
 20
3.4327614359
 40
18.8207978809
100
AcDbArc
 50
1.4793971191
 51
3.709231139
  0
ARC
  5
33C
100
AcDbEntity
  8
0
100
AcDbCircle
 62
9
  6
CONTINUOUS
 10
13.9372087272
 20
3.4217869201
 40
18.7878833916
100
AcDbArc
 50
1.5121375968
 51
3.6633215968
  0
ARC
  5
33D
100
AcDbEntity
  8
0
100
AcDbCircle
 62
7
  6
CONTINUOUS
 10
14.8975230405
 20
4.329986558
 40
15.9294514437
100
AcDbArc
 50
358.5203964134
 51
1.3474197253
  0
ARC
  5
33E
100
AcDbEntity
  8
0
100
AcDbCircle
 62
7
  6
CONTINUOUS
 10
14.929557945
 20
4.3185377609
 40
15.926732334
100
AcDbArc
 50
358.5613121865
 51
1.2108853596
  0
ARC
  5
33F
100
AcDbEntity
  8
0
100
AcDbCircle
 62
7
  6
CONTINUOUS
 10
22.8017032981
 20
10.1837693156
 40
3.2815729676
100
AcDbArc
 50
335.299398638
 51
336.6203281305
  0
ARC
  5
340
100
AcDbEntity
  8
0
100
AcDbCircle
 62
7
  6
CONTINUOUS
 10
23.2678887281
 20
9.9695246959
 40
2.7685139265
100
AcDbArc
 50
334.5265852705
 51
335.2959644795
  0
ARC
  5
341
100
AcDbEntity
  8
0
100
AcDbCircle
 62
7
  6
CONTINUOUS
 10
24.9175591559
 20
3.5229882696
 40
7.8188167974
100
AcDbArc
 50
359.9683250455
 51
1.5180634613
  0
ARC
  5
342
100
AcDbEntity
  8
0
100
AcDbCircle
 62
7
  6
CONTINUOUS
 10
31.7752254093
 20
5.3586657758
 40
1.165
100
AcDbArc
 50
288.1290789313
 51
360.0
  0
ARC
  5
343
100
AcDbEntity
  8
0
100
AcDbCircle
 62
7
  6
CONTINUOUS
 10
31.7752254093
 20
5.3586657758
 40
1.165
100
AcDbArc
 50
180.0
 51
251.8709210687
  0
ARC
  5
344
100
AcDbEntity
  8
0
100
AcDbCircle
 62
7
  6
CONTINUOUS
 10
31.7752254093
 20
5.3586657758
 40
0.495
100
AcDbArc
 50
0.0
 51
180.0
  0
ARC
  5
345
100
AcDbEntity
  8
0
100
AcDbCircle
 62
7
  6
CONTINUOUS
 10
33.0052254093
 20
3.4986657758
 40
0.02
100
AcDbArc
 50
0.0
 51
90.0
  0
ARC
  5
346
100
AcDbEntity
  8
0
100
AcDbCircle
 62
7
  6
CONTINUOUS
 10
30.5452254093
 20
3.4986657758
 40
0.02
100
AcDbArc
 50
90.0
 51
180.0
  0
ARC
  5
347
100
AcDbEntity
  8
0
100
AcDbCircle
 62
7
  6
CONTINUOUS
 10
32.7552254093
 20
3.4986657758
 40
0.02
100
AcDbArc
 50
0.0
 51
90.0
  0
ARC
  5
348
100
AcDbEntity
  8
0
100
AcDbCircle
 62
7
  6
CONTINUOUS
 10
30.7952254093
 20
3.4986657758
 40
0.02
100
AcDbArc
 50
90.0
 51
180.0
  0
ARC
  5
349
100
AcDbEntity
  8
0
100
AcDbCircle
 62
9
  6
CONTINUOUS
 10
24.5465659814
 20
8.8532337292
 40
0.3886521834
100
AcDbArc
 50
68.1588945955
 51
69.6321930798
  0
ARC
  5
34A
100
AcDbEntity
  8
0
100
AcDbCircle
 62
7
  6
CONTINUOUS
 10
25.7596287318
 20
8.8481747781
 40
0.0803812989
100
AcDbArc
 50
248.070940424
 51
252.7604099223
  0
ARC
  5
34B
100
AcDbEntity
  8
0
100
AcDbCircle
 62
9
  6
CONTINUOUS
 10
24.6536844209
 20
9.2279700999
 40
0.0400041146
100
AcDbArc
 50
334.3405345787
 51
339.5387577389
  0
ARC
  5
34C
100
AcDbEntity
  8
0
100
AcDbCircle
 62
7
  6
CONTINUOUS
 10
24.6815657634
 20
9.216743007
 40
0.02
100
AcDbArc
 50
159.5679531419
 51
248.0875107042
  0
ARC
  5
34D
100
AcDbEntity
  8
0
100
AcDbCircle
 62
7
  6
CONTINUOUS
 10
25.750961392
 20
8.7865785048
 40
0.0180573127
100
AcDbArc
 50
287.2537612366
 51
334.5129459735
  0
ARC
  5
34E
100
AcDbEntity
  8
0
100
AcDbCircle
 62
7
  6
CONTINUOUS
 10
-275.0359913638
 20
8.0990903835
 40
288.3278493538
100
AcDbArc
 50
2.2650406392
 51
2.4798987983
  0
ARC
  5
34F
100
AcDbEntity
  8
0
100
AcDbCircle
 62
7
  6
CONTINUOUS
 10
-99.9891521311
 20
15.6234294616
 40
113.1391325858
100
AcDbArc
 50
2.5084496563
 51
2.8916623867
  0
ARC
  5
350
100
AcDbEntity
  8
0
100
AcDbCircle
 62
7
  6
CONTINUOUS
 10
-90.4803945708
 20
16.1181490838
 40
103.5981109099
100
AcDbArc
 50
2.4783620736
 51
2.8845797167
  0
ARC
  5
351
100
AcDbEntity
  8
0
100
AcDbCircle
 62
7
  6
CONTINUOUS
 10
11.9908566099
 20
15.9729166604
 40
0.0200002364
100
AcDbArc
 50
172.7813548507
 51
269.9651428702
  0
ARC
  5
352
100
AcDbEntity
  8
0
100
AcDbCircle
 62
7
  6
CONTINUOUS
 10
-12.9529990095
 20
24.0520619948
 40
26.3913404979
100
AcDbArc
 50
350.7248927244
 51
351.0488432811
  0
ARC
  5
353
100
AcDbEntity
  8
0
100
AcDbCircle
 62
7
  6
CONTINUOUS
 10
-11.6503028748
 20
23.8402788938
 40
25.0715418938
100
AcDbArc
 50
350.5820804356
 51
350.7227264745
  0
CIRCLE
  5
354
100
AcDbEntity
  8
0
100
AcDbCircle
 62
7
  6
CONTINUOUS
 10
8.6428457106
 20
23.0665749717
 40
1.165
  0
CIRCLE
  5
355
100
AcDbEntity
  8
0
100
AcDbCircle
 62
7
  6
CONTINUOUS
 10
8.6428457106
 20
23.0665749717
 40
0.98
  0
ARC
  5
356
100
AcDbEntity
  8
0
100
AcDbCircle
 62
7
  6
CONTINUOUS
 10
12.1338525705
 20
23.6867380516
 40
0.6307776266
100
AcDbArc
 50
20.1809678186
 51
21.4791303327
  0
ARC
  5
357
100
AcDbEntity
  8
0
100
AcDbCircle
 62
7
  6
CONTINUOUS
 10
12.2207886266
 20
23.7211886852
 40
0.5372647164
100
AcDbArc
 50
21.4550966185
 51
23.014078174
  0
CIRCLE
  5
358
100
AcDbEntity
  8
0
100
AcDbCircle
 62
7
  6
CONTINUOUS
 10
8.6428457106
 20
23.0665749717
 40
0.495
  0
ARC
  5
359
100
AcDbEntity
  8
0
100
AcDbCircle
 62
7
  6
CONTINUOUS
 10
12.292591425
 20
23.7518223233
 40
0.4592003599
100
AcDbArc
 50
22.9986508827
 51
24.4626674958
  0
ARC
  5
35A
100
AcDbEntity
  8
0
100
AcDbCircle
 62
7
  6
CONTINUOUS
 10
11.4128457106
 20
21.8365749717
 40
0.02
100
AcDbArc
 50
180.0
 51
270.0
  0
ARC
  5
35B
100
AcDbEntity
  8
0
100
AcDbCircle
 62
7
  6
CONTINUOUS
 10
11.4128457106
 20
24.2965749717
 40
0.02
100
AcDbArc
 50
90.0
 51
180.0
  0
ARC
  5
35C
100
AcDbEntity
  8
0
100
AcDbCircle
 62
7
  6
CONTINUOUS
 10
7.6628457106
 20
22.0865749717
 40
0.02
100
AcDbArc
 50
180.0
 51
270.0
  0
ARC
  5
35D
100
AcDbEntity
  8
0
100
AcDbCircle
 62
7
  6
CONTINUOUS
 10
9.6228457106
 20
22.0865749717
 40
0.02
100
AcDbArc
 50
270.0
 51
360.0
  0
ARC
  5
35E
100
AcDbEntity
  8
0
100
AcDbCircle
 62
7
  6
CONTINUOUS
 10
9.6228457106
 20
24.0465749717
 40
0.02
100
AcDbArc
 50
0.0
 51
90.0
  0
ARC
  5
35F
100
AcDbEntity
  8
0
100
AcDbCircle
 62
7
  6
CONTINUOUS
 10
7.6628457106
 20
24.0465749717
 40
0.02
100
AcDbArc
 50
90.0
 51
180.0
  0
ARC
  5
360
100
AcDbEntity
  8
0
100
AcDbCircle
 62
7
  6
CONTINUOUS
 10
300.0898401606
 20
8.1094986099
 40
288.0957745621
100
AcDbArc
 50
177.5201966816
 51
177.7349391454
  0
ARC
  5
361
100
AcDbEntity
  8
0
100
AcDbCircle
 62
7
  6
CONTINUOUS
 10
119.4577061018
 20
15.9473622779
 40
107.2936653563
100
AcDbArc
 50
177.1625804101
 51
177.516589568
  0
ARC
  5
362
100
AcDbEntity
  8
0
100
AcDbCircle
 62
7
  6
CONTINUOUS
 10
117.3588554838
 20
15.9984249289
 40
105.2143214624
100
AcDbArc
 50
177.1269007438
 51
177.5069239164
  0
ARC
  5
363
100
AcDbEntity
  8
0
100
AcDbCircle
 62
7
  6
CONTINUOUS
 10
13.2948348178
 20
15.9729166546
 40
0.0200002269
100
AcDbArc
 50
270.0346232499
 51
7.218663826
  0
ARC
  5
364
100
AcDbEntity
  8
0
100
AcDbCircle
 62
9
  6
CONTINUOUS
 10
13.6900753181
 20
22.1330462453
 40
0.0200344838
100
AcDbArc
 50
270.2262922533
 51
28.6806097639
  0
ARC
  5
365
100
AcDbEntity
  8
0
100
AcDbCircle
 62
7
  6
CONTINUOUS
 10
13.8728457106
 20
21.8365749717
 40
0.02
100
AcDbArc
 50
270.0
 51
360.0
  0
ARC
  5
366
100
AcDbEntity
  8
0
100
AcDbCircle
 62
7
  6
CONTINUOUS
 10
17.6228457106
 20
22.0865749717
 40
0.02
100
AcDbArc
 50
270.0
 51
360.0
  0
ARC
  5
367
100
AcDbEntity
  8
0
100
AcDbCircle
 62
7
  6
CONTINUOUS
 10
15.6628457106
 20
22.0865749717
 40
0.02
100
AcDbArc
 50
180.0
 51
270.0
  0
CIRCLE
  5
368
100
AcDbEntity
  8
0
100
AcDbCircle
 62
7
  6
CONTINUOUS
 10
16.6428457106
 20
23.0665749717
 40
1.165
  0
CIRCLE
  5
369
100
AcDbEntity
  8
0
100
AcDbCircle
 62
7
  6
CONTINUOUS
 10
16.6428457106
 20
23.0665749717
 40
0.98
  0
ARC
  5
36A
100
AcDbEntity
  8
0
100
AcDbCircle
 62
7
  6
CONTINUOUS
 10
13.1442928295
 20
23.6896376021
 40
0.6226921981
100
AcDbArc
 50
158.4809724972
 51
159.5880747179
  0
ARC
  5
36B
100
AcDbEntity
  8
0
100
AcDbCircle
 62
7
  6
CONTINUOUS
 10
13.064430657
 20
23.7213767877
 40
0.5367545477
100
AcDbArc
 50
156.9824800101
 51
158.5057984035
  0
CIRCLE
  5
36C
100
AcDbEntity
  8
0
100
AcDbCircle
 62
7
  6
CONTINUOUS
 10
16.6428457106
 20
23.0665749717
 40
0.495
  0
ARC
  5
36D
100
AcDbEntity
  8
0
100
AcDbCircle
 62
7
  6
CONTINUOUS
 10
12.9936789761
 20
23.7515705321
 40
0.4598296214
100
AcDbArc
 50
155.5441492117
 51
156.9980654917
  0
ARC
  5
36E
100
AcDbEntity
  8
0
100
AcDbCircle
 62
9
  6
CONTINUOUS
 10
12.6338630024
 20
23.9997948843
 40
0.0203134692
100
AcDbArc
 50
89.9545565828
 51
118.0973244019
  0
ARC
  5
36F
100
AcDbEntity
  8
0
100
AcDbCircle
 62
7
  6
CONTINUOUS
 10
15.6628457106
 20
24.0465749717
 40
0.02
100
AcDbArc
 50
90.0
 51
180.0
  0
ARC
  5
370
100
AcDbEntity
  8
0
100
AcDbCircle
 62
7
  6
CONTINUOUS
 10
17.6228457106
 20
24.0465749717
 40
0.02
100
AcDbArc
 50
0.0
 51
90.0
  0
ARC
  5
371
100
AcDbEntity
  8
0
100
AcDbCircle
 62
7
  6
CONTINUOUS
 10
13.8728457106
 20
24.2965749717
 40
0.02
100
AcDbArc
 50
0.0
 51
90.0
  0
ARC
  5
372
100
AcDbEntity
  8
0
100
AcDbCircle
 62
9
  6
CONTINUOUS
 10
12.6519336595
 20
24.0004261239
 40
0.0196736805
100
AcDbArc
 50
61.3324227798
 51
90.1713777176
  0
ARC
  5
373
100
AcDbEntity
  8
0
100
AcDbCircle
 62
7
  6
CONTINUOUS
 10
37.277727403
 20
23.8956231153
 40
25.4176803514
100
AcDbArc
 50
189.037600597
 51
189.4172058312
  0
ARC
  5
374
100
AcDbEntity
  8
0
100
AcDbCircle
 62
7
  6
CONTINUOUS
 10
20.9571700072
 20
16.0593712162
 40
11.1225358674
100
AcDbArc
 50
20.7433700484
 51
24.4174353846
  0
ARC
  5
375
100
AcDbEntity
  8
0
100
AcDbCircle
 62
7
  6
CONTINUOUS
 10
22.2371607707
 20
16.6259013938
 40
9.7228460894
100
AcDbArc
 50
24.495610731
 51
24.7637459611
  0
ARC
  5
376
100
AcDbEntity
  8
0
100
AcDbCircle
 62
7
  6
CONTINUOUS
 10
22.7603955366
 20
16.8687169941
 40
9.1460166554
100
AcDbArc
 50
24.7555042316
 51
26.5897884941
  0
ARC
  5
377
100
AcDbEntity
  8
0
100
AcDbCircle
 62
7
  6
CONTINUOUS
 10
23.4078179366
 20
17.1881860576
 40
8.4240762544
100
AcDbArc
 50
26.6177150314
 51
26.9727012174
  0
ARC
  5
378
100
AcDbEntity
  8
0
100
AcDbCircle
 62
7
  6
CONTINUOUS
 10
23.9148592386
 20
17.4479179134
 40
7.854384146
100
AcDbArc
 50
26.961742487
 51
29.094429224
  0
ARC
  5
379
100
AcDbEntity
  8
0
100
AcDbCircle
 62
7
  6
CONTINUOUS
 10
24.5916425801
 20
17.8182428223
 40
7.0829291454
100
AcDbArc
 50
29.1388317372
 51
29.318215198
  0
ARC
  5
37A
100
AcDbEntity
  8
0
100
AcDbCircle
 62
7
  6
CONTINUOUS
 10
24.3434803522
 20
17.8707820577
 40
1.1650024919
100
AcDbArc
 50
180.0002122722
 51
359.9979771963
  0
CIRCLE
  5
37B
100
AcDbEntity
  8
0
100
AcDbCircle
 62
7
  6
CONTINUOUS
 10
24.343478004
 20
17.8707765781
 40
0.4949983976
  0
ARC
  5
37C
100
AcDbEntity
  8
0
100
AcDbCircle
 62
9
  6
CONTINUOUS
 10
22.9742712243
 20
16.3419825864
 40
0.0310616836
100
AcDbArc
 50
158.8539144199
 51
162.9275624849
  0
ARC
  5
37D
100
AcDbEntity
  8
0
100
AcDbCircle
 62
9
  6
CONTINUOUS
 10
25.7122997111
 20
16.3426734332
 40
0.0310496483
100
AcDbArc
 50
38.7905289432
 51
43.9189237109
  0
ARC
  5
37E
100
AcDbEntity
  8
0
100
AcDbCircle
 62
9
  6
CONTINUOUS
 10
28.8943458068
 20
17.9757283403
 40
0.0309599802
100
AcDbArc
 50
39.032590723
 51
43.9184291449
  0
ARC
  5
37F
100
AcDbEntity
  8
0
100
AcDbCircle
 62
7
  6
CONTINUOUS
 10
22.9575485691
 20
16.352094101
 40
0.02
100
AcDbArc
 50
121.5197088471
 51
178.4805038318
  0
ARC
  5
380
100
AcDbEntity
  8
0
100
AcDbCircle
 62
7
  6
CONTINUOUS
 10
28.9114618087
 20
17.9851071152
 40
0.0199259644
100
AcDbArc
 50
0.0081488394
 51
30.3131267277
  0
ARC
  5
381
100
AcDbEntity
  8
0
100
AcDbCircle
 62
7
  6
CONTINUOUS
 10
25.7294614156
 20
16.3521483841
 40
0.0199259637
100
AcDbArc
 50
29.6868729991
 51
59.9919935704
  0
ARC
  5
382
100
AcDbEntity
  8
0
100
AcDbCircle
 62
7
  6
CONTINUOUS
 10
29.0185928486
 20
22.205366981
 40
2.1902301652
100
AcDbArc
 50
63.5709893492
 51
65.4142658889
  0
ARC
  5
383
100
AcDbEntity
  8
0
100
AcDbCircle
 62
7
  6
CONTINUOUS
 10
29.1723927073
 20
22.6073180383
 40
1.7594174648
100
AcDbArc
 50
71.6633406325
 51
76.5299763964
  0
ARC
  5
384
100
AcDbEntity
  8
0
100
AcDbCircle
 62
7
  6
CONTINUOUS
 10
29.3148654092
 20
22.7350783372
 40
1.6465418638
100
AcDbArc
 50
118.246225611
 51
120.0043338056
  0
ARC
  5
385
100
AcDbEntity
  8
0
100
AcDbCircle
 62
7
  6
CONTINUOUS
 10
29.2031319345
 20
22.7385710921
 40
1.6246147814
100
AcDbArc
 50
76.5059949802
 51
81.0718522832
  0
ARC
  5
386
100
AcDbEntity
  8
0
100
AcDbCircle
 62
7
  6
CONTINUOUS
 10
29.2921889375
 20
22.7772386242
 40
1.598670039
100
AcDbArc
 50
115.8682808033
 51
118.2453885979
  0
ARC
  5
387
100
AcDbEntity
  8
0
100
AcDbCircle
 62
7
  6
CONTINUOUS
 10
29.2204066097
 20
22.8580635881
 40
1.5038898592
100
AcDbArc
 50
81.0154912902
 51
89.5929170085
  0
ARC
  5
388
100
AcDbEntity
  8
0
100
AcDbCircle
 62
7
  6
CONTINUOUS
 10
29.2222577238
 20
22.930316277
 40
1.4316264671
100
AcDbArc
 50
89.6464545552
 51
92.0915040773
  0
ARC
  5
389
100
AcDbEntity
  8
0
100
AcDbCircle
 62
7
  6
CONTINUOUS
 10
29.2238270617
 20
22.9463013373
 40
1.415958983
100
AcDbArc
 50
103.3233360299
 51
104.5673154437
  0
ARC
  5
38A
100
AcDbEntity
  8
0
100
AcDbCircle
 62
7
  6
CONTINUOUS
 10
29.2206916974
 20
22.9599603679
 40
1.4019450548
100
AcDbArc
 50
92.0717601057
 51
103.3272877885
  0
ARC
  5
38B
100
AcDbEntity
  8
0
100
AcDbCircle
 62
7
  6
CONTINUOUS
 10
28.6861457508
 20
22.736114399
 40
1.3313109333
100
AcDbArc
 50
118.4549188516
 51
119.7042014625
  0
ARC
  5
38C
100
AcDbEntity
  8
0
100
AcDbCircle
 62
9
  6
CONTINUOUS
 10
28.6753327285
 20
22.7159099788
 40
1.326023129
100
AcDbArc
 50
118.9018556667
 51
119.2065043851
  0
ARC
  5
38D
100
AcDbEntity
  8
0
100
AcDbCircle
 62
7
  6
CONTINUOUS
 10
30.0003392061
 20
21.1367589962
 40
1.1649896694
100
AcDbArc
 50
180.0002122722
 51
337.0914090651
  0
CIRCLE
  5
38E
100
AcDbEntity
  8
0
100
AcDbCircle
 62
7
  6
CONTINUOUS
 10
30.0003322535
 20
21.1367629018
 40
0.4949983976
  0
ARC
  5
38F
100
AcDbEntity
  8
0
100
AcDbCircle
 62
9
  6
CONTINUOUS
 10
28.6311254738
 20
19.6079689101
 40
0.0310616836
100
AcDbArc
 50
158.8539144201
 51
162.9275624848
  0
ARC
  5
390
100
AcDbEntity
  8
0
100
AcDbCircle
 62
7
  6
CONTINUOUS
 10
28.6144028186
 20
19.6180804247
 40
0.02
100
AcDbArc
 50
121.5197088471
 51
178.4805038318
  0
ARC
  5
391
100
AcDbEntity
  8
0
100
AcDbCircle
 62
9
  6
CONTINUOUS
 10
41.155906616
 20
18.997405653
 40
14.6726244548
100
AcDbArc
 50
177.1382226654
 51
181.1534029033
  0
ARC
  5
392
100
AcDbEntity
  8
0
100
AcDbCircle
 62
9
  6
CONTINUOUS
 10
39.9234314536
 20
19.0478803052
 40
13.4391708998
100
AcDbArc
 50
176.3109712893
 51
177.0908071433
  0
ARC
  5
393
100
AcDbEntity
  8
0
100
AcDbCircle
 62
9
  6
CONTINUOUS
 10
38.6949154691
 20
19.1359107698
 40
12.2075396403
100
AcDbArc
 50
172.9292763314
 51
176.3522919084
  0
ARC
  5
394
100
AcDbEntity
  8
0
100
AcDbCircle
 62
9
  6
CONTINUOUS
 10
37.4564425501
 20
19.2802482336
 40
10.9607220854
100
AcDbArc
 50
171.9266987085
 51
172.8811357704
  0
ARC
  5
395
100
AcDbEntity
  8
0
100
AcDbCircle
 62
9
  6
CONTINUOUS
 10
36.1757820363
 20
19.4714291881
 40
9.6659091013
100
AcDbArc
 50
168.1852857778
 51
171.9825983971
  0
ARC
  5
396
100
AcDbEntity
  8
0
100
AcDbCircle
 62
7
  6
CONTINUOUS
 10
31.726834884
 20
19.4916981009
 40
0.0199642455
100
AcDbArc
 50
218.2018839215
 51
299.9945218009
  0
ARC
  5
397
100
AcDbEntity
  8
0
100
AcDbCircle
 62
9
  6
CONTINUOUS
 10
35.0414414985
 20
19.6985506315
 40
8.5091030279
100
AcDbArc
 50
167.2706938254
 51
168.1183317158
  0
ARC
  5
398
100
AcDbEntity
  8
0
100
AcDbCircle
 62
9
  6
CONTINUOUS
 10
32.2113019859
 20
20.8540904692
 40
3.536741388
100
AcDbArc
 50
158.7873805697
 51
159.9617259589
  0
ARC
  5
399
100
AcDbEntity
  8
0
100
AcDbCircle
 62
9
  6
CONTINUOUS
 10
31.7816986233
 20
21.025102429
 40
3.0743715116
100
AcDbArc
 50
155.5295899251
 51
158.8615831028
  0
ARC
  5
39A
100
AcDbEntity
  8
0
100
AcDbCircle
 62
9
  6
CONTINUOUS
 10
31.429449569
 20
21.1850260225
 40
2.6875190709
100
AcDbArc
 50
153.8219060622
 51
155.5221017761
  0
ARC
  5
39B
100
AcDbEntity
  8
0
100
AcDbCircle
 62
9
  6
CONTINUOUS
 10
31.3691539606
 20
19.608659757
 40
0.0310496483
100
AcDbArc
 50
38.7905289432
 51
43.918923711
  0
ARC
  5
39C
100
AcDbEntity
  8
0
100
AcDbCircle
 62
7
  6
CONTINUOUS
 10
31.4378954887
 20
19.8468291443
 40
0.0201281012
100
AcDbArc
 50
200.8940304165
 51
219.0647735687
  0
ARC
  5
39D
100
AcDbEntity
  8
0
100
AcDbCircle
 62
7
  6
CONTINUOUS
 10
31.3863156651
 20
19.6181347078
 40
0.0199259637
100
AcDbArc
 50
29.686872999
 51
59.9919935705
  0
SPLINE
  5
39E
100
AcDbEntity
  8
0
100
AcDbSpline
 62
7
  6
CONTINUOUS
 70
0
 71
3
 72
9
 73
5
 74
0
 42
0.0000001
 43
0.0000001
 44
0.0000000001
 40
0.0
 40
0.0
 40
0.0
 40
0.0
 40
0.7484866179
 40
1.0
 40
1.0
 40
1.0
 40
1.0
 10
13.3148136086
 20
9.2176862048
 30
0.0
 10
13.3149254415
 20
9.215317486
 30
0.0
 10
13.3144861581
 20
9.2120876076
 30
0.0
 10
13.3133455153
 20
9.2091288476
 30
0.0
 10
13.3130144593
 20
9.2084040273
 30
0.0
  0
SPLINE
  5
39F
100
AcDbEntity
  8
0
100
AcDbSpline
 62
7
  6
CONTINUOUS
 70
0
 71
3
 72
9
 73
5
 74
0
 42
0.0000001
 43
0.0000001
 44
0.0000000001
 40
0.0
 40
0.0
 40
0.0
 40
0.0
 40
0.7484884596
 40
1.0
 40
1.0
 40
1.0
 40
1.0
 10
11.9708778127
 20
9.2176862048
 30
0.0
 10
11.9707660521
 20
9.2153190176
 30
0.0
 10
11.9712046351
 20
9.2120912979
 30
0.0
 10
11.9723437421
 20
9.2091341557
 30
0.0
 10
11.9726743568
 20
9.2084097089
 30
0.0
  0
SPLINE
  5
3A0
100
AcDbEntity
  8
0
100
AcDbSpline
 62
7
  6
CONTINUOUS
 70
0
 71
3
 72
36
 73
32
 74
0
 42
0.0000001
 43
0.0000001
 44
0.0000000001
 40
0.0
 40
0.0
 40
0.0
 40
0.0
 40
0.0005102003
 40
0.0011067625
 40
0.0018316167
 40
0.0027082368
 40
0.0049620235
 40
0.0079231081
 40
0.0116083435
 40
0.0160194512
 40
0.0211527501
 40
0.027000831
 40
0.0335542889
 40
0.0408016384
 40
0.0573112206
 40
0.076388692
 40
0.0978869261
 40
0.1216452445
 40
0.1474963388
 40
0.1752759657
 40
0.2048246304
 40
0.2686224124
 40
0.3377775226
 40
0.4113578173
 40
0.4885770167
 40
0.5687932371
 40
0.6514976118
 40
0.7362772488
 40
0.8227918795
 40
0.9107758077
 40
1.0
 40
1.0
 40
1.0
 40
1.0
 10
12.2157091748
 20
12.6424185945
 30
0.0
 10
12.2151578291
 20
12.6423566322
 30
0.0
 10
12.2139859977
 20
12.64196796
 30
0.0
 10
12.2123705518
 20
12.6407684205
 30
0.0
 10
12.2107803033
 20
12.6389686048
 30
0.0
 10
12.2084742477
 20
12.6354562902
 30
0.0
 10
12.2057106516
 20
12.6294048029
 30
0.0
 10
12.2025732027
 20
12.620244772
 30
0.0
 10
12.1994073963
 20
12.6086371652
 30
0.0
 10
12.1962129371
 20
12.5946074743
 30
0.0
 10
12.1929974645
 20
12.5781784883
 30
0.0
 10
12.1897631124
 20
12.5593853799
 30
0.0
 10
12.1865120833
 20
12.538266077
 30
0.0
 10
12.1819581991
 20
12.50562034
 30
0.0
 10
12.1763293782
 20
12.4593782381
 30
0.0
 10
12.1697636479
 20
12.3976477118
 30
0.0
 10
12.1631426223
 20
12.3280006051
 30
0.0
 10
12.1564714559
 20
12.2509623423
 30
0.0
 10
12.1497576837
 20
12.1670734924
 30
0.0
 10
12.1430083279
 20
12.0768720202
 30
0.0
 10
12.1337321046
 20
11.9454803785
 30
0.0
 10
12.1222090467
 20
11.7691432515
 30
0.0
 10
12.1086211593
 20
11.544959916
 30
0.0
 10
12.0949856258
 20
11.3061591795
 30
0.0
 10
12.0813188264
 20
11.055313282
 30
0.0
 10
12.067629197
 20
10.7945325325
 30
0.0
 10
12.0539146332
 20
10.5255205456
 30
0.0
 10
12.0401699847
 20
10.2496522145
 30
0.0
 10
12.0263895112
 20
9.9680374307
 30
0.0
 10
12.0125840381
 20
9.6815849495
 30
0.0
 10
12.0034157636
 20
9.4890984373
 30
0.0
 10
11.9988169648
 20
9.3921807586
 30
0.0
  0
SPLINE
  5
3A1
100
AcDbEntity
  8
0
100
AcDbSpline
 62
7
  6
CONTINUOUS
 70
0
 71
3
 72
11
 73
7
 74
0
 42
0.0000001
 43
0.0000001
 44
0.0000000001
 40
0.0
 40
0.0
 40
0.0
 40
0.0
 40
0.3392196451
 40
0.4710190957
 40
0.6246415899
 40
1.0
 40
1.0
 40
1.0
 40
1.0
 10
13.069534807
 20
12.6424042927
 30
0.0
 10
13.0719697942
 20
12.6424034646
 30
0.0
 10
13.0747812069
 20
12.6393211662
 30
0.0
 10
13.077015032
 20
12.6355739211
 30
0.0
 10
13.0791416819
 20
12.6312902775
 30
0.0
 10
13.0804873473
 20
12.6277468543
 30
0.0
 10
13.081370369
 20
12.6252012587
 30
0.0
  0
SPLINE
  5
3A2
100
AcDbEntity
  8
0
100
AcDbSpline
 62
7
  6
CONTINUOUS
 70
0
 71
3
 72
9
 73
5
 74
0
 42
0.0000001
 43
0.0000001
 44
0.0000000001
 40
0.0
 40
0.0
 40
0.0
 40
0.0
 40
0.439214134
 40
1.0
 40
1.0
 40
1.0
 40
1.0
 10
13.081370369
 20
12.6252012587
 30
0.0
 10
13.0830218113
 20
12.6204404424
 30
0.0
 10
13.0861556128
 20
12.6093876365
 30
0.0
 10
13.088658391
 20
12.5981889467
 30
0.0
 10
13.0899554676
 20
12.5918871436
 30
0.0
  0
SPLINE
  5
3A3
100
AcDbEntity
  8
0
100
AcDbSpline
 62
7
  6
CONTINUOUS
 70
0
 71
3
 72
23
 73
19
 74
0
 42
0.0000001
 43
0.0000001
 44
0.0000000001
 40
0.0
 40
0.0
 40
0.0
 40
0.0
 40
0.0102526871
 40
0.0228409053
 40
0.0376823154
 40
0.0546784635
 40
0.0737168443
 40
0.094678359
 40
0.1418786946
 40
0.1953017403
 40
0.2540193314
 40
0.3171979249
 40
0.3841352611
 40
0.4542227241
 40
0.5269513677
 40
0.6787462459
 40
0.8370044717
 40
1.0
 40
1.0
 40
1.0
 40
1.0
 10
13.0899554676
 20
12.5918871436
 30
0.0
 10
13.0921644356
 20
12.5811549477
 30
0.0
 10
13.0964142376
 20
12.5571088271
 30
0.0
 10
13.1022222774
 20
12.5172557751
 30
0.0
 10
13.1080942206
 20
12.4701390537
 30
0.0
 10
13.1140212154
 20
12.4160900824
 30
0.0
 10
13.1199947828
 20
12.3554703538
 30
0.0
 10
13.1283467326
 20
12.2626526104
 30
0.0
 10
13.1386773241
 20
12.1331217288
 30
0.0
 10
13.1507894079
 20
11.9632623376
 30
0.0
 10
13.1630008081
 20
11.7762940522
 30
0.0
 10
13.1752819729
 20
11.5748590008
 30
0.0
 10
13.18759999
 20
11.3612538115
 30
0.0
 10
13.1999429168
 20
11.1374276799
 30
0.0
 10
13.2166640135
 20
10.8230175545
 30
0.0
 10
13.2374511727
 20
10.4144621137
 30
0.0
 10
13.2621947824
 20
9.9095151189
 30
0.0
 10
13.2786124272
 20
9.5665800862
 30
0.0
 10
13.2868852081
 20
9.3925813631
 30
0.0
  0
SPLINE
  5
3A4
100
AcDbEntity
  8
0
100
AcDbSpline
 62
9
  6
CONTINUOUS
 70
0
 71
3
 72
14
 73
10
 74
0
 42
0.0000001
 43
0.0000001
 44
0.0000000001
 40
0.0
 40
0.0
 40
0.0
 40
0.0
 40
0.0634307786
 40
0.140871515
 40
0.2391021997
 40
0.3594312138
 40
0.499886128
 40
0.6573084692
 40
1.0
 40
1.0
 40
1.0
 40
1.0
 10
13.3148146494
 20
9.2176866055
 30
0.0
 10
13.3147937698
 20
9.218152721
 30
0.0
 10
13.314411293
 20
9.2191756834
 30
0.0
 10
13.3131222129
 20
9.220416956
 30
0.0
 10
13.3112152279
 20
9.221495364
 30
0.0
 10
13.3087235712
 20
9.2223957297
 30
0.0
 10
13.3057238969
 20
9.2231016567
 30
0.0
 10
13.3010513988
 20
9.2237433838
 30
0.0
 10
13.2973574125
 20
9.2238288274
 30
0.0
 10
13.294838813
 20
9.2237243973
 30
0.0
  0
SPLINE
  5
3A5
100
AcDbEntity
  8
0
100
AcDbSpline
 62
9
  6
CONTINUOUS
 70
0
 71
3
 72
13
 73
9
 74
0
 42
0.0000001
 43
0.0000001
 44
0.0000000001
 40
0.0
 40
0.0
 40
0.0
 40
0.0
 40
0.2550677188
 40
0.508773857
 40
0.6343771946
 40
0.7585886041
 40
0.8807813298
 40
1.0
 40
1.0
 40
1.0
 40
1.0
 10
11.5954332477
 20
3.9186754807
 30
0.0
 10
11.629755038
 20
4.3677079462
 30
0.0
 10
11.6951984957
 20
5.2636063788
 30
0.0
 10
11.7729083142
 20
6.3809503779
 30
0.0
 10
11.8344664124
 20
7.2678225179
 30
0.0
 10
11.8805858704
 20
7.9230103318
 30
0.0
 10
11.927435268
 20
8.5668446357
 30
0.0
 10
11.9602358325
 20
8.9918150051
 30
0.0
 10
11.9772857623
 20
9.2016133361
 30
0.0
  0
SPLINE
  5
3A6
100
AcDbEntity
  8
0
100
AcDbSpline
 62
9
  6
CONTINUOUS
 70
0
 71
3
 72
9
 73
5
 74
0
 42
0.0000001
 43
0.0000001
 44
0.0000000001
 40
0.0
 40
0.0
 40
0.0
 40
0.0
 40
0.4868975696
 40
1.0
 40
1.0
 40
1.0
 40
1.0
 10
13.3057513944
 20
9.1999776562
 30
0.0
 10
13.3042152938
 20
9.1989782709
 30
0.0
 10
13.3005724766
 20
9.197612009
 30
0.0
 10
13.2967140182
 20
9.1977844643
 30
0.0
 10
13.2948258828
 20
9.1981901051
 30
0.0
  0
SPLINE
  5
3A7
100
AcDbEntity
  8
0
100
AcDbSpline
 62
9
  6
CONTINUOUS
 70
0
 71
3
 72
18
 73
14
 74
0
 42
0.0000001
 43
0.0000001
 44
0.0000000001
 40
0.0
 40
0.0
 40
0.0
 40
0.0
 40
0.0061461177
 40
0.021088203
 40
0.0452066067
 40
0.0783247251
 40
0.120191771
 40
0.1705253374
 40
0.2945734953
 40
0.4456712306
 40
0.618668202
 40
0.8063290214
 40
1.0
 40
1.0
 40
1.0
 40
1.0
 10
13.7101096843
 20
3.9192447098
 30
0.0
 10
13.7101081762
 20
3.9192856624
 30
0.0
 10
13.7099289105
 20
3.9193409356
 30
0.0
 10
13.709668684
 20
3.9193787153
 30
0.0
 10
13.7091677118
 20
3.9194164774
 30
0.0
 10
13.7085160769
 20
3.9194360494
 30
0.0
 10
13.7076770978
 20
3.9194434583
 30
0.0
 10
13.7062367769
 20
3.9194316311
 30
0.0
 10
13.7040661867
 20
3.9193762734
 30
0.0
 10
13.7010806429
 20
3.9192624613
 30
0.0
 10
13.6976720685
 20
3.9191010074
 30
0.0
 10
13.6939814068
 20
3.9189012086
 30
0.0
 10
13.6914432904
 20
3.9187498977
 30
0.0
 10
13.6901544409
 20
3.9186697918
 30
0.0
  0
SPLINE
  5
3A8
100
AcDbEntity
  8
0
100
AcDbSpline
 62
9
  6
CONTINUOUS
 70
0
 71
3
 72
14
 73
10
 74
0
 42
0.0000001
 43
0.0000001
 44
0.0000000001
 40
0.0
 40
0.0
 40
0.0
 40
0.0
 40
0.0634307925
 40
0.1408715542
 40
0.2391022599
 40
0.359431301
 40
0.4998862188
 40
0.6573085158
 40
1.0
 40
1.0
 40
1.0
 40
1.0
 10
11.9708767674
 20
9.217686549
 30
0.0
 10
11.9708976468
 20
9.2181526646
 30
0.0
 10
11.9712801239
 20
9.2191756275
 30
0.0
 10
11.9725692047
 20
9.2204169002
 30
0.0
 10
11.9744761904
 20
9.2214953086
 30
0.0
 10
11.9769678479
 20
9.222395674
 30
0.0
 10
11.9799675224
 20
9.2231016009
 30
0.0
 10
11.9846400202
 20
9.2237433284
 30
0.0
 10
11.9883340062
 20
9.2238287714
 30
0.0
 10
11.9908526056
 20
9.2237243413
 30
0.0
  0
SPLINE
  5
3A9
100
AcDbEntity
  8
0
100
AcDbSpline
 62
9
  6
CONTINUOUS
 70
0
 71
3
 72
19
 73
15
 74
0
 42
0.0000001
 43
0.0000001
 44
0.0000000001
 40
0.0
 40
0.0
 40
0.0
 40
0.0
 40
0.0248598437
 40
0.0490634
 40
0.0778686019
 40
0.1139282578
 40
0.1585090648
 40
0.2123157452
 40
0.3428562387
 40
0.4929989726
 40
0.572333315
 40
0.6540099563
 40
0.8241093993
 40
1.0
 40
1.0
 40
1.0
 40
1.0
 10
11.97891916
 20
9.3878380281
 30
0.0
 10
11.9789267403
 20
9.3880184314
 30
0.0
 10
11.978997973
 20
9.3883797455
 30
0.0
 10
11.9793448451
 20
9.388843274
 30
0.0
 10
11.9798649464
 20
9.3892335889
 30
0.0
 10
11.9805511693
 20
9.3896353651
 30
0.0
 10
11.981411334
 20
9.3900977672
 30
0.0
 10
11.9828632829
 20
9.3909080999
 30
0.0
 10
11.9850081653
 20
9.3920498439
 30
0.0
 10
11.9874481598
 20
9.3930267198
 30
0.0
 10
11.9896596598
 20
9.3935222065
 30
0.0
 10
11.9920636674
 20
9.3937162512
 30
0.0
 10
11.9951777732
 20
9.3934214307
 30
0.0
 10
11.9976119672
 20
9.3927179708
 30
0.0
 10
11.998788423
 20
9.392219934
 30
0.0
  0
SPLINE
  5
3AA
100
AcDbEntity
  8
0
100
AcDbSpline
 62
9
  6
CONTINUOUS
 70
0
 71
3
 72
18
 73
14
 74
0
 42
0.0000001
 43
0.0000001
 44
0.0000000001
 40
0.0
 40
0.0
 40
0.0
 40
0.0
 40
0.193689011
 40
0.3813442828
 40
0.5543220525
 40
0.705398456
 40
0.8294240435
 40
0.8797448155
 40
0.9215984103
 40
0.9547044797
 40
0.9788163585
 40
0.9937687728
 40
1.0
 40
1.0
 40
1.0
 40
1.0
 10
11.5955230915
 20
3.9186707329
 30
0.0
 10
11.5942349019
 20
3.9187507254
 30
0.0
 10
11.5916982456
 20
3.9189019105
 30
0.0
 10
11.5880098723
 20
3.9191015994
 30
0.0
 10
11.5846036729
 20
3.9192626631
 30
0.0
 10
11.5816203237
 20
3.9193759295
 30
0.0
 10
11.5794514965
 20
3.9194312605
 30
0.0
 10
11.5780123015
 20
3.9194441238
 30
0.0
 10
11.5771742729
 20
3.9194375712
 30
0.0
 10
11.576522717
 20
3.9194192505
 30
0.0
 10
11.5760232434
 20
3.9193808187
 30
0.0
 10
11.5757605683
 20
3.9193441421
 30
0.0
 10
11.5755832524
 20
3.9192850581
 30
0.0
 10
11.5755816475
 20
3.9192435666
 30
0.0
  0
SPLINE
  5
3AB
100
AcDbEntity
  8
0
100
AcDbSpline
 62
9
  6
CONTINUOUS
 70
0
 71
3
 72
9
 73
5
 74
0
 42
0.0000001
 43
0.0000001
 44
0.0000000001
 40
0.0
 40
0.0
 40
0.0
 40
0.0
 40
0.5130761089
 40
1.0
 40
1.0
 40
1.0
 40
1.0
 10
11.9908545934
 20
9.1981885994
 30
0.0
 10
11.9889676941
 20
9.1977831035
 30
0.0
 10
11.9851115938
 20
9.1976105311
 30
0.0
 10
11.9814706757
 20
9.198974996
 30
0.0
 10
11.9799350638
 20
9.1999733301
 30
0.0
  0
LINE
  5
3AC
100
AcDbEntity
  8
0
100
AcDbLine
 62
7
  6
CONTINUOUS
 10
12.6428488401
 20
8.7686128996
 11
12.6428370569
 21
8.771404705
  0
LINE
  5
3AD
100
AcDbEntity
  8
0
100
AcDbLine
 62
7
  6
CONTINUOUS
 10
12.6428370569
 20
8.771404705
 11
12.6428476856
 21
8.773624677
  0
LINE
  5
3AE
100
AcDbEntity
  8
0
100
AcDbLine
 62
9
  6
CONTINUOUS
 10
13.2948358615
 20
9.2095982985
 11
13.2948358615
 21
9.2166639821
  0
LINE
  5
3AF
100
AcDbEntity
  8
0
100
AcDbLine
 62
9
  6
CONTINUOUS
 10
13.2948358615
 20
9.2166639821
 11
13.2948365907
 21
9.2237249317
  0
SPLINE
  5
3B0
100
AcDbEntity
  8
0
100
AcDbSpline
 62
9
  6
CONTINUOUS
 70
0
 71
3
 72
14
 73
10
 74
0
 42
0.0000001
 43
0.0000001
 44
0.0000000001
 40
0.0
 40
0.0
 40
0.0
 40
0.0
 40
0.3466508668
 40
0.5023519539
 40
0.6415507024
 40
0.7611544079
 40
0.8590988717
 40
0.9365941816
 40
1.0
 40
1.0
 40
1.0
 40
1.0
 10
13.2868557521
 20
9.3929126367
 30
0.0
 10
13.2894024916
 20
9.393047021
 30
0.0
 10
13.2931179006
 20
9.3929919975
 30
0.0
 10
13.2977948291
 20
9.3923219719
 30
0.0
 10
13.3007654274
 20
9.3916105416
 30
0.0
 10
13.3032386978
 20
9.3907078234
 30
0.0
 10
13.305137802
 20
9.389629306
 30
0.0
 10
13.3064275436
 20
9.3883939332
 30
0.0
 10
13.3068253107
 20
9.3873789455
 30
0.0
 10
13.3068555936
 20
9.386913458
 30
0.0
  0
SPLINE
  5
3B1
100
AcDbEntity
  8
0
100
AcDbSpline
 62
9
  6
CONTINUOUS
 70
0
 71
3
 72
13
 73
9
 74
0
 42
0.0000001
 43
0.0000001
 44
0.0000000001
 40
0.0
 40
0.0
 40
0.0
 40
0.0
 40
0.1192197282
 40
0.2414134572
 40
0.3656262575
 40
0.491229893
 40
0.7449342023
 40
1.0
 40
1.0
 40
1.0
 40
1.0
 10
13.3084031766
 20
9.2016435604
 30
0.0
 10
13.3254531786
 20
8.9918421567
 30
0.0
 10
13.3582546373
 20
8.5668657698
 30
0.0
 10
13.4051051364
 20
7.9230217425
 30
0.0
 10
13.4512249041
 20
7.2678254311
 30
0.0
 10
13.5127835652
 20
6.3809484965
 30
0.0
 10
13.5904931074
 20
5.2636041849
 30
0.0
 10
13.655936548
 20
4.3677072531
 30
0.0
 10
13.6902582803
 20
3.9186756091
 30
0.0
  0
SPLINE
  5
3B2
100
AcDbEntity
  8
0
100
AcDbSpline
 62
7
  6
CONTINUOUS
 70
0
 71
3
 72
13
 73
9
 74
0
 42
0.0000001
 43
0.0000001
 44
0.0000000001
 40
0.0
 40
0.0
 40
0.0
 40
0.0
 40
0.147799153
 40
0.3095713613
 40
0.4999946369
 40
0.6904062298
 40
0.8521723579
 40
1.0
 40
1.0
 40
1.0
 40
1.0
 10
32.1377254093
 20
3.8206657758
 30
0.0
 10
32.1360962003
 20
3.8282364917
 30
0.0
 10
32.1331427236
 20
3.8441958697
 30
0.0
 10
32.1300244967
 20
3.8702261258
 30
0.0
 10
32.1288143763
 20
3.8986643357
 30
0.0
 10
32.1300225376
 20
3.9271024065
 30
0.0
 10
32.1331423226
 20
3.953133049
 30
0.0
 10
32.1360963544
 20
3.9690935509
 30
0.0
 10
32.1377254093
 20
3.9766657758
 30
0.0
  0
SPLINE
  5
3B3
100
AcDbEntity
  8
0
100
AcDbSpline
 62
7
  6
CONTINUOUS
 70
0
 71
3
 72
27
 73
23
 74
0
 42
0.0000001
 43
0.0000001
 44
0.0000000001
 40
0.0
 40
0.0
 40
0.0
 40
0.0
 40
0.0582381554
 40
0.1255051001
 40
0.1927720449
 40
0.2600389896
 40
0.3273059343
 40
0.394572879
 40
0.4618398238
 40
0.4954732961
 40
0.5291067685
 40
0.5627402408
 40
0.5963737132
 40
0.6300071856
 40
0.6636406579
 40
0.6972741303
 40
0.7309076026
 40
0.764541075
 40
0.7981745474
 40
0.8654414921
 40
0.9327084368
 40
1.0
 40
1.0
 40
1.0
 40
1.0
 10
32.6359920439
 20
5.3588382584
 30
0.0
 10
32.5983916034
 20
5.721535647
 30
0.0
 10
32.4944669968
 20
6.4944674053
 30
0.0
 10
32.2600458272
 20
7.6336450173
 30
0.0
 10
31.9337730648
 20
8.7488181507
 30
0.0
 10
31.5298530843
 20
9.7650107558
 30
0.0
 10
31.0510746527
 20
10.6630464548
 30
0.0
 10
30.4982068033
 20
11.4257251624
 30
0.0
 10
29.9729717177
 20
11.9339264671
 30
0.0
 10
29.5116357135
 20
12.2509243654
 30
0.0
 10
29.145465774
 20
12.4388534688
 30
0.0
 10
28.761377544
 20
12.5711993852
 30
0.0
 10
28.3646455445
 20
12.6421184977
 30
0.0
 10
27.9637076329
 20
12.6476724816
 30
0.0
 10
27.5685858329
 20
12.5876289574
 30
0.0
 10
27.188145555
 20
12.4657104739
 30
0.0
 10
26.8280857747
 20
12.2879694486
 30
0.0
 10
26.4907606699
 20
12.0606985822
 30
0.0
 10
26.0714592402
 20
11.6985456945
 30
0.0
 10
25.6020919143
 20
11.1451721144
 30
0.0
 10
25.1186260452
 20
10.3405074399
 30
0.0
 10
24.8479097402
 20
9.7205961518
 30
0.0
 10
24.7257284048
 20
9.3925813631
 30
0.0
  0
SPLINE
  5
3B4
100
AcDbEntity
  8
0
100
AcDbSpline
 62
7
  6
CONTINUOUS
 70
0
 71
3
 72
27
 73
23
 74
0
 42
0.0000001
 43
0.0000001
 44
0.0000000001
 40
0.0
 40
0.0
 40
0.0
 40
0.0
 40
0.0498322873
 40
0.1177013984
 40
0.1855705096
 40
0.2534396208
 40
0.3213087319
 40
0.3891778431
 40
0.4570469543
 40
0.4909815099
 40
0.5249160654
 40
0.558850621
 40
0.5927851766
 40
0.6267197322
 40
0.6606542878
 40
0.6945888434
 40
0.7285233989
 40
0.7624579545
 40
0.7963925101
 40
0.8642616213
 40
0.9321307324
 40
1.0
 40
1.0
 40
1.0
 40
1.0
 10
30.7934882869
 20
5.3591331909
 30
0.0
 10
30.775443494
 20
5.6344997722
 30
0.0
 10
30.7157665228
 20
6.2779015382
 30
0.0
 10
30.5602369223
 20
7.2491195837
 30
0.0
 10
30.3181798291
 20
8.2317140098
 30
0.0
 10
30.0141267422
 20
9.1045417943
 30
0.0
 10
29.6612696303
 20
9.8431847307
 30
0.0
 10
29.2776675734
 20
10.4270543303
 30
0.0
 10
28.9528277975
 20
10.7732221404
 30
0.0
 10
28.7038500725
 20
10.9672862009
 30
0.0
 10
28.5251976223
 20
11.074291037
 30
0.0
 10
28.3554718516
 20
11.1467346237
 30
0.0
 10
28.1925784932
 20
11.1892177318
 30
0.0
 10
28.0313312142
 20
11.2049508387
 30
0.0
 10
27.8650155303
 20
11.1939899113
 30
0.0
 10
27.6880951615
 20
11.153001289
 30
0.0
 10
27.4981792511
 20
11.0768917702
 30
0.0
 10
27.2961667811
 20
10.960871489
 30
0.0
 10
27.0147514914
 20
10.7488056391
 30
0.0
 10
26.6504593061
 20
10.3720946432
 30
0.0
 10
26.2242821801
 20
9.7468550783
 30
0.0
 10
25.963100035
 20
9.2265946925
 30
0.0
 10
25.8410117302
 20
8.9443695772
 30
0.0
  0
SPLINE
  5
3B5
100
AcDbEntity
  8
0
100
AcDbSpline
 62
7
  6
CONTINUOUS
 70
0
 71
3
 72
8
 73
4
 74
0
 42
0.0000001
 43
0.0000001
 44
0.0000000001
 40
0.0
 40
0.0
 40
0.0
 40
0.0
 40
1.0
 40
1.0
 40
1.0
 40
1.0
 10
25.7490523059
 20
8.7686128996
 30
0.0
 10
25.7445671711
 20
8.7691076947
 30
0.0
 10
25.7401163314
 20
8.7700687649
 30
0.0
 10
25.7358062826
 20
8.771404705
 30
0.0
  0
SPLINE
  5
3B6
100
AcDbEntity
  8
0
100
AcDbSpline
 62
7
  6
CONTINUOUS
 70
0
 71
3
 72
9
 73
5
 74
0
 42
0.0000001
 43
0.0000001
 44
0.0000000001
 40
0.0
 40
0.0
 40
0.0
 40
0.0
 40
0.2511464338
 40
1.0
 40
1.0
 40
1.0
 40
1.0
 10
25.756317268
 20
8.7693337626
 30
0.0
 10
25.7557313565
 20
8.7691523617
 30
0.0
 10
25.7533629035
 20
8.7685503426
 30
0.0
 10
25.750872175
 20
8.7684279735
 30
0.0
 10
25.749053553
 20
8.7686211375
 30
0.0
  0
SPLINE
  5
3B7
100
AcDbEntity
  8
0
100
AcDbSpline
 62
9
  6
CONTINUOUS
 70
0
 71
3
 72
18
 73
14
 74
0
 42
0.0000001
 43
0.0000001
 44
0.0000000001
 40
0.0
 40
0.0
 40
0.0
 40
0.0
 40
0.215463501
 40
0.4114914917
 40
0.5838274632
 40
0.7290075386
 40
0.8448096352
 40
0.8910394695
 40
0.9292017754
 40
0.9591928942
 40
0.9809333064
 40
0.994401946
 40
1.0
 40
1.0
 40
1.0
 40
1.0
 10
25.8313811117
 20
8.9482410078
 30
0.0
 10
25.8320623711
 20
8.9479348681
 30
0.0
 10
25.83336598
 20
8.9473558217
 30
0.0
 10
25.8352229645
 20
8.9465512543
 30
0.0
 10
25.8368635153
 20
8.945859939
 30
0.0
 10
25.8382545652
 20
8.9452936533
 30
0.0
 10
25.8392475008
 20
8.9449072789
 30
0.0
 10
25.8398984266
 20
8.9446686899
 30
0.0
 10
25.8402744945
 20
8.9445382956
 30
0.0
 10
25.8405675872
 20
8.9444446018
 30
0.0
 10
25.8407942265
 20
8.9443816004
 30
0.0
 10
25.8409170185
 20
8.9443590525
 30
0.0
 10
25.8410029332
 20
8.9443522985
 30
0.0
 10
25.8410116825
 20
8.9443696192
 30
0.0
  0
LINE
  5
3B8
100
AcDbEntity
  8
0
100
AcDbLine
 62
9
  6
CONTINUOUS
 10
25.7595696853
 20
8.7814090233
 11
25.7652394973
 21
8.779396841
  0
LINE
  5
3B9
100
AcDbEntity
  8
0
100
AcDbLine
 62
9
  6
CONTINUOUS
 10
25.7652394973
 20
8.779396841
 11
25.7672614197
 21
8.7788083108
  0
SPLINE
  5
3BA
100
AcDbEntity
  8
0
100
AcDbSpline
 62
9
  6
CONTINUOUS
 70
0
 71
3
 72
10
 73
6
 74
0
 42
0.0000001
 43
0.0000001
 44
0.0000000001
 40
0.0
 40
0.0
 40
0.0
 40
0.0
 40
0.2072545187
 40
0.448209045
 40
1.0
 40
1.0
 40
1.0
 40
1.0
 10
25.7490523059
 20
8.7686128996
 30
0.0
 10
25.7500874072
 20
8.7691394329
 30
0.0
 10
25.7521567556
 20
8.7706124005
 30
0.0
 10
25.7560272762
 20
8.7746885525
 30
0.0
 10
25.7583119831
 20
8.7785832421
 30
0.0
 10
25.7595778429
 20
8.781404123
 30
0.0
  0
SPLINE
  5
3BB
100
AcDbEntity
  8
0
100
AcDbSpline
 62
9
  6
CONTINUOUS
 70
0
 71
3
 72
13
 73
9
 74
0
 42
0.0000001
 43
0.0000001
 44
0.0000000001
 40
0.0
 40
0.0
 40
0.0
 40
0.0
 40
0.0350443521
 40
0.0936993203
 40
0.1826371214
 40
0.2981447066
 40
0.6022277517
 40
1.0
 40
1.0
 40
1.0
 40
1.0
 10
32.7287587516
 20
3.9186646046
 30
0.0
 10
32.728761966
 20
3.9185377662
 30
0.0
 10
32.7285431178
 20
3.9182245104
 30
0.0
 10
32.7279728582
 20
3.9179064565
 30
0.0
 10
32.7271247241
 20
3.9174630054
 30
0.0
 10
32.72535937
 20
3.9168844136
 30
0.0
 10
32.7223286644
 20
3.9171297786
 30
0.0
 10
32.7198747766
 20
3.917793929
 30
0.0
 10
32.7185361298
 20
3.918325008
 30
0.0
  0
SPLINE
  5
3BC
100
AcDbEntity
  8
0
100
AcDbSpline
 62
9
  6
CONTINUOUS
 70
0
 71
3
 72
49
 73
45
 74
0
 42
0.0000001
 43
0.0000001
 44
0.0000000001
 40
0.0
 40
0.0
 40
0.0
 40
0.0
 40
0.0312369147
 40
0.0624703444
 40
0.0936993408
 40
0.1249228354
 40
0.1405353704
 40
0.1561469298
 40
0.1873571339
 40
0.2029656632
 40
0.2185722114
 40
0.2341768046
 40
0.2497787654
 40
0.2653800572
 40
0.2809820138
 40
0.2965850538
 40
0.3121872008
 40
0.3277879955
 40
0.3433879869
 40
0.3589878809
 40
0.3745883057
 40
0.3901904162
 40
0.4057957054
 40
0.4214052972
 40
0.437019345
 40
0.4526373303
 40
0.4682593428
 40
0.4838847104
 40
0.4995127508
 40
0.5307669686
 40
0.5464024477
 40
0.5620391674
 40
0.5933120106
 40
0.6245902212
 40
0.6558725177
 40
0.6871580093
 40
0.7184437129
 40
0.7497297672
 40
0.781015933
 40
0.8123021155
 40
0.8435881903
 40
0.8748739851
 40
0.9374382158
 40
1.0
 40
1.0
 40
1.0
 40
1.0
 10
24.753305848
 20
9.3821084862
 30
0.0
 10
24.8046901252
 20
9.5207464448
 30
0.0
 10
24.9137147619
 20
9.7957437718
 30
0.0
 10
25.097791646
 20
10.1994727036
 30
0.0
 10
25.3044750287
 20
10.5921019437
 30
0.0
 10
25.4977286408
 20
10.9074375214
 30
0.0
 10
25.666284487
 20
11.1503446121
 30
0.0
 10
25.8445774079
 20
11.3860925355
 30
0.0
 10
26.038578268
 20
11.609736368
 30
0.0
 10
26.2493071295
 20
11.8170409145
 30
0.0
 10
26.4160278002
 20
11.9632484188
 30
0.0
 10
26.5915304039
 20
12.0987676536
 30
0.0
 10
26.7757748329
 20
12.2221436547
 30
0.0
 10
26.9685131287
 20
12.3318093326
 30
0.0
 10
27.1692287835
 20
12.426161305
 30
0.0
 10
27.3770555415
 20
12.5036921097
 30
0.0
 10
27.5908266404
 20
12.5629585739
 30
0.0
 10
27.8090386563
 20
12.6028978236
 30
0.0
 10
28.0299879498
 20
12.6227057553
 30
0.0
 10
28.2518204889
 20
12.6221194148
 30
0.0
 10
28.4726712808
 20
12.601232533
 30
0.0
 10
28.6907682012
 20
12.5606286406
 30
0.0
 10
28.9045516603
 20
12.5012873646
 30
0.0
 10
29.1127020433
 20
12.4243980945
 30
0.0
 10
29.3142153515
 20
12.3314178853
 30
0.0
 10
29.5083607623
 20
12.2238312572
 30
0.0
 10
29.6946983883
 20
12.1031784034
 30
0.0
 10
29.8730180273
 20
11.9709119572
 30
0.0
 10
30.1000074318
 20
11.7809323228
 30
0.0
 10
30.3112055803
 20
11.5728155978
 30
0.0
 10
30.5072378297
 20
11.351011481
 30
0.0
 10
30.6937985692
 20
11.1210418127
 30
0.0
 10
30.9099172684
 20
10.820171004
 30
0.0
 10
31.1443305642
 20
10.4426015672
 30
0.0
 10
31.3563078595
 20
10.0519857437
 30
0.0
 10
31.5478660776
 20
9.6509788009
 30
0.0
 10
31.7208387713
 20
9.2416284286
 30
0.0
 10
31.8767143113
 20
8.8254903255
 30
0.0
 10
32.0167855165
 20
8.4037868559
 30
0.0
 10
32.1421373636
 20
7.9774914851
 30
0.0
 10
32.2536832372
 20
7.5473872112
 30
0.0
 10
32.3849836233
 20
6.9697382505
 30
0.0
 10
32.5180957348
 20
6.2410592212
 30
0.0
 10
32.5939980479
 20
5.6533978031
 30
0.0
 10
32.6247523007
 20
5.3588746697
 30
0.0
  0
SPLINE
  5
3BD
100
AcDbEntity
  8
0
100
AcDbSpline
 62
7
  6
CONTINUOUS
 70
0
 71
3
 72
51
 73
47
 74
0
 42
0.0000001
 43
0.0000001
 44
0.0000000001
 40
0.0
 40
0.0
 40
0.0
 40
0.0
 40
0.0312986127
 40
0.0625929229
 40
0.0938807239
 40
0.1251597935
 40
0.1564264285
 40
0.187674531
 40
0.203293636
 40
0.2189048974
 40
0.2345064399
 40
0.2500951672
 40
0.2656668065
 40
0.2812157463
 40
0.296736084
 40
0.3122247496
 40
0.3199642634
 40
0.3277000222
 40
0.3354347416
 40
0.3431715803
 40
0.3509133661
 40
0.3586618374
 40
0.3741749663
 40
0.3819462663
 40
0.3897246708
 40
0.4052947382
 40
0.4208840524
 40
0.4364876589
 40
0.4521022232
 40
0.4677252174
 40
0.4833549692
 40
0.4989899524
 40
0.5146293997
 40
0.5302724284
 40
0.5459183216
 40
0.5615668532
 40
0.5928675117
 40
0.624174863
 40
0.655487186
 40
0.6868031215
 40
0.7181216829
 40
0.7494422184
 40
0.8120810418
 40
0.8747223947
 40
0.9373633103
 40
1.0
 40
1.0
 40
1.0
 40
1.0
 10
25.8313810984
 20
8.9482410159
 30
0.0
 10
25.8734904538
 20
9.0461413643
 30
0.0
 10
25.961358481
 20
9.2403849759
 30
0.0
 10
26.1050404802
 20
9.5260494173
 30
0.0
 10
26.2618649813
 20
9.8046789606
 30
0.0
 10
26.4333781428
 20
10.0744578937
 30
0.0
 10
26.6213319162
 20
10.3329532666
 30
0.0
 10
26.793897158
 20
10.53590899
 30
0.0
 10
26.9427110414
 20
10.6880467054
 30
0.0
 10
27.0601292468
 20
10.7960704258
 30
0.0
 10
27.1838277998
 20
10.8967177922
 30
0.0
 10
27.3141674052
 20
10.9884334506
 30
0.0
 10
27.451410216
 20
11.0692108925
 30
0.0
 10
27.5956325924
 20
11.136396788
 30
0.0
 10
27.7463603768
 20
11.1867537559
 30
0.0
 10
27.8764345557
 20
11.2116426704
 30
0.0
 10
27.9816486281
 20
11.2197071994
 30
0.0
 10
28.0607629087
 20
11.2196133589
 30
0.0
 10
28.1396126117
 20
11.2133053796
 30
0.0
 10
28.2177555956
 20
11.200924054
 30
0.0
 10
28.2948013676
 20
11.1827470506
 30
0.0
 10
28.3956474846
 20
11.1512951259
 30
0.0
 10
28.4932145202
 20
11.1099099483
 30
0.0
 10
28.5868089554
 20
11.0605755848
 30
0.0
 10
28.6779387508
 20
11.0064222829
 30
0.0
 10
28.7870519831
 20
10.9307857141
 30
0.0
 10
28.910404113
 20
10.8298804468
 30
0.0
 10
29.0266684642
 20
10.7207079295
 30
0.0
 10
29.1364529702
 20
10.6049036707
 30
0.0
 10
29.2402457816
 20
10.4836035393
 30
0.0
 10
29.3384571932
 20
10.357669046
 30
0.0
 10
29.4314820421
 20
10.2277994077
 30
0.0
 10
29.5197388736
 20
10.0945983388
 30
0.0
 10
29.6035566137
 20
9.9585227182
 30
0.0
 10
29.6832044174
 20
9.8199330504
 30
0.0
 10
29.7841709864
 20
9.6322015486
 30
0.0
 10
29.9011951351
 20
9.3926794133
 30
0.0
 10
30.0285099138
 20
9.0992136098
 30
0.0
 10
30.1438910925
 20
8.8008122963
 30
0.0
 10
30.2483969431
 20
8.4984073938
 30
0.0
 10
30.3428481191
 20
8.1926912443
 30
0.0
 10
30.4562836221
 20
7.7814209178
 30
0.0
 10
30.5760939659
 20
7.2615356217
 30
0.0
 10
30.6881294403
 20
6.6313052202
 30
0.0
 10
30.7711718393
 20
5.9966428604
 30
0.0
 10
30.8080697695
 20
5.5715187071
 30
0.0
 10
30.8221284336
 20
5.3587033896
 30
0.0
  0
SPLINE
  5
3BE
100
AcDbEntity
  8
0
100
AcDbSpline
 62
9
  6
CONTINUOUS
 70
0
 71
3
 72
18
 73
14
 74
0
 42
0.0000001
 43
0.0000001
 44
0.0000000001
 40
0.0
 40
0.0
 40
0.0
 40
0.0
 40
0.1613001154
 40
0.334280905
 40
0.5061517824
 40
0.665692792
 40
0.8024920052
 40
0.8596068063
 40
0.9078170325
 40
0.9462179606
 40
0.9743863567
 40
0.9921222301
 40
1.0
 40
1.0
 40
1.0
 40
1.0
 10
30.8513119086
 20
3.9186665187
 30
0.0
 10
30.8497169769
 20
3.9188001229
 30
0.0
 10
30.8464075093
 20
3.9190284502
 30
0.0
 10
30.8413908078
 20
3.9192716253
 30
0.0
 10
30.8363874906
 20
3.9194148644
 30
0.0
 10
30.8317419624
 20
3.9194573763
 30
0.0
 10
30.8282334633
 20
3.9194085207
 30
0.0
 10
30.8258345257
 20
3.9193141534
 30
0.0
 10
30.8244068717
 20
3.9192247902
 30
0.0
 10
30.8232835417
 20
3.9191222945
 30
0.0
 10
30.822429588
 20
3.9189922952
 30
0.0
 10
30.821958052
 20
3.9188859716
 30
0.0
 10
30.8216665937
 20
3.9187478932
 30
0.0
 10
30.8216633675
 20
3.9186697918
 30
0.0
  0
SPLINE
  5
3BF
100
AcDbEntity
  8
0
100
AcDbSpline
 62
9
  6
CONTINUOUS
 70
0
 71
3
 72
13
 73
9
 74
0
 42
0.0000001
 43
0.0000001
 44
0.0000000001
 40
0.0
 40
0.0
 40
0.0
 40
0.0
 40
0.3207800172
 40
0.6006227315
 40
0.7197831291
 40
0.8242441542
 40
0.9161216126
 40
1.0
 40
1.0
 40
1.0
 40
1.0
 10
24.6897434735
 20
9.2106474582
 30
0.0
 10
24.6887470744
 20
9.2085727408
 30
0.0
 10
24.6865468545
 20
9.2048392921
 30
0.0
 10
24.6830415711
 20
9.200963347
 30
0.0
 10
24.6800526255
 20
9.1989043735
 30
0.0
 10
24.6779520748
 20
9.1980079975
 30
0.0
 10
24.6759347578
 20
9.1977188956
 30
0.0
 10
24.6746650461
 20
9.197961589
 30
0.0
 10
24.674106661
 20
9.198186081
 30
0.0
  0
SPLINE
  5
3C0
100
AcDbEntity
  8
0
100
AcDbSpline
 62
9
  6
CONTINUOUS
 70
0
 71
3
 72
18
 73
14
 74
0
 42
0.0000001
 43
0.0000001
 44
0.0000000001
 40
0.0
 40
0.0
 40
0.0
 40
0.0
 40
0.1946687263
 40
0.3815809353
 40
0.5537204958
 40
0.7046608224
 40
0.8288913197
 40
0.8793040211
 40
0.9211869764
 40
0.9542976386
 40
0.9784397599
 40
0.9935045696
 40
1.0
 40
1.0
 40
1.0
 40
1.0
 10
24.6818345693
 20
9.2175864824
 30
0.0
 10
24.6806166799
 20
9.2180401317
 30
0.0
 10
24.6782255
 20
9.2189188752
 30
0.0
 10
24.6747445603
 20
9.2201634056
 30
0.0
 10
24.6715271976
 20
9.2212780096
 30
0.0
 10
24.6686938622
 20
9.2222207159
 30
0.0
 10
24.6666197928
 20
9.2228743557
 30
0.0
 10
24.6652334484
 20
9.2232795788
 30
0.0
 10
24.6644224886
 20
9.2234987729
 30
0.0
 10
24.6637865532
 20
9.2236541056
 30
0.0
 10
24.6632949397
 20
9.2237470246
 30
0.0
 10
24.6630237912
 20
9.2237790491
 30
0.0
 10
24.6628388053
 20
9.223764992
 30
0.0
 10
24.662823556
 20
9.2237243973
 30
0.0
  0
SPLINE
  5
3C1
100
AcDbEntity
  8
0
100
AcDbSpline
 62
9
  6
CONTINUOUS
 70
0
 71
3
 72
20
 73
16
 74
0
 42
0.0000001
 43
0.0000001
 44
0.0000000001
 40
0.0
 40
0.0
 40
0.0
 40
0.0
 40
0.0020016511
 40
0.0057304482
 40
0.0123629709
 40
0.0220084971
 40
0.0345877403
 40
0.0499916314
 40
0.0887914582
 40
0.1948475258
 40
0.3320390479
 40
0.4917197163
 40
0.6634993454
 40
0.8365376108
 40
1.0
 40
1.0
 40
1.0
 40
1.0
 10
24.7259420285
 20
9.3929126367
 30
0.0
 10
24.7259371185
 20
9.3929317102
 30
0.0
 10
24.7259726209
 20
9.3929935113
 30
0.0
 10
24.7261059489
 20
9.3929877788
 30
0.0
 10
24.7262962287
 20
9.3929807717
 30
0.0
 10
24.726579302
 20
9.3929292353
 30
0.0
 10
24.7269402406
 20
9.3928533475
 30
0.0
 10
24.7275790971
 20
9.3926961713
 30
0.0
 10
24.7290981575
 20
9.3922745798
 30
0.0
 10
24.7317472874
 20
9.3914442748
 30
0.0
 10
24.7355067559
 20
9.3901858207
 30
0.0
 10
24.7398573084
 20
9.3886563326
 30
0.0
 10
24.7445210057
 20
9.3869556232
 30
0.0
 10
24.7492000499
 20
9.3851891665
 30
0.0
 10
24.7522819951
 20
9.3839786111
 30
0.0
 10
24.7537740401
 20
9.3833779836
 30
0.0
  0
SPLINE
  5
3C2
100
AcDbEntity
  8
0
100
AcDbSpline
 62
9
  6
CONTINUOUS
 70
0
 71
3
 72
13
 73
9
 74
0
 42
0.0000001
 43
0.0000001
 44
0.0000000001
 40
0.0
 40
0.0
 40
0.0
 40
0.0
 40
0.1312284404
 40
0.2600761691
 40
0.387499314
 40
0.5135783472
 40
0.7594312751
 40
1.0
 40
1.0
 40
1.0
 40
1.0
 10
13.2868557521
 20
16.0172915909
 30
0.0
 10
13.2882837861
 20
16.017272193
 30
0.0
 10
13.2911301292
 20
16.0175234295
 30
0.0
 10
13.2951709926
 20
16.0188390838
 30
0.0
 10
13.2988019442
 20
16.0209313432
 30
0.0
 10
13.3029018931
 20
16.0245449848
 30
0.0
 10
13.3064569021
 20
16.0304208639
 30
0.0
 10
13.3070572109
 20
16.0358927288
 30
0.0
 10
13.3067276613
 20
16.038490027
 30
0.0
  0
SPLINE
  5
3C3
100
AcDbEntity
  8
0
100
AcDbSpline
 62
9
  6
CONTINUOUS
 70
0
 71
3
 72
15
 73
11
 74
0
 42
0.0000001
 43
0.0000001
 44
0.0000000001
 40
0.0
 40
0.0
 40
0.0
 40
0.0
 40
0.1214641492
 40
0.2481762183
 40
0.3740640442
 40
0.4966164247
 40
0.6195237082
 40
0.7464119455
 40
0.875662503
 40
1.0
 40
1.0
 40
1.0
 40
1.0
 10
11.97905901
 20
16.0388334102
 30
0.0
 10
11.9788888532
 20
16.0375125185
 30
0.0
 10
11.9788638774
 20
16.0347659298
 30
0.0
 10
11.9796641509
 20
16.0307170809
 30
0.0
 10
11.9813121251
 20
16.0269045576
 30
0.0
 10
11.9838579341
 20
16.0236684542
 30
0.0
 10
11.9870999118
 20
16.0211369589
 30
0.0
 10
11.9907907039
 20
16.0191957022
 30
0.0
 10
11.9947135888
 20
16.0177384078
 30
0.0
 10
11.9974421027
 20
16.0171576384
 30
0.0
 10
11.998788423
 20
16.016943069
 30
0.0
  0
SPLINE
  5
3C4
100
AcDbEntity
  8
0
100
AcDbSpline
 62
9
  6
CONTINUOUS
 70
0
 71
3
 72
22
 73
18
 74
0
 42
0.0000001
 43
0.0000001
 44
0.0000000001
 40
0.0
 40
0.0
 40
0.0
 40
0.0
 40
0.0213048541
 40
0.04657736
 40
0.0760403411
 40
0.1099090945
 40
0.148415422
 40
0.1918286898
 40
0.2404607161
 40
0.2946802121
 40
0.3549220676
 40
0.4216931407
 40
0.4955989434
 40
0.57734123
 40
0.6677208813
 40
0.7676648923
 40
1.0
 40
1.0
 40
1.0
 40
1.0
 10
12.5478878488
 20
23.9091257372
 30
0.0
 10
12.5408781911
 20
23.8916140646
 30
0.0
 10
12.5273587207
 20
23.8526066126
 30
0.0
 10
12.5091892926
 20
23.7877570933
 30
0.0
 10
12.4914227721
 20
23.7113266515
 30
0.0
 10
12.4740155938
 20
23.6228463808
 30
0.0
 10
12.4569305972
 20
23.5217554614
 30
0.0
 10
12.4401288505
 20
23.4073905411
 30
0.0
 10
12.4235620784
 20
23.2789518492
 30
0.0
 10
12.4071791483
 20
23.1354833491
 30
0.0
 10
12.3909275639
 20
22.9758488449
 30
0.0
 10
12.3747510421
 20
22.7986974198
 30
0.0
 10
12.3585922807
 20
22.602437854
 30
0.0
 10
12.3423908752
 20
22.3852158221
 30
0.0
 10
12.3260806171
 20
22.1448902711
 30
0.0
 10
12.3029443187
 20
21.7713986517
 30
0.0
 10
12.2871281555
 20
21.4776312238
 30
0.0
 10
12.2767883368
 20
21.2721906541
 30
0.0
  0
LINE
  5
3C5
100
AcDbEntity
  8
0
100
AcDbLine
 62
7
  6
CONTINUOUS
 10
12.6428361177
 20
24.0249765059
 11
12.6428458433
 21
24.0277347991
  0
SPLINE
  5
3C6
100
AcDbEntity
  8
0
100
AcDbSpline
 62
7
  6
CONTINUOUS
 70
0
 71
3
 72
11
 73
7
 74
0
 42
0.0000001
 43
0.0000001
 44
0.0000000001
 40
0.0
 40
0.0
 40
0.0
 40
0.0
 40
0.2499180644
 40
0.4999841093
 40
0.7500623811
 40
1.0
 40
1.0
 40
1.0
 40
1.0
 10
13.7380864943
 20
22.1326223538
 30
0.0
 10
13.7398069112
 20
22.1296354951
 30
0.0
 10
13.7417032731
 20
22.122615191
 30
0.0
 10
13.7388714039
 20
22.1121748932
 30
0.0
 10
13.7312194257
 20
22.1045310102
 30
0.0
 10
13.7241907489
 20
22.1026759107
 30
0.0
 10
13.7207435736
 20
22.1026750041
 30
0.0
  0
LINE
  5
3C7
100
AcDbEntity
  8
0
100
AcDbLine
 62
7
  6
CONTINUOUS
 10
12.2075755488
 20
19.7068362008
 11
12.2025993353
 21
19.7367258056
  0
LINE
  5
3C8
100
AcDbEntity
  8
0
100
AcDbLine
 62
7
  6
CONTINUOUS
 10
12.1755956796
 20
19.9029476485
 11
12.1701318928
 21
19.9374049361
  0
SPLINE
  5
3C9
100
AcDbEntity
  8
0
100
AcDbSpline
 62
7
  6
CONTINUOUS
 70
0
 71
3
 72
27
 73
23
 74
0
 42
0.0000001
 43
0.0000001
 44
0.0000000001
 40
0.0
 40
0.0
 40
0.0
 40
0.0
 40
0.2748875313
 40
0.3842857177
 40
0.4795498446
 40
0.5629660068
 40
0.6362525445
 40
0.7006689808
 40
0.7572057323
 40
0.8066314403
 40
0.8495703722
 40
0.8865451375
 40
0.9029494998
 40
0.9180445348
 40
0.931886275
 40
0.9445342042
 40
0.9560553663
 40
0.9665238947
 40
0.9760292088
 40
0.9846817918
 40
0.9926163252
 40
1.0
 40
1.0
 40
1.0
 40
1.0
 10
12.1701318928
 20
19.9374049361
 30
0.0
 10
12.1372541465
 20
20.1455407237
 30
0.0
 10
12.094454266
 20
20.4369985697
 30
0.0
 10
12.0385455979
 20
20.8003249143
 30
0.0
 10
12.0031543418
 20
21.0183025086
 30
0.0
 10
11.9699212916
 20
21.2085744331
 30
0.0
 10
11.9382063866
 20
21.3750893502
 30
0.0
 10
11.907533682
 20
21.5208029937
 30
0.0
 10
11.8775819849
 20
21.6479422174
 30
0.0
 10
11.8481172841
 20
21.7582375847
 30
0.0
 10
11.8189178428
 20
21.8530138077
 30
0.0
 10
11.7937637763
 20
21.9224784006
 30
0.0
 10
11.7734303454
 20
21.9708803089
 30
0.0
 10
11.7587656815
 20
22.0024022084
 30
0.0
 10
11.7440530138
 20
22.0306944427
 30
0.0
 10
11.7292729352
 20
22.0558229752
 30
0.0
 10
11.714410297
 20
22.0778493287
 30
0.0
 10
11.6994411504
 20
22.0968251419
 30
0.0
 10
11.6843403091
 20
22.1127942512
 30
0.0
 10
11.6690794001
 20
22.1257961151
 30
0.0
 10
11.6536285832
 20
22.135844664
 30
0.0
 10
11.642872459
 20
22.1407059867
 30
0.0
 10
11.637530073
 20
22.1425753353
 30
0.0
  0
SPLINE
  5
3CA
100
AcDbEntity
  8
0
100
AcDbSpline
 62
7
  6
CONTINUOUS
 70
0
 71
3
 72
11
 73
7
 74
0
 42
0.0000001
 43
0.0000001
 44
0.0000000001
 40
0.0
 40
0.0
 40
0.0
 40
0.0
 40
0.2495825221
 40
0.4946071859
 40
0.7423905652
 40
1.0
 40
1.0
 40
1.0
 40
1.0
 10
11.637530073
 20
22.1425753353
 30
0.0
 10
11.6327751587
 20
22.1442391223
 30
0.0
 10
11.6230714754
 20
22.1468032159
 30
0.0
 10
11.6080715602
 20
22.1481135221
 30
0.0
 10
11.5929100495
 20
22.1468184235
 30
0.0
 10
11.5829761754
 20
22.1442992798
 30
0.0
 10
11.5780393803
 20
22.1426670899
 30
0.0
  0
SPLINE
  5
3CB
100
AcDbEntity
  8
0
100
AcDbSpline
 62
7
  6
CONTINUOUS
 70
0
 71
3
 72
11
 73
7
 74
0
 42
0.0000001
 43
0.0000001
 44
0.0000000001
 40
0.0
 40
0.0
 40
0.0
 40
0.0
 40
0.2499272187
 40
0.5000026566
 40
0.7500741393
 40
1.0
 40
1.0
 40
1.0
 40
1.0
 10
11.5649478476
 20
22.1026750041
 30
0.0
 10
11.5614999731
 20
22.1026759106
 30
0.0
 10
11.5544697031
 20
22.1045317968
 30
0.0
 10
11.5468170932
 20
22.1121789714
 30
0.0
 10
11.5439876183
 20
22.1226230803
 30
0.0
 10
11.5458877015
 20
22.1296446388
 30
0.0
 10
11.5476101524
 20
22.1326314218
 30
0.0
  0
SPLINE
  5
3CC
100
AcDbEntity
  8
0
100
AcDbSpline
 62
9
  6
CONTINUOUS
 70
0
 71
3
 72
11
 73
7
 74
0
 42
0.0000001
 43
0.0000001
 44
0.0000000001
 40
0.0
 40
0.0
 40
0.0
 40
0.0
 40
0.2498818004
 40
0.500051635
 40
0.7502446182
 40
1.0
 40
1.0
 40
1.0
 40
1.0
 10
11.5955230915
 20
22.1130129724
 30
0.0
 10
11.5921120373
 20
22.1130241043
 30
0.0
 10
11.5851638481
 20
22.1148784292
 30
0.0
 10
11.5775794501
 20
22.1224168811
 30
0.0
 10
11.5746638223
 20
22.132701845
 30
0.0
 10
11.5764006426
 20
22.1396773693
 30
0.0
 10
11.5780397209
 20
22.1426668621
 30
0.0
  0
LINE
  5
3CD
100
AcDbEntity
  8
0
100
AcDbLine
 62
7
  6
CONTINUOUS
 10
12.6338693684
 20
24.0201083603
 11
12.6276991596
 21
24.0162890606
  0
SPLINE
  5
3CE
100
AcDbEntity
  8
0
100
AcDbSpline
 62
7
  6
CONTINUOUS
 70
0
 71
3
 72
9
 73
5
 74
0
 42
0.0000001
 43
0.0000001
 44
0.0000000001
 40
0.0
 40
0.0
 40
0.0
 40
0.0
 40
0.4569883833
 40
1.0
 40
1.0
 40
1.0
 40
1.0
 10
12.6276991596
 20
24.0162890606
 30
0.0
 10
12.6222577651
 20
24.0125050393
 30
0.0
 10
12.6114756595
 20
24.002603719
 30
0.0
 10
12.6026810386
 20
23.9910084641
 30
0.0
 10
12.5982854714
 20
23.9844738699
 30
0.0
  0
SPLINE
  5
3CF
100
AcDbEntity
  8
0
100
AcDbSpline
 62
7
  6
CONTINUOUS
 70
0
 71
3
 72
9
 73
5
 74
0
 42
0.0000001
 43
0.0000001
 44
0.0000000001
 40
0.0
 40
0.0
 40
0.0
 40
0.0
 40
0.4673376307
 40
1.0
 40
1.0
 40
1.0
 40
1.0
 10
12.5982854714
 20
23.9844738699
 30
0.0
 10
12.5940699729
 20
23.9782069717
 30
0.0
 10
12.5857971703
 20
23.9642915183
 30
0.0
 10
12.5786701058
 20
23.9497718905
 30
0.0
 10
12.575105019
 20
23.9419362936
 30
0.0
  0
SPLINE
  5
3D0
100
AcDbEntity
  8
0
100
AcDbSpline
 62
7
  6
CONTINUOUS
 70
0
 71
3
 72
22
 73
18
 74
0
 42
0.0000001
 43
0.0000001
 44
0.0000000001
 40
0.0
 40
0.0
 40
0.0
 40
0.0
 40
0.0218868499
 40
0.0476952766
 40
0.0776330357
 40
0.1119091566
 40
0.1507563399
 40
0.1944387139
 40
0.243266001
 40
0.2976056129
 40
0.3578844821
 40
0.424606005
 40
0.4983667649
 40
0.5798536955
 40
0.6698571765
 40
0.769282085
 40
1.0
 40
1.0
 40
1.0
 40
1.0
 10
12.5606998363
 20
23.9068121675
 30
0.0
 10
12.5539104346
 20
23.8885843442
 30
0.0
 10
12.5407913364
 20
23.8482375201
 30
0.0
 10
12.5230978976
 20
23.7815297178
 30
0.0
 10
12.5057869461
 20
23.7034016983
 30
0.0
 10
12.4888103298
 20
23.613385136
 30
0.0
 10
12.4721387745
 20
23.5109164867
 30
0.0
 10
12.4557325876
 20
23.395329586
 30
0.0
 10
12.4395420728
 20
23.2658253679
 30
0.0
 10
12.4235200103
 20
23.12145083
 30
0.0
 10
12.407614116
 20
22.9610746942
 30
0.0
 10
12.3917688238
 20
22.7833573976
 30
0.0
 10
12.3759283328
 20
22.5867246025
 30
0.0
 10
12.3600345933
 20
22.3693443479
 30
0.0
 10
12.3440242644
 20
22.1291087928
 30
0.0
 10
12.3213147904
 20
21.75640746
 30
0.0
 10
12.3057569413
 20
21.4634114873
 30
0.0
 10
12.2955805486
 20
21.2586213123
 30
0.0
  0
LINE
  5
3D1
100
AcDbEntity
  8
0
100
AcDbLine
 62
7
  6
CONTINUOUS
 10
12.2648099501
 20
20.5964095162
 11
12.2638571257
 21
20.5746023217
  0
SPLINE
  5
3D2
100
AcDbEntity
  8
0
100
AcDbSpline
 62
7
  6
CONTINUOUS
 70
0
 71
3
 72
15
 73
11
 74
0
 42
0.0000001
 43
0.0000001
 44
0.0000000001
 40
0.0
 40
0.0
 40
0.0
 40
0.0
 40
0.1809259836
 40
0.3517247878
 40
0.5047119962
 40
0.6375014416
 40
0.7511357648
 40
0.8479350621
 40
0.930227078
 40
1.0
 40
1.0
 40
1.0
 40
1.0
 10
12.2191600632
 20
19.4957561519
 30
0.0
 10
12.210632799
 20
19.2856580456
 30
0.0
 10
12.1939278862
 20
18.8772268456
 30
0.0
 10
12.1677957709
 20
18.2912334886
 30
0.0
 10
12.1407355424
 20
17.7612896228
 30
0.0
 10
12.1130890391
 20
17.2979135928
 30
0.0
 10
12.0852139888
 20
16.8999889111
 30
0.0
 10
12.0572985864
 20
16.5609214185
 30
0.0
 10
12.0292914555
 20
16.2730411084
 30
0.0
 10
12.0090672323
 20
16.0974587748
 30
0.0
 10
11.9988169648
 20
16.0170195666
 30
0.0
  0
LINE
  5
3D3
100
AcDbEntity
  8
0
100
AcDbLine
 62
7
  6
CONTINUOUS
 10
12.6518027989
 20
24.0201083402
 11
12.6579296415
 21
24.0163182915
  0
SPLINE
  5
3D4
100
AcDbEntity
  8
0
100
AcDbSpline
 62
7
  6
CONTINUOUS
 70
0
 71
3
 72
9
 73
5
 74
0
 42
0.0000001
 43
0.0000001
 44
0.0000000001
 40
0.0
 40
0.0
 40
0.0
 40
0.0
 40
0.4568365233
 40
1.0
 40
1.0
 40
1.0
 40
1.0
 10
12.6579296415
 20
24.0163182915
 30
0.0
 10
12.6633919994
 20
24.0125254861
 30
0.0
 10
12.6742180461
 20
24.0025913542
 30
0.0
 10
12.6830451184
 20
23.990952989
 30
0.0
 10
12.6874566746
 20
23.9843914889
 30
0.0
  0
SPLINE
  5
3D5
100
AcDbEntity
  8
0
100
AcDbSpline
 62
7
  6
CONTINUOUS
 70
0
 71
3
 72
9
 73
5
 74
0
 42
0.0000001
 43
0.0000001
 44
0.0000000001
 40
0.0
 40
0.0
 40
0.0
 40
0.0
 40
0.4674647342
 40
1.0
 40
1.0
 40
1.0
 40
1.0
 10
12.6874566746
 20
23.9843914889
 30
0.0
 10
12.6916596932
 20
23.9781401557
 30
0.0
 10
12.6999075407
 20
23.9642646968
 30
0.0
 10
12.7070151228
 20
23.9497878579
 30
0.0
 10
12.7105699571
 20
23.9419773056
 30
0.0
  0
SPLINE
  5
3D6
100
AcDbEntity
  8
0
100
AcDbSpline
 62
7
  6
CONTINUOUS
 70
0
 71
3
 72
22
 73
18
 74
0
 42
0.0000001
 43
0.0000001
 44
0.0000000001
 40
0.0
 40
0.0
 40
0.0
 40
0.0
 40
0.022306797
 40
0.0485230674
 40
0.0788519253
 40
0.113497339
 40
0.1526870452
 40
0.1966782745
 40
0.2457721148
 40
0.3003239228
 40
0.3607488806
 40
0.4275303677
 40
0.5012372408
 40
0.5825370104
 40
0.672185871
 40
0.7710502088
 40
1.0
 40
1.0
 40
1.0
 40
1.0
 10
12.725905289
 20
23.9043477774
 30
0.0
 10
12.7325576472
 20
23.8862717166
 30
0.0
 10
12.7454255088
 20
23.8463606918
 30
0.0
 10
12.7628196305
 20
23.7805133689
 30
0.0
 10
12.7798462074
 20
23.7036178015
 30
0.0
 10
12.7965459174
 20
23.6152279208
 30
0.0
 10
12.8129473044
 20
23.5148102351
 30
0.0
 10
12.8290895718
 20
23.4017348482
 30
0.0
 10
12.8450240973
 20
23.2752494538
 30
0.0
 10
12.8607908975
 20
23.1344553212
 30
0.0
 10
12.876439448
 20
22.9782911687
 30
0.0
 10
12.8920243579
 20
22.805507079
 30
0.0
 10
12.907598804
 20
22.6146314744
 30
0.0
 10
12.9232157456
 20
22.4039545523
 30
0.0
 10
12.9389355956
 20
22.171507975
 30
0.0
 10
12.9612045813
 20
21.8117272273
 30
0.0
 10
12.9764702277
 20
21.5290754936
 30
0.0
 10
12.9864510401
 20
21.3316357702
 30
0.0
  0
LINE
  5
3D7
100
AcDbEntity
  8
0
100
AcDbLine
 62
7
  6
CONTINUOUS
 10
13.0208130834
 20
20.5979479866
 11
13.0218283434
 21
20.5747153574
  0
SPLINE
  5
3D8
100
AcDbEntity
  8
0
100
AcDbSpline
 62
7
  6
CONTINUOUS
 70
0
 71
3
 72
15
 73
11
 74
0
 42
0.0000001
 43
0.0000001
 44
0.0000000001
 40
0.0
 40
0.0
 40
0.0
 40
0.0
 40
0.1809266143
 40
0.3517092516
 40
0.5046804204
 40
0.6374606079
 40
0.7510934751
 40
0.8479009433
 40
0.9302071133
 40
1.0
 40
1.0
 40
1.0
 40
1.0
 10
13.0665862216
 20
19.494418445
 30
0.0
 10
13.075109768
 20
19.2844036803
 30
0.0
 10
13.0918050407
 20
18.876153874
 30
0.0
 10
13.1179397829
 20
18.2904323613
 30
0.0
 10
13.1449876768
 20
17.7607487445
 30
0.0
 10
13.1726270841
 20
17.2975895841
 30
0.0
 10
13.2004888967
 20
16.8998268886
 30
0.0
 10
13.2284050958
 20
16.5608719392
 30
0.0
 10
13.2563750077
 20
16.2730548883
 30
0.0
 10
13.2766192242
 20
16.0975058354
 30
0.0
 10
13.2868852081
 20
16.0170779673
 30
0.0
  0
SPLINE
  5
3D9
100
AcDbEntity
  8
0
100
AcDbSpline
 62
9
  6
CONTINUOUS
 70
0
 71
3
 72
13
 73
9
 74
0
 42
0.0000001
 43
0.0000001
 44
0.0000000001
 40
0.0
 40
0.0
 40
0.0
 40
0.0
 40
0.121230545
 40
0.242952102
 40
0.3658566436
 40
0.4904187849
 40
0.7435638243
 40
1.0
 40
1.0
 40
1.0
 40
1.0
 10
13.3146726964
 20
15.9754293973
 30
0.0
 10
13.3148417503
 20
15.9741215636
 30
0.0
 10
13.3148808477
 20
15.9714515338
 30
0.0
 10
13.3140295118
 20
15.9675320474
 30
0.0
 10
13.3123370713
 20
15.9638540921
 30
0.0
 10
13.309028816
 20
15.9594825494
 30
0.0
 10
13.3032108204
 20
15.9554148037
 30
0.0
 10
13.2976279213
 20
15.9542165608
 30
0.0
 10
13.294838813
 20
15.9541731184
 30
0.0
  0
SPLINE
  5
3DA
100
AcDbEntity
  8
0
100
AcDbSpline
 62
9
  6
CONTINUOUS
 70
0
 71
3
 72
13
 73
9
 74
0
 42
0.0000001
 43
0.0000001
 44
0.0000000001
 40
0.0
 40
0.0
 40
0.0
 40
0.0
 40
0.1212305717
 40
0.2429521526
 40
0.3658567139
 40
0.4904188623
 40
0.7435638714
 40
1.0
 40
1.0
 40
1.0
 40
1.0
 10
11.9710187206
 20
15.9754293765
 30
0.0
 10
11.9708496665
 20
15.9741215424
 30
0.0
 10
11.9708105688
 20
15.9714515118
 30
0.0
 10
11.9716619055
 20
15.9675320244
 30
0.0
 10
11.9733543467
 20
15.9638540684
 30
0.0
 10
11.9766626033
 20
15.9594825262
 30
0.0
 10
11.9824805986
 20
15.9554147804
 30
0.0
 10
11.9880634976
 20
15.9542165391
 30
0.0
 10
11.9908526056
 20
15.9541730969
 30
0.0
  0
LINE
  5
3DB
100
AcDbEntity
  8
0
100
AcDbLine
 62
7
  6
CONTINUOUS
 10
13.0781279241
 20
19.706645455
 11
13.0833005151
 21
19.7377094206
  0
SPLINE
  5
3DC
100
AcDbEntity
  8
0
100
AcDbSpline
 62
7
  6
CONTINUOUS
 70
0
 71
3
 72
28
 73
24
 74
0
 42
0.0000001
 43
0.0000001
 44
0.0000000001
 40
0.0
 40
0.0
 40
0.0
 40
0.0
 40
0.1479762702
 40
0.2746073458
 40
0.3839573948
 40
0.4792081031
 40
0.562635769
 40
0.6359456099
 40
0.7003933127
 40
0.7569639978
 40
0.8064246312
 40
0.8493921786
 40
0.8863962633
 40
0.902819099
 40
0.9179357785
 40
0.9317990451
 40
0.944464863
 40
0.9559986178
 40
0.966476928
 40
0.975992041
 40
0.9846560002
 40
0.9926031155
 40
1.0
 40
1.0
 40
1.0
 40
1.0
 10
13.1169302815
 20
19.9457692585
 30
0.0
 10
13.1345281426
 20
20.0574048436
 30
0.0
 10
13.165989484
 20
20.2647600766
 30
0.0
 10
13.2093992814
 20
20.5547687972
 30
0.0
 10
13.2478962116
 20
20.804796311
 30
0.0
 10
13.2831927618
 20
21.0219261621
 30
0.0
 10
13.316341963
 20
21.2115070159
 30
0.0
 10
13.3479919301
 20
21.3774499464
 30
0.0
 10
13.378601281
 20
21.5226854487
 30
0.0
 10
13.4085015464
 20
21.6494209582
 30
0.0
 10
13.4379091002
 20
21.7593733629
 30
0.0
 10
13.4670670982
 20
21.8538546851
 30
0.0
 10
13.492192429
 20
21.9231021434
 30
0.0
 10
13.5124894839
 20
21.9713668335
 30
0.0
 10
13.5271182654
 20
22.0028159168
 30
0.0
 10
13.5417914912
 20
22.0310487854
 30
0.0
 10
13.5565363048
 20
22.0561199103
 30
0.0
 10
13.5713775685
 20
22.0780802551
 30
0.0
 10
13.586332183
 20
22.0969858508
 30
0.0
 10
13.6014196988
 20
22.1128886736
 30
0.0
 10
13.6166616241
 20
22.1258382978
 30
0.0
 10
13.63208945
 20
22.1358493793
 30
0.0
 10
13.6428275241
 20
22.1406927361
 30
0.0
 10
13.6481609888
 20
22.1425549868
 30
0.0
  0
SPLINE
  5
3DD
100
AcDbEntity
  8
0
100
AcDbSpline
 62
7
  6
CONTINUOUS
 70
0
 71
3
 72
11
 73
7
 74
0
 42
0.0000001
 43
0.0000001
 44
0.0000000001
 40
0.0
 40
0.0
 40
0.0
 40
0.0
 40
0.2495563398
 40
0.4945833744
 40
0.7423827715
 40
1.0
 40
1.0
 40
1.0
 40
1.0
 10
13.6481609888
 20
22.1425549868
 30
0.0
 10
13.6529106095
 20
22.1442133805
 30
0.0
 10
13.662603411
 20
22.1467679155
 30
0.0
 10
13.6775852252
 20
22.1480678583
 30
0.0
 10
13.6927277579
 20
22.1467680819
 30
0.0
 10
13.7026491377
 20
22.1442499387
 30
0.0
 10
13.7075797751
 20
22.1426191707
 30
0.0
  0
SPLINE
  5
3DE
100
AcDbEntity
  8
0
100
AcDbSpline
 62
9
  6
CONTINUOUS
 70
0
 71
3
 72
22
 73
18
 74
0
 42
0.0000001
 43
0.0000001
 44
0.0000000001
 40
0.0
 40
0.0
 40
0.0
 40
0.0
 40
0.2307509622
 40
0.3301997244
 40
0.4202644233
 40
0.5018362988
 40
0.575694006
 40
0.6425177863
 40
0.7028845589
 40
0.7572901584
 40
0.8061568409
 40
0.8498438942
 40
0.8886553301
 40
0.9228552367
 40
0.9526708111
 40
0.9783129595
 40
1.0
 40
1.0
 40
1.0
 40
1.0
 10
13.0059213966
 20
21.3310279693
 30
0.0
 10
12.995750349
 20
21.5303129884
 30
0.0
 10
12.9801868233
 20
21.8154379236
 30
0.0
 10
12.9574331951
 20
22.1781547749
 30
0.0
 10
12.941376147
 20
22.412029778
 30
0.0
 10
12.9254154834
 20
22.6237246105
 30
0.0
 10
12.9094892249
 20
22.8152618096
 30
0.0
 10
12.8935423837
 20
22.9883902466
 30
0.0
 10
12.8775165647
 20
23.144610926
 30
0.0
 10
12.8613599756
 20
23.28519836
 30
0.0
 10
12.8450225133
 20
23.4112338758
 30
0.0
 10
12.8284549272
 20
23.5236256738
 30
0.0
 10
12.8116106407
 20
23.6231358394
 30
0.0
 10
12.794452842
 20
23.7103979927
 30
0.0
 10
12.7769455032
 20
23.7859487492
 30
0.0
 10
12.7590468712
 20
23.8502379082
 30
0.0
 10
12.7457553787
 20
23.8889933552
 30
0.0
 10
12.7388715979
 20
23.9064384113
 30
0.0
  0
SPLINE
  5
3DF
100
AcDbEntity
  8
0
100
AcDbSpline
 62
7
  6
CONTINUOUS
 70
0
 71
3
 72
11
 73
7
 74
0
 42
0.0000001
 43
0.0000001
 44
0.0000000001
 40
0.0
 40
0.0
 40
0.0
 40
0.0
 40
0.2370456093
 40
0.4999981632
 40
0.7629525084
 40
1.0
 40
1.0
 40
1.0
 40
1.0
 10
27.1577628494
 20
16.6623628017
 30
0.0
 10
27.1597688374
 20
16.661204644
 30
0.0
 10
27.1644399569
 20
16.6595223175
 30
0.0
 10
27.1719049474
 20
16.6586943271
 30
0.0
 10
27.179369952
 20
16.6595223223
 30
0.0
 10
27.1840411167
 20
16.6612046348
 30
0.0
 10
27.1860471206
 20
16.6623628017
 30
0.0
  0
SPLINE
  5
3E0
100
AcDbEntity
  8
0
100
AcDbSpline
 62
7
  6
CONTINUOUS
 70
0
 71
3
 72
11
 73
7
 74
0
 42
0.0000001
 43
0.0000001
 44
0.0000000001
 40
0.0
 40
0.0
 40
0.0
 40
0.0
 40
0.2881219045
 40
0.5482405344
 40
0.7822643261
 40
1.0
 40
1.0
 40
1.0
 40
1.0
 10
28.9255298023
 20
17.6666535963
 30
0.0
 10
28.9264023764
 20
17.6671573772
 30
0.0
 10
28.927987919
 20
17.6682579474
 30
0.0
 10
28.9298899503
 20
17.6702554372
 30
0.0
 10
28.9311091656
 20
17.6724656247
 30
0.0
 10
28.9313895031
 20
17.674057062
 30
0.0
 10
28.9313895126
 20
17.6748184833
 30
0.0
  0
SPLINE
  5
3E1
100
AcDbEntity
  8
0
100
AcDbSpline
 62
7
  6
CONTINUOUS
 70
0
 71
3
 72
26
 73
22
 74
0
 42
0.0000001
 43
0.0000001
 44
0.0000000001
 40
0.0
 40
0.0
 40
0.0
 40
0.0
 40
0.0213300623
 40
0.0428894332
 40
0.064893372
 40
0.0875366515
 40
0.1109855351
 40
0.135370372
 40
0.1872686658
 40
0.24370165
 40
0.3046444536
 40
0.3697280016
 40
0.4383199181
 40
0.5096011699
 40
0.5826213185
 40
0.6563465698
 40
0.7297197191
 40
0.8016939815
 40
0.871275842
 40
0.9376346167
 40
1.0
 40
1.0
 40
1.0
 40
1.0
 10
23.3634812753
 20
17.8707777414
 30
0.0
 10
23.3634798642
 20
17.8568756671
 30
0.0
 10
23.3652726877
 20
17.8288894045
 30
0.0
 10
23.3733215968
 20
17.7872609897
 30
0.0
 10
23.3866523601
 20
17.7461111511
 30
0.0
 10
23.4051963586
 20
17.7056848567
 30
0.0
 10
23.4288372818
 20
17.6662010315
 30
0.0
 10
23.4677392538
 20
17.6140086162
 30
0.0
 10
23.5291113836
 20
17.5523758988
 30
0.0
 10
23.6184796085
 20
17.4870758776
 30
0.0
 10
23.7232136864
 20
17.4301041937
 30
0.0
 10
23.8410985324
 20
17.3826173471
 30
0.0
 10
23.9696600202
 20
17.3455648476
 30
0.0
 10
24.1061797512
 20
17.3197216949
 30
0.0
 10
24.2477588381
 20
17.3056437731
 30
0.0
 10
24.3913799913
 20
17.3036227247
 30
0.0
 10
24.5339810881
 20
17.3137018333
 30
0.0
 10
24.6725147257
 20
17.3356678682
 30
0.0
 10
24.8040627413
 20
17.3690563503
 30
0.0
 10
24.9257769407
 20
17.4131738631
 30
0.0
 10
25.001240962
 20
17.450370796
 30
0.0
 10
25.0364425058
 20
17.4706944169
 30
0.0
  0
SPLINE
  5
3E2
100
AcDbEntity
  8
0
100
AcDbSpline
 62
7
  6
CONTINUOUS
 70
0
 71
3
 72
15
 73
11
 74
0
 42
0.0000001
 43
0.0000001
 44
0.0000000001
 40
0.0
 40
0.0
 40
0.0
 40
0.0
 40
0.1080096311
 40
0.2180564159
 40
0.332000524
 40
0.4513517618
 40
0.5772565417
 40
0.7104990089
 40
0.8514749761
 40
1.0
 40
1.0
 40
1.0
 40
1.0
 10
23.1784792659
 20
17.8707777416
 30
0.0
 10
23.1784791495
 20
17.8928323033
 30
0.0
 10
23.1823164636
 20
17.9374458115
 30
0.0
 10
23.199399955
 20
18.0033482568
 30
0.0
 10
23.2276323628
 20
18.0678210063
 30
0.0
 10
23.2666017518
 20
18.1302322734
 30
0.0
 10
23.3159162289
 20
18.1899985552
 30
0.0
 10
23.3750554426
 20
18.2466133984
 30
0.0
 10
23.4434341668
 20
18.2995191312
 30
0.0
 10
23.4934341372
 20
18.3312232859
 30
0.0
 10
23.5196984602
 20
18.3463869999
 30
0.0
  0
SPLINE
  5
3E3
100
AcDbEntity
  8
0
100
AcDbSpline
 62
7
  6
CONTINUOUS
 70
0
 71
3
 72
11
 73
7
 74
0
 42
0.0000001
 43
0.0000001
 44
0.0000000001
 40
0.0
 40
0.0
 40
0.0
 40
0.0
 40
0.2286305082
 40
0.4667514984
 40
0.7221427735
 40
1.0
 40
1.0
 40
1.0
 40
1.0
 10
23.9034798819
 20
16.5316970345
 30
0.0
 10
23.9034793308
 20
16.5442994738
 30
0.0
 10
23.9068762631
 20
16.5701361927
 30
0.0
 10
23.921761064
 20
16.6074333538
 30
0.0
 10
23.9459348041
 20
16.6427632191
 30
0.0
 10
23.9668715423
 20
16.663629352
 30
0.0
 10
23.9785008728
 20
16.6735960485
 30
0.0
  0
SPLINE
  5
3E4
100
AcDbEntity
  8
0
100
AcDbSpline
 62
7
  6
CONTINUOUS
 70
0
 71
3
 72
9
 73
5
 74
0
 42
0.0000001
 43
0.0000001
 44
0.0000000001
 40
0.0
 40
0.0
 40
0.0
 40
0.0
 40
0.2490465541
 40
1.0
 40
1.0
 40
1.0
 40
1.0
 10
25.7494071514
 20
16.352094101
 30
0.0
 10
25.7494071514
 20
16.3529516816
 30
0.0
 10
25.7491760496
 20
16.3563915462
 30
0.0
 10
25.7480500142
 20
16.3597689289
 30
0.0
 10
25.7467719971
 20
16.3620169098
 30
0.0
  0
SPLINE
  5
3E5
100
AcDbEntity
  8
0
100
AcDbSpline
 62
7
  6
CONTINUOUS
 70
0
 71
3
 72
11
 73
7
 74
0
 42
0.0000001
 43
0.0000001
 44
0.0000000001
 40
0.0
 40
0.0
 40
0.0
 40
0.0
 40
0.2177350471
 40
0.451759849
 40
0.7118788704
 40
1.0
 40
1.0
 40
1.0
 40
1.0
 10
22.9375467233
 20
16.041825479
 30
0.0
 10
22.9375467139
 20
16.0410640492
 30
0.0
 10
22.9378270229
 20
16.0394725788
 30
0.0
 10
22.9390462532
 20
16.0372623542
 30
0.0
 10
22.9409482892
 20
16.0352648143
 30
0.0
 10
22.9425338495
 20
16.0341642211
 30
0.0
 10
22.9434064335
 20
16.0336604344
 30
0.0
  0
SPLINE
  5
3E6
100
AcDbEntity
  8
0
100
AcDbSpline
 62
7
  6
CONTINUOUS
 70
0
 71
3
 72
26
 73
22
 74
0
 42
0.0000001
 43
0.0000001
 44
0.0000000001
 40
0.0
 40
0.0
 40
0.0
 40
0.0
 40
0.0213300623
 40
0.0428894332
 40
0.064893372
 40
0.0875366515
 40
0.1109855351
 40
0.135370372
 40
0.1872686658
 40
0.24370165
 40
0.3046444536
 40
0.3697280016
 40
0.4383199181
 40
0.5096011699
 40
0.5826213185
 40
0.6563465698
 40
0.7297197191
 40
0.8016939815
 40
0.871275842
 40
0.9376346167
 40
1.0
 40
1.0
 40
1.0
 40
1.0
 10
29.0203355248
 20
21.1367640651
 30
0.0
 10
29.0203341137
 20
21.1228619908
 30
0.0
 10
29.0221269372
 20
21.0948757282
 30
0.0
 10
29.0301758463
 20
21.0532473134
 30
0.0
 10
29.0435066096
 20
21.0120974748
 30
0.0
 10
29.062050608
 20
20.9716711805
 30
0.0
 10
29.0856915313
 20
20.9321873552
 30
0.0
 10
29.1245935033
 20
20.8799949399
 30
0.0
 10
29.1859656331
 20
20.8183622225
 30
0.0
 10
29.275333858
 20
20.7530622013
 30
0.0
 10
29.3800679359
 20
20.6960905174
 30
0.0
 10
29.4979527819
 20
20.6486036708
 30
0.0
 10
29.6265142697
 20
20.6115511713
 30
0.0
 10
29.7630340006
 20
20.5857080186
 30
0.0
 10
29.9046130876
 20
20.5716300968
 30
0.0
 10
30.0482342408
 20
20.5696090484
 30
0.0
 10
30.1908353376
 20
20.579688157
 30
0.0
 10
30.3293689752
 20
20.601654192
 30
0.0
 10
30.4609169908
 20
20.635042674
 30
0.0
 10
30.5826311902
 20
20.6791601869
 30
0.0
 10
30.6580952114
 20
20.7163571197
 30
0.0
 10
30.6932967553
 20
20.7366807406
 30
0.0
  0
SPLINE
  5
3E7
100
AcDbEntity
  8
0
100
AcDbSpline
 62
7
  6
CONTINUOUS
 70
0
 71
3
 72
15
 73
11
 74
0
 42
0.0000001
 43
0.0000001
 44
0.0000000001
 40
0.0
 40
0.0
 40
0.0
 40
0.0
 40
0.1080096311
 40
0.2180564159
 40
0.332000524
 40
0.4513517618
 40
0.5772565417
 40
0.7104990089
 40
0.8514749761
 40
1.0
 40
1.0
 40
1.0
 40
1.0
 10
28.8353335154
 20
21.1367640653
 30
0.0
 10
28.835333399
 20
21.158818627
 30
0.0
 10
28.839170713
 20
21.2034321352
 30
0.0
 10
28.8562542045
 20
21.2693345805
 30
0.0
 10
28.8844866123
 20
21.33380733
 30
0.0
 10
28.9234560012
 20
21.3962185971
 30
0.0
 10
28.9727704784
 20
21.4559848789
 30
0.0
 10
29.0319096921
 20
21.5125997222
 30
0.0
 10
29.1002884163
 20
21.5655054549
 30
0.0
 10
29.1502883867
 20
21.5972096096
 30
0.0
 10
29.1765527097
 20
21.6123733236
 30
0.0
  0
SPLINE
  5
3E8
100
AcDbEntity
  8
0
100
AcDbSpline
 62
7
  6
CONTINUOUS
 70
0
 71
3
 72
11
 73
7
 74
0
 42
0.0000001
 43
0.0000001
 44
0.0000000001
 40
0.0
 40
0.0
 40
0.0
 40
0.0
 40
0.2286305082
 40
0.4667514984
 40
0.7221427735
 40
1.0
 40
1.0
 40
1.0
 40
1.0
 10
29.5603341314
 20
19.7976833582
 30
0.0
 10
29.5603335803
 20
19.8102857975
 30
0.0
 10
29.5637305126
 20
19.8361225164
 30
0.0
 10
29.5786153135
 20
19.8734196775
 30
0.0
 10
29.6027890536
 20
19.9087495428
 30
0.0
 10
29.6237257918
 20
19.9296156757
 30
0.0
 10
29.6353551223
 20
19.9395823722
 30
0.0
  0
SPLINE
  5
3E9
100
AcDbEntity
  8
0
100
AcDbSpline
 62
7
  6
CONTINUOUS
 70
0
 71
3
 72
11
 73
7
 74
0
 42
0.0000001
 43
0.0000001
 44
0.0000000001
 40
0.0
 40
0.0
 40
0.0
 40
0.0
 40
0.2881219045
 40
0.5482405344
 40
0.7822643261
 40
1.0
 40
1.0
 40
1.0
 40
1.0
 10
31.4004035365
 20
19.2996467581
 30
0.0
 10
31.4012761106
 20
19.300150539
 30
0.0
 10
31.4028616531
 20
19.3012511093
 30
0.0
 10
31.4047636845
 20
19.3032485991
 30
0.0
 10
31.4059828997
 20
19.3054587865
 30
0.0
 10
31.4062632373
 20
19.3070502239
 30
0.0
 10
31.4062632467
 20
19.3078116451
 30
0.0
  0
SPLINE
  5
3EA
100
AcDbEntity
  8
0
100
AcDbSpline
 62
7
  6
CONTINUOUS
 70
0
 71
3
 72
11
 73
7
 74
0
 42
0.0000001
 43
0.0000001
 44
0.0000000001
 40
0.0
 40
0.0
 40
0.0
 40
0.0
 40
0.2370456093
 40
0.4999981632
 40
0.7629525084
 40
1.0
 40
1.0
 40
1.0
 40
1.0
 10
29.9861899741
 20
18.4994801088
 30
0.0
 10
29.9881959622
 20
18.4983219511
 30
0.0
 10
29.9928670816
 20
18.4966396246
 30
0.0
 10
30.0003320722
 20
18.4958116341
 30
0.0
 10
30.0077970768
 20
18.4966396294
 30
0.0
 10
30.0124682414
 20
18.4983219419
 30
0.0
 10
30.0144742454
 20
18.4994801088
 30
0.0
  0
SPLINE
  5
3EB
100
AcDbEntity
  8
0
100
AcDbSpline
 62
7
  6
CONTINUOUS
 70
0
 71
3
 72
9
 73
5
 74
0
 42
0.0000001
 43
0.0000001
 44
0.0000000001
 40
0.0
 40
0.0
 40
0.0
 40
0.0
 40
0.2490465541
 40
1.0
 40
1.0
 40
1.0
 40
1.0
 10
31.4062614009
 20
19.6180804247
 30
0.0
 10
31.4062614009
 20
19.6189380053
 30
0.0
 10
31.4060302991
 20
19.6223778699
 30
0.0
 10
31.4049042637
 20
19.6257552526
 30
0.0
 10
31.4036262465
 20
19.6280032335
 30
0.0
  0
SPLINE
  5
3EC
100
AcDbEntity
  8
0
100
AcDbSpline
 62
7
  6
CONTINUOUS
 70
0
 71
3
 72
11
 73
7
 74
0
 42
0.0000001
 43
0.0000001
 44
0.0000000001
 40
0.0
 40
0.0
 40
0.0
 40
0.0
 40
0.2177350471
 40
0.451759849
 40
0.7118788704
 40
1.0
 40
1.0
 40
1.0
 40
1.0
 10
28.5944009728
 20
19.3078118028
 30
0.0
 10
28.5944009633
 20
19.307050373
 30
0.0
 10
28.5946812724
 20
19.3054589025
 30
0.0
 10
28.5959005027
 20
19.3032486779
 30
0.0
 10
28.5978025387
 20
19.301251138
 30
0.0
 10
28.599388099
 20
19.3001505448
 30
0.0
 10
28.600260683
 20
19.2996467581
 30
0.0
  0
SPLINE
  5
3ED
100
AcDbEntity
  8
0
100
AcDbSpline
 62
7
  6
CONTINUOUS
 70
0
 71
3
 72
13
 73
9
 74
0
 42
0.0000001
 43
0.0000001
 44
0.0000000001
 40
0.0
 40
0.0
 40
0.0
 40
0.0
 40
0.2774905979
 40
0.5327578697
 40
0.653670438
 40
0.7711258055
 40
0.8861814538
 40
1.0
 40
1.0
 40
1.0
 40
1.0
 10
30.3651242722
 20
19.9397447947
 30
0.0
 10
30.3767686352
 20
19.9297789636
 30
0.0
 10
30.3977361224
 20
19.908908226
 30
0.0
 10
30.4183010841
 20
19.8789022935
 30
0.0
 10
30.4297657614
 20
19.8541043442
 30
0.0
 10
30.435838352
 20
19.8355009597
 30
0.0
 10
30.4395067205
 20
19.8166787219
 30
0.0
 10
30.4403298131
 20
19.8040225685
 30
0.0
 10
30.4403300881
 20
19.7977359868
 30
0.0
  0
SPLINE
  5
3EE
100
AcDbEntity
  8
0
100
AcDbSpline
 62
7
  6
CONTINUOUS
 70
0
 71
3
 72
16
 73
12
 74
0
 42
0.0000001
 43
0.0000001
 44
0.0000000001
 40
0.0
 40
0.0
 40
0.0
 40
0.0
 40
0.0546059722
 40
0.1111988617
 40
0.2295828214
 40
0.3537961759
 40
0.4822435858
 40
0.613051279
 40
0.7442579577
 40
0.8738785363
 40
1.0
 40
1.0
 40
1.0
 40
1.0
 10
29.1765527097
 20
21.6123733236
 30
0.0
 10
29.197659733
 20
21.6245594692
 30
0.0
 10
29.2414818155
 20
21.6479451361
 30
0.0
 10
29.3346787979
 20
21.69065702
 30
0.0
 10
29.4606861099
 20
21.7357276233
 30
0.0
 10
29.6216920069
 20
21.7755358742
 30
0.0
 10
29.7911765289
 20
21.8010280228
 30
0.0
 10
29.9653502671
 20
21.8116107379
 30
0.0
 10
30.1403132828
 20
21.8070552244
 30
0.0
 10
30.3121206903
 20
21.7874695918
 30
0.0
 10
30.4240867161
 20
21.7642531244
 30
0.0
 10
30.4785678001
 20
21.7500905178
 30
0.0
  0
SPLINE
  5
3EF
100
AcDbEntity
  8
0
100
AcDbSpline
 62
7
  6
CONTINUOUS
 70
0
 71
3
 72
11
 73
7
 74
0
 42
0.0000001
 43
0.0000001
 44
0.0000000001
 40
0.0
 40
0.0
 40
0.0
 40
0.0
 40
0.2761024503
 40
0.5344840846
 40
0.7751603726
 40
1.0
 40
1.0
 40
1.0
 40
1.0
 10
30.6932967553
 20
20.7366807406
 30
0.0
 10
30.7206507595
 20
20.7524735823
 30
0.0
 10
30.7720923372
 20
20.7857967577
 30
0.0
 10
30.8404292946
 20
20.8426865896
 30
0.0
 10
30.8963673517
 20
20.9041344048
 30
0.0
 10
30.9256853369
 20
20.9489611542
 30
0.0
 10
30.9376972577
 20
20.9717053603
 30
0.0
  0
SPLINE
  5
3F0
100
AcDbEntity
  8
0
100
AcDbSpline
 62
7
  6
CONTINUOUS
 70
0
 71
3
 72
9
 73
5
 74
0
 42
0.0000001
 43
0.0000001
 44
0.0000000001
 40
0.0
 40
0.0
 40
0.0
 40
0.0
 40
0.4999928589
 40
1.0
 40
1.0
 40
1.0
 40
1.0
 10
32.6679952487
 20
20.0300453736
 30
0.0
 10
32.669015575
 20
20.0267819275
 30
0.0
 10
32.6693545902
 20
20.0195994109
 30
0.0
 10
32.6660480574
 20
20.013208723
 30
0.0
 10
32.6637518203
 20
20.0106751269
 30
0.0
  0
SPLINE
  5
3F1
100
AcDbEntity
  8
0
100
AcDbSpline
 62
7
  6
CONTINUOUS
 70
0
 71
3
 72
8
 73
4
 74
0
 42
0.0000001
 43
0.0000001
 44
0.0000000001
 40
0.0
 40
0.0
 40
0.0
 40
0.0
 40
1.0
 40
1.0
 40
1.0
 40
1.0
 10
32.6637518203
 20
20.0106751269
 30
0.0
 10
32.6623506084
 20
20.0091290734
 30
0.0
 10
32.6606836649
 20
20.0077921997
 30
0.0
 10
32.6588768897
 20
20.0067485333
 30
0.0
  0
SPLINE
  5
3F2
100
AcDbEntity
  8
0
100
AcDbSpline
 62
7
  6
CONTINUOUS
 70
0
 71
3
 72
11
 73
7
 74
0
 42
0.0000001
 43
0.0000001
 44
0.0000000001
 40
0.0
 40
0.0
 40
0.0
 40
0.0
 40
0.2881219045
 40
0.5482405344
 40
0.7822643261
 40
1.0
 40
1.0
 40
1.0
 40
1.0
 10
25.743549287
 20
16.0336604344
 30
0.0
 10
25.7444218611
 20
16.0341642153
 30
0.0
 10
25.7460074036
 20
16.0352647856
 30
0.0
 10
25.747909435
 20
16.0372622754
 30
0.0
 10
25.7491286502
 20
16.0394724628
 30
0.0
 10
25.7494089878
 20
16.0410639002
 30
0.0
 10
25.7494089972
 20
16.0418253214
 30
0.0
  0
SPLINE
  5
3F3
100
AcDbEntity
  8
0
100
AcDbSpline
 62
7
  6
CONTINUOUS
 70
0
 71
3
 72
11
 73
7
 74
0
 42
0.0000001
 43
0.0000001
 44
0.0000000001
 40
0.0
 40
0.0
 40
0.0
 40
0.0
 40
0.2370456093
 40
0.4999981632
 40
0.7629525084
 40
1.0
 40
1.0
 40
1.0
 40
1.0
 10
24.3293357246
 20
15.2334937851
 30
0.0
 10
24.3313417127
 20
15.2323356274
 30
0.0
 10
24.3360128321
 20
15.2306533009
 30
0.0
 10
24.3434778227
 20
15.2298253104
 30
0.0
 10
24.3509428273
 20
15.2306533056
 30
0.0
 10
24.3556139919
 20
15.2323356182
 30
0.0
 10
24.3576199959
 20
15.2334937851
 30
0.0
  0
SPLINE
  5
3F4
100
AcDbEntity
  8
0
100
AcDbSpline
 62
7
  6
CONTINUOUS
 70
0
 71
3
 72
13
 73
9
 74
0
 42
0.0000001
 43
0.0000001
 44
0.0000000001
 40
0.0
 40
0.0
 40
0.0
 40
0.0
 40
0.2774905979
 40
0.5327578697
 40
0.653670438
 40
0.7711258055
 40
0.8861814538
 40
1.0
 40
1.0
 40
1.0
 40
1.0
 10
24.7082700227
 20
16.673758471
 30
0.0
 10
24.7199143857
 20
16.6637926399
 30
0.0
 10
24.7408818729
 20
16.6429219023
 30
0.0
 10
24.7614468346
 20
16.6129159698
 30
0.0
 10
24.7729115119
 20
16.5881180205
 30
0.0
 10
24.7789841025
 20
16.569514636
 30
0.0
 10
24.7826524711
 20
16.5506923982
 30
0.0
 10
24.7834755636
 20
16.5380362448
 30
0.0
 10
24.7834758386
 20
16.5317496631
 30
0.0
  0
SPLINE
  5
3F5
100
AcDbEntity
  8
0
100
AcDbSpline
 62
7
  6
CONTINUOUS
 70
0
 71
3
 72
28
 73
24
 74
0
 42
0.0000001
 43
0.0000001
 44
0.0000000001
 40
0.0
 40
0.0
 40
0.0
 40
0.0
 40
0.0623642519
 40
0.128709557
 40
0.1982856093
 40
0.2702532266
 40
0.3436189545
 40
0.4173390819
 40
0.4903536108
 40
0.5616308237
 40
0.6302182508
 40
0.6952957988
 40
0.7562343808
 40
0.7850406096
 40
0.8127008985
 40
0.8392216033
 40
0.8646411972
 40
0.889024481
 40
0.9124700483
 40
0.9351119136
 40
0.9571138189
 40
0.9786712053
 40
1.0
 40
1.0
 40
1.0
 40
1.0
 10
23.5196984602
 20
18.3463869999
 30
0.0
 10
23.5615480258
 20
18.3705488579
 30
0.0
 10
23.6512535256
 20
18.4147702942
 30
0.0
 10
23.795944018
 20
18.467210115
 30
0.0
 10
23.9523188953
 20
18.5068989098
 30
0.0
 10
24.1170020635
 20
18.5330187216
 30
0.0
 10
24.2865227441
 20
18.5449996549
 30
0.0
 10
24.4572564915
 20
18.5425945344
 30
0.0
 10
24.6255653354
 20
18.5258586465
 30
0.0
 10
24.7878601747
 20
18.495144172
 30
0.0
 10
24.9406966284
 20
18.4510927505
 30
0.0
 10
25.0808210215
 20
18.3946384206
 30
0.0
 10
25.1865152942
 20
18.3371584589
 30
0.0
 10
25.2616524019
 20
18.2857530533
 30
0.0
 10
25.3120111166
 20
18.2456657562
 30
0.0
 10
25.3571394022
 20
18.2035193703
 30
0.0
 10
25.3968073571
 20
18.1595498992
 30
0.0
 10
25.4307887947
 20
18.1139772011
 30
0.0
 10
25.45887817
 20
18.0670334289
 30
0.0
 10
25.4809308145
 20
18.0189804367
 30
0.0
 10
25.4967820189
 20
17.9700626904
 30
0.0
 10
25.5063369078
 20
17.9205733592
 30
0.0
 10
25.5084763674
 20
17.8873046232
 30
0.0
 10
25.5084764546
 20
17.8707777414
 30
0.0
  0
SPLINE
  5
3F6
100
AcDbEntity
  8
0
100
AcDbSpline
 62
7
  6
CONTINUOUS
 70
0
 71
3
 72
15
 73
11
 74
0
 42
0.0000001
 43
0.0000001
 44
0.0000000001
 40
0.0
 40
0.0
 40
0.0
 40
0.0
 40
0.1485055862
 40
0.2894896413
 40
0.4227462759
 40
0.5486512582
 40
0.6679959459
 40
0.781939434
 40
0.8919892528
 40
1.0
 40
1.0
 40
1.0
 40
1.0
 10
25.0364425058
 20
17.4706944169
 30
0.0
 10
25.0585331743
 20
17.4834484703
 30
0.0
 10
25.1005904415
 20
17.5101186597
 30
0.0
 10
25.1581119119
 20
17.5546218987
 30
0.0
 10
25.2078643696
 20
17.6022473744
 30
0.0
 10
25.249348176
 20
17.652524075
 30
0.0
 10
25.2821290081
 20
17.7050236307
 30
0.0
 10
25.3058724787
 20
17.7592591425
 30
0.0
 10
25.320253033
 20
17.8146948745
 30
0.0
 10
25.3234725621
 20
17.8522252431
 30
0.0
 10
25.3234744452
 20
17.8707777416
 30
0.0
  0
SPLINE
  5
3F7
100
AcDbEntity
  8
0
100
AcDbSpline
 62
7
  6
CONTINUOUS
 70
0
 71
3
 72
9
 73
5
 74
0
 42
0.0000001
 43
0.0000001
 44
0.0000000001
 40
0.0
 40
0.0
 40
0.0
 40
0.0
 40
0.2490465541
 40
1.0
 40
1.0
 40
1.0
 40
1.0
 10
28.9213876667
 20
18.0024077709
 30
0.0
 10
28.9221303533
 20
18.0019789806
 30
0.0
 10
28.9249938126
 20
18.0000589083
 30
0.0
 10
28.927355694
 20
17.9973950417
 30
0.0
 10
28.9286634941
 20
17.9951642559
 30
0.0
  0
SPLINE
  5
3F8
100
AcDbEntity
  8
0
100
AcDbSpline
 62
7
  6
CONTINUOUS
 70
0
 71
3
 72
9
 73
5
 74
0
 42
0.0000001
 43
0.0000001
 44
0.0000000001
 40
0.0
 40
0.0
 40
0.0
 40
0.0
 40
0.4811445132
 40
1.0
 40
1.0
 40
1.0
 40
1.0
 10
31.0163599318
 20
20.8076680132
 30
0.0
 10
30.989280972
 20
20.7797992489
 30
0.0
 10
30.9281238917
 20
20.7265241553
 30
0.0
 10
30.8604010177
 20
20.6821065639
 30
0.0
 10
30.8241115098
 20
20.6611548068
 30
0.0
  0
SPLINE
  5
3F9
100
AcDbEntity
  8
0
100
AcDbSpline
 62
9
  6
CONTINUOUS
 70
0
 71
3
 72
10
 73
6
 74
0
 42
0.0000001
 43
0.0000001
 44
0.0000000001
 40
0.0
 40
0.0
 40
0.0
 40
0.0
 40
0.2276770403
 40
0.4783355701
 40
1.0
 40
1.0
 40
1.0
 40
1.0
 10
28.9255298023
 20
17.976922297
 30
0.0
 10
28.9255298023
 20
17.9784357581
 30
0.0
 10
28.9251419025
 20
17.9816189204
 30
0.0
 10
28.9232160259
 20
17.9879982887
 30
0.0
 10
28.9205793808
 20
17.9925324173
 30
0.0
 10
28.9183951439
 20
17.99522577
 30
0.0
  0
SPLINE
  5
3FA
100
AcDbEntity
  8
0
100
AcDbSpline
 62
9
  6
CONTINUOUS
 70
0
 71
3
 72
9
 73
5
 74
0
 42
0.0000001
 43
0.0000001
 44
0.0000000001
 40
0.0
 40
0.0
 40
0.0
 40
0.0
 40
0.2647113174
 40
1.0
 40
1.0
 40
1.0
 40
1.0
 10
28.9166471488
 20
17.9972032216
 30
0.0
 10
28.9162336973
 20
17.9976320556
 30
0.0
 10
28.9146240968
 20
17.9992036645
 30
0.0
 10
28.9128206223
 20
18.0005898772
 30
0.0
 10
28.9113876667
 20
18.0014171945
 30
0.0
  0
SPLINE
  5
3FB
100
AcDbEntity
  8
0
100
AcDbSpline
 62
7
  6
CONTINUOUS
 70
0
 71
3
 72
23
 73
19
 74
0
 42
0.0000001
 43
0.0000001
 44
0.0000000001
 40
0.0
 40
0.0
 40
0.0
 40
0.0
 40
0.0428131487
 40
0.0873914463
 40
0.1351746841
 40
0.1870812555
 40
0.2435257731
 40
0.3044812254
 40
0.3695749922
 40
0.4381829347
 40
0.5094772719
 40
0.5825124889
 40
0.6562579378
 40
0.7296532054
 40
0.8016332267
 40
0.8712449556
 40
0.9376468701
 40
1.0
 40
1.0
 40
1.0
 40
1.0
 10
29.6378333453
 20
19.7977076412
 30
0.0
 10
29.6378327391
 20
19.7873884218
 30
0.0
 10
29.6405991845
 20
19.7662359412
 30
0.0
 10
29.6527241223
 20
19.7356892955
 30
0.0
 10
29.6724147768
 20
19.7067362359
 30
0.0
 10
29.6990943988
 20
19.6799405156
 30
0.0
 10
29.7321555125
 20
19.6557793752
 30
0.0
 10
29.7708954073
 20
19.6347132542
 30
0.0
 10
29.814496549
 20
19.6171393795
 30
0.0
 10
29.8620513223
 20
19.6034410429
 30
0.0
 10
29.9125472196
 20
19.5938756241
 30
0.0
 10
29.9649170377
 20
19.5886709116
 30
0.0
 10
30.0180437325
 20
19.5879207079
 30
0.0
 10
30.070791034
 20
19.5916503574
 30
0.0
 10
30.1220365447
 20
19.5997726344
 30
0.0
 10
30.1707046751
 20
19.6121210504
 30
0.0
 10
30.2157253793
 20
19.6284531064
 30
0.0
 10
30.2436428865
 20
19.6422052043
 30
0.0
 10
30.2566583179
 20
19.6497196672
 30
0.0
  0
SPLINE
  5
3FC
100
AcDbEntity
  8
0
100
AcDbSpline
 62
7
  6
CONTINUOUS
 70
0
 71
3
 72
23
 73
19
 74
0
 42
0.0000001
 43
0.0000001
 44
0.0000000001
 40
0.0
 40
0.0
 40
0.0
 40
0.0
 40
0.0428131487
 40
0.0873914463
 40
0.1351746841
 40
0.1870812555
 40
0.2435257731
 40
0.3044812254
 40
0.3695749922
 40
0.4381829347
 40
0.5094772719
 40
0.5825124889
 40
0.6562579378
 40
0.7296532054
 40
0.8016332267
 40
0.8712449556
 40
0.9376468701
 40
1.0
 40
1.0
 40
1.0
 40
1.0
 10
29.5603336095
 20
19.6344078908
 30
0.0
 10
29.5603328736
 20
19.6218824934
 30
0.0
 10
29.563690766
 20
19.5962077583
 30
0.0
 10
29.5784079319
 20
19.5591304504
 30
0.0
 10
29.6023083125
 20
19.5239874264
 30
0.0
 10
29.6346918537
 20
19.4914629658
 30
0.0
 10
29.6748212056
 20
19.4621363403
 30
0.0
 10
29.7218434226
 20
19.4365664279
 30
0.0
 10
29.7747661877
 20
19.41523538
 30
0.0
 10
29.8324878436
 20
19.3986084334
 30
0.0
 10
29.8937794155
 20
19.3869979941
 30
0.0
 10
29.9573455396
 20
19.38068055
 30
0.0
 10
30.0218303552
 20
19.3797699579
 30
0.0
 10
30.0858546661
 20
19.3842969807
 30
0.0
 10
30.1480561135
 20
19.3941557446
 30
0.0
 10
30.2071291546
 20
19.4091441668
 30
0.0
 10
30.2617749749
 20
19.4289679036
 30
0.0
 10
30.2956610525
 20
19.4456601053
 30
0.0
 10
30.3114590935
 20
19.4547811085
 30
0.0
  0
SPLINE
  5
3FD
100
AcDbEntity
  8
0
100
AcDbSpline
 62
7
  6
CONTINUOUS
 70
0
 71
3
 72
9
 73
5
 74
0
 42
0.0000001
 43
0.0000001
 44
0.0000000001
 40
0.0
 40
0.0
 40
0.0
 40
0.0
 40
0.2576662251
 40
1.0
 40
1.0
 40
1.0
 40
1.0
 10
26.4923099741
 20
18.3878039127
 30
0.0
 10
26.4921996078
 20
18.3880376795
 30
0.0
 10
26.4918144818
 20
18.3889643917
 30
0.0
 10
26.4916201489
 20
18.3899727456
 30
0.0
 10
26.4916056829
 20
18.3907173708
 30
0.0
  0
SPLINE
  5
3FE
100
AcDbEntity
  8
0
100
AcDbSpline
 62
7
  6
CONTINUOUS
 70
0
 71
3
 72
15
 73
11
 74
0
 42
0.0000001
 43
0.0000001
 44
0.0000000001
 40
0.0
 40
0.0
 40
0.0
 40
0.0
 40
0.1080198438
 40
0.2180702008
 40
0.3319840788
 40
0.4513190231
 40
0.5772529451
 40
0.7106052448
 40
0.8516019961
 40
1.0
 40
1.0
 40
1.0
 40
1.0
 10
30.4403300881
 20
19.7977359868
 30
0.0
 10
30.4403304524
 20
19.7894047422
 30
0.0
 10
30.4388774544
 20
19.7725524516
 30
0.0
 10
30.4324296555
 20
19.7476608317
 30
0.0
 10
30.4217818008
 20
19.7233040992
 30
0.0
 10
30.4070568322
 20
19.6997349017
 30
0.0
 10
30.3884320646
 20
19.6771457629
 30
0.0
 10
30.3660736495
 20
19.6557638171
 30
0.0
 10
30.3402481442
 20
19.6357778594
 30
0.0
 10
30.3213711787
 20
19.6238031698
 30
0.0
 10
30.3114590935
 20
19.6180804247
 30
0.0
  0
SPLINE
  5
3FF
100
AcDbEntity
  8
0
100
AcDbSpline
 62
7
  6
CONTINUOUS
 70
0
 71
3
 72
15
 73
11
 74
0
 42
0.0000001
 43
0.0000001
 44
0.0000000001
 40
0.0
 40
0.0
 40
0.0
 40
0.0
 40
0.1080096311
 40
0.2180564159
 40
0.332000524
 40
0.4513517618
 40
0.5772565417
 40
0.7104990089
 40
0.8514749761
 40
1.0
 40
1.0
 40
1.0
 40
1.0
 10
25.5084764546
 20
17.8707777414
 30
0.0
 10
25.508476571
 20
17.8487231797
 30
0.0
 10
25.504639257
 20
17.8041096715
 30
0.0
 10
25.4875557655
 20
17.7382072263
 30
0.0
 10
25.4593233577
 20
17.6737344767
 30
0.0
 10
25.4203539688
 20
17.6113232096
 30
0.0
 10
25.3710394917
 20
17.5515569278
 30
0.0
 10
25.3119002779
 20
17.4949420846
 30
0.0
 10
25.2435215537
 20
17.4420363518
 30
0.0
 10
25.1935215834
 20
17.4103321971
 30
0.0
 10
25.1672572603
 20
17.3951684831
 30
0.0
  0
SPLINE
  5
400
100
AcDbEntity
  8
0
100
AcDbSpline
 62
7
  6
CONTINUOUS
 70
0
 71
3
 72
23
 73
19
 74
0
 42
0.0000001
 43
0.0000001
 44
0.0000000001
 40
0.0
 40
0.0
 40
0.0
 40
0.0
 40
0.0428131487
 40
0.0873914463
 40
0.1351746841
 40
0.1870812555
 40
0.2435257731
 40
0.3044812254
 40
0.3695749922
 40
0.4381829347
 40
0.5094772719
 40
0.5825124889
 40
0.6562579378
 40
0.7296532054
 40
0.8016332267
 40
0.8712449556
 40
0.9376468701
 40
1.0
 40
1.0
 40
1.0
 40
1.0
 10
23.9809790958
 20
16.5317213175
 30
0.0
 10
23.9809784896
 20
16.5214020981
 30
0.0
 10
23.983744935
 20
16.5002496175
 30
0.0
 10
23.9958698728
 20
16.4697029718
 30
0.0
 10
24.0155605273
 20
16.4407499122
 30
0.0
 10
24.0422401493
 20
16.4139541918
 30
0.0
 10
24.0753012631
 20
16.3897930515
 30
0.0
 10
24.1140411578
 20
16.3687269305
 30
0.0
 10
24.1576422995
 20
16.3511530558
 30
0.0
 10
24.2051970728
 20
16.3374547191
 30
0.0
 10
24.2556929701
 20
16.3278893004
 30
0.0
 10
24.3080627882
 20
16.3226845879
 30
0.0
 10
24.361189483
 20
16.3219343842
 30
0.0
 10
24.4139367845
 20
16.3256640337
 30
0.0
 10
24.4651822952
 20
16.3337863107
 30
0.0
 10
24.5138504256
 20
16.3461347267
 30
0.0
 10
24.5588711298
 20
16.3624667827
 30
0.0
 10
24.586788637
 20
16.3762188806
 30
0.0
 10
24.5998040684
 20
16.3837333435
 30
0.0
  0
SPLINE
  5
401
100
AcDbEntity
  8
0
100
AcDbSpline
 62
9
  6
CONTINUOUS
 70
0
 71
3
 72
10
 73
6
 74
0
 42
0.0000001
 43
0.0000001
 44
0.0000000001
 40
0.0
 40
0.0
 40
0.0
 40
0.0
 40
0.2276618839
 40
0.4782320476
 40
1.0
 40
1.0
 40
1.0
 40
1.0
 10
28.6144028186
 20
19.6344103563
 30
0.0
 10
28.6130988158
 20
19.6336574899
 30
0.0
 10
28.6105486377
 20
19.631741693
 30
0.0
 10
28.6060038861
 20
19.6269143798
 30
0.0
 10
28.6033995815
 20
19.6223931409
 30
0.0
 10
28.6021553699
 20
19.6191743227
 30
0.0
  0
SPLINE
  5
402
100
AcDbEntity
  8
0
100
AcDbSpline
 62
9
  6
CONTINUOUS
 70
0
 71
3
 72
9
 73
5
 74
0
 42
0.0000001
 43
0.0000001
 44
0.0000000001
 40
0.0
 40
0.0
 40
0.0
 40
0.0
 40
0.2652946006
 40
1.0
 40
1.0
 40
1.0
 40
1.0
 10
28.6014325433
 20
19.6170880148
 30
0.0
 10
28.601243646
 20
19.6164724167
 30
0.0
 10
28.6006067373
 20
19.6141312134
 30
0.0
 10
28.600260683
 20
19.6116987493
 30
0.0
 10
28.600260683
 20
19.6099154589
 30
0.0
  0
SPLINE
  5
403
100
AcDbEntity
  8
0
100
AcDbSpline
 62
9
  6
CONTINUOUS
 70
0
 71
3
 72
11
 73
7
 74
0
 42
0.0000001
 43
0.0000001
 44
0.0000000001
 40
0.0
 40
0.0
 40
0.0
 40
0.0
 40
0.2881180929
 40
0.5481997965
 40
0.7821891408
 40
1.0
 40
1.0
 40
1.0
 40
1.0
 10
28.600260683
 20
19.6099154589
 30
0.0
 10
28.5993884616
 20
19.6104190361
 30
0.0
 10
28.5978034148
 20
19.6115185691
 30
0.0
 10
28.5959009706
 20
19.6135139231
 30
0.0
 10
28.5946821714
 20
19.6157232785
 30
0.0
 10
28.5944012509
 20
19.6173139846
 30
0.0
 10
28.5944006383
 20
19.6180753707
 30
0.0
  0
SPLINE
  5
404
100
AcDbEntity
  8
0
100
AcDbSpline
 62
9
  6
CONTINUOUS
 70
0
 71
3
 72
9
 73
5
 74
0
 42
0.0000001
 43
0.0000001
 44
0.0000000001
 40
0.0
 40
0.0
 40
0.0
 40
0.0
 40
0.2453056231
 40
1.0
 40
1.0
 40
1.0
 40
1.0
 10
28.604405972
 20
19.6354052652
 30
0.0
 10
28.604628307
 20
19.6355333993
 30
0.0
 10
28.6055642317
 20
19.6360039034
 30
0.0
 10
28.6066082679
 20
19.6362487741
 30
0.0
 10
28.6073953415
 20
19.6363104695
 30
0.0
  0
SPLINE
  5
405
100
AcDbEntity
  8
0
100
AcDbSpline
 62
9
  6
CONTINUOUS
 70
0
 71
3
 72
9
 73
5
 74
0
 42
0.0000001
 43
0.0000001
 44
0.0000000001
 40
0.0
 40
0.0
 40
0.0
 40
0.0
 40
0.2257499235
 40
1.0
 40
1.0
 40
1.0
 40
1.0
 10
28.6073953415
 20
19.6363104695
 30
0.0
 10
28.6079448516
 20
19.6363535433
 30
0.0
 10
28.6103996024
 20
19.6362891813
 30
0.0
 10
28.6127656624
 20
19.6353555689
 30
0.0
 10
28.6144028186
 20
19.6344103563
 30
0.0
  0
SPLINE
  5
406
100
AcDbEntity
  8
0
100
AcDbSpline
 62
7
  6
CONTINUOUS
 70
0
 71
3
 72
14
 73
10
 74
0
 42
0.0000001
 43
0.0000001
 44
0.0000000001
 40
0.0
 40
0.0
 40
0.0
 40
0.0
 40
0.1230663068
 40
0.2585047143
 40
0.4001309474
 40
0.5416271674
 40
0.6768117064
 40
0.8004805474
 40
1.0
 40
1.0
 40
1.0
 40
1.0
 10
27.0912963001
 20
17.1678567206
 30
0.0
 10
27.0899937209
 20
17.1671050715
 30
0.0
 10
27.0870662879
 20
17.1658532734
 30
0.0
 10
27.0822901991
 20
17.164720043
 30
0.0
 10
27.0771680685
 20
17.1643410063
 30
0.0
 10
27.0720539194
 20
17.1647077849
 30
0.0
 10
27.0672568406
 20
17.1658340489
 30
0.0
 10
27.0621213901
 20
17.1680158344
 30
0.0
 10
27.0588823847
 20
17.1707974783
 30
0.0
 10
27.0578543122
 20
17.1730082925
 30
0.0
  0
SPLINE
  5
407
100
AcDbEntity
  8
0
100
AcDbSpline
 62
9
  6
CONTINUOUS
 70
0
 71
3
 72
11
 73
7
 74
0
 42
0.0000001
 43
0.0000001
 44
0.0000000001
 40
0.0
 40
0.0
 40
0.0
 40
0.0
 40
0.2177670053
 40
0.4517776554
 40
0.7118830878
 40
1.0
 40
1.0
 40
1.0
 40
1.0
 10
31.4062639703
 20
19.6180804247
 30
0.0
 10
31.4062639703
 20
19.6173188366
 30
0.0
 10
31.405983807
 20
19.6157271925
 30
0.0
 10
31.4047645326
 20
19.6135167277
 30
0.0
 10
31.4028618798
 20
19.6115196561
 30
0.0
 10
31.4012761611
 20
19.6104192689
 30
0.0
 10
31.4004035365
 20
19.6099154589
 30
0.0
  0
SPLINE
  5
408
100
AcDbEntity
  8
0
100
AcDbSpline
 62
9
  6
CONTINUOUS
 70
0
 71
3
 72
15
 73
11
 74
0
 42
0.0000001
 43
0.0000001
 44
0.0000000001
 40
0.0
 40
0.0
 40
0.0
 40
0.0
 40
0.1217497617
 40
0.2573582619
 40
0.4001077182
 40
0.5431955881
 40
0.6798864445
 40
0.8041886215
 40
0.9114528303
 40
1.0
 40
1.0
 40
1.0
 40
1.0
 10
27.1056062149
 20
17.5111621494
 30
0.0
 10
27.1043032252
 20
17.5105078868
 30
0.0
 10
27.1013875948
 20
17.5094437872
 30
0.0
 10
27.0966696419
 20
17.5085247063
 30
0.0
 10
27.0916125357
 20
17.5082753027
 30
0.0
 10
27.0865540887
 20
17.5086829944
 30
0.0
 10
27.0818144997
 20
17.5097338703
 30
0.0
 10
27.0776802753
 20
17.5113361798
 30
0.0
 10
27.0744234409
 20
17.5134038246
 30
0.0
 10
27.0728019208
 20
17.5151718141
 30
0.0
 10
27.0722751385
 20
17.5160921187
 30
0.0
  0
SPLINE
  5
409
100
AcDbEntity
  8
0
100
AcDbSpline
 62
9
  6
CONTINUOUS
 70
0
 71
3
 72
10
 73
6
 74
0
 42
0.0000001
 43
0.0000001
 44
0.0000000001
 40
0.0
 40
0.0
 40
0.0
 40
0.0
 40
0.2276151772
 40
0.4780985325
 40
1.0
 40
1.0
 40
1.0
 40
1.0
 10
31.4004035365
 20
19.6099154589
 30
0.0
 10
31.4004035365
 20
19.6114181369
 30
0.0
 10
31.4000215888
 20
19.6145779594
 30
0.0
 10
31.3981193507
 20
19.6209166928
 30
0.0
 10
31.3955142927
 20
19.6254263522
 30
0.0
 10
31.393355346
 20
19.6281115847
 30
0.0
  0
SPLINE
  5
40A
100
AcDbEntity
  8
0
100
AcDbSpline
 62
9
  6
CONTINUOUS
 70
0
 71
3
 72
9
 73
5
 74
0
 42
0.0000001
 43
0.0000001
 44
0.0000000001
 40
0.0
 40
0.0
 40
0.0
 40
0.0
 40
0.2647392292
 40
1.0
 40
1.0
 40
1.0
 40
1.0
 10
31.391519707
 20
19.630197028
 30
0.0
 10
31.3911062675
 20
19.6306257972
 30
0.0
 10
31.3894969573
 20
19.6321970542
 30
0.0
 10
31.3876940187
 20
19.633583234
 30
0.0
 10
31.3862614009
 20
19.6344103563
 30
0.0
  0
SPLINE
  5
40B
100
AcDbEntity
  8
0
100
AcDbSpline
 62
9
  6
CONTINUOUS
 70
0
 71
3
 72
11
 73
7
 74
0
 42
0.0000001
 43
0.0000001
 44
0.0000000001
 40
0.0
 40
0.0
 40
0.0
 40
0.0
 40
0.2880181037
 40
0.5481290279
 40
0.7822167462
 40
1.0
 40
1.0
 40
1.0
 40
1.0
 10
31.3862614009
 20
19.6344103563
 30
0.0
 10
31.3871316932
 20
19.6349128198
 30
0.0
 10
31.3888729039
 20
19.6357342107
 30
0.0
 10
31.3915467121
 20
19.6363841114
 30
0.0
 10
31.3940649588
 20
19.636339877
 30
0.0
 10
31.3955816968
 20
19.6357926277
 30
0.0
 10
31.3962411427
 20
19.6354150918
 30
0.0
  0
SPLINE
  5
40C
100
AcDbEntity
  8
0
100
AcDbSpline
 62
7
  6
CONTINUOUS
 70
0
 71
3
 72
29
 73
25
 74
0
 42
0.0000001
 43
0.0000001
 44
0.0000000001
 40
0.0
 40
0.0
 40
0.0
 40
0.0
 40
0.140051952
 40
0.2105473567
 40
0.28122392
 40
0.3519166785
 40
0.422361621
 40
0.4921477054
 40
0.5266164891
 40
0.5606682805
 40
0.5941826533
 40
0.6270292412
 40
0.6590748805
 40
0.6901988072
 40
0.720313282
 40
0.7493774919
 40
0.7774076086
 40
0.8044738241
 40
0.8306817215
 40
0.8561548951
 40
0.8810241842
 40
0.9054104917
 40
0.9531221093
 40
1.0
 40
1.0
 40
1.0
 40
1.0
 10
30.7673451574
 20
21.2864675778
 30
0.0
 10
30.7057249981
 20
21.3961908126
 30
0.0
 10
30.6086564751
 20
21.5587529165
 30
0.0
 10
30.4682871099
 20
21.7689233012
 30
0.0
 10
30.356421103
 20
21.9230289619
 30
0.0
 10
30.2374895861
 20
22.0717241744
 30
0.0
 10
30.1109134289
 20
22.2129329802
 30
0.0
 10
29.998154037
 20
22.3224052997
 30
0.0
 10
29.9033771045
 20
22.4028535449
 30
0.0
 10
29.8305426908
 20
22.4586120653
 30
0.0
 10
29.7558337588
 20
22.5092981726
 30
0.0
 10
29.679557693
 20
22.5541593586
 30
0.0
 10
29.6021810144
 20
22.5925007069
 30
0.0
 10
29.5243220601
 20
22.6237879327
 30
0.0
 10
29.4467048121
 20
22.6477638444
 30
0.0
 10
29.370048582
 20
22.6644742467
 30
0.0
 10
29.2949615626
 20
22.6741977858
 30
0.0
 10
29.2218909177
 20
22.6774037945
 30
0.0
 10
29.1511086277
 20
22.6746351553
 30
0.0
 10
29.082744973
 20
22.6664371775
 30
0.0
 10
29.0168175945
 20
22.6533697278
 30
0.0
 10
28.9327326889
 20
22.6303029908
 30
0.0
 10
28.8327133469
 20
22.5916896897
 30
0.0
 10
28.7574463429
 20
22.5518041507
 30
0.0
 10
28.7212800993
 20
22.5302117506
 30
0.0
  0
LINE
  5
40D
100
AcDbEntity
  8
0
100
AcDbLine
 62
7
  6
CONTINUOUS
 10
28.7212800993
 20
22.5302117506
 11
28.7192163732
 21
22.5289769343
  0
SPLINE
  5
40E
100
AcDbEntity
  8
0
100
AcDbSpline
 62
7
  6
CONTINUOUS
 70
0
 71
3
 72
27
 73
23
 74
0
 42
0.0000001
 43
0.0000001
 44
0.0000000001
 40
0.0
 40
0.0
 40
0.0
 40
0.0
 40
0.0271589677
 40
0.0543214885
 40
0.0816360942
 40
0.1091886175
 40
0.1370303652
 40
0.1651897375
 40
0.1936788408
 40
0.222500805
 40
0.2811317031
 40
0.3410536956
 40
0.3714829919
 40
0.4022119357
 40
0.4645378577
 40
0.5279824269
 40
0.5924951359
 40
0.658029677
 40
0.7245511253
 40
0.7920304155
 40
0.8604435691
 40
1.0
 40
1.0
 40
1.0
 40
1.0
 10
28.7192163732
 20
22.5289769343
 30
0.0
 10
28.6770383471
 20
22.503684695
 30
0.0
 10
28.5956246768
 20
22.4480531595
 30
0.0
 10
28.4824715895
 20
22.35261908
 30
0.0
 10
28.3774440583
 20
22.2473562316
 30
0.0
 10
28.2795136508
 20
22.1338922749
 30
0.0
 10
28.1879833754
 20
22.0133083023
 30
0.0
 10
28.102256394
 20
21.8865044484
 30
0.0
 10
28.0217936518
 20
21.7542301184
 30
0.0
 10
27.9203626624
 20
21.5703479105
 30
0.0
 10
27.8050045716
 20
21.3294372207
 30
0.0
 10
27.7037370307
 20
21.0792300061
 30
0.0
 10
27.6294797942
 20
20.8729129725
 30
0.0
 10
27.5588848113
 20
20.6607206266
 30
0.0
 10
27.4785839651
 20
20.3888452058
 30
0.0
 10
27.3940929337
 20
20.0547167416
 30
0.0
 10
27.3202151842
 20
19.7121469198
 30
0.0
 10
27.2562454596
 20
19.3619356795
 30
0.0
 10
27.2016958015
 20
19.0047067151
 30
0.0
 10
27.1561609269
 20
18.6409659117
 30
0.0
 10
27.1067086213
 20
18.1445968955
 30
0.0
 10
27.0828509835
 20
17.7685828092
 30
0.0
 10
27.0722747366
 20
17.5160920864
 30
0.0
  0
SPLINE
  5
40F
100
AcDbEntity
  8
0
100
AcDbSpline
 62
7
  6
CONTINUOUS
 70
0
 71
3
 72
15
 73
11
 74
0
 42
0.0000001
 43
0.0000001
 44
0.0000000001
 40
0.0
 40
0.0
 40
0.0
 40
0.0
 40
0.148401996
 40
0.2894011716
 40
0.4227528261
 40
0.548685325
 40
0.6680190356
 40
0.781932764
 40
0.8919827694
 40
1.0
 40
1.0
 40
1.0
 40
1.0
 10
30.3114590935
 20
19.4547811085
 30
0.0
 10
30.3213704385
 20
19.4605034262
 30
0.0
 10
30.3402459425
 20
19.4724770865
 30
0.0
 10
30.3660695012
 20
19.4924608636
 30
0.0
 10
30.3884260677
 20
19.5138402063
 30
0.0
 10
30.4070499243
 20
19.5364258557
 30
0.0
 10
30.4217749065
 20
19.5599914739
 30
0.0
 10
30.4324233872
 20
19.5843447462
 30
0.0
 10
30.4388746979
 20
19.6092324159
 30
0.0
 10
30.4403301206
 20
19.6260826251
 30
0.0
 10
30.44033061
 20
19.6344128218
 30
0.0
  0
SPLINE
  5
410
100
AcDbEntity
  8
0
100
AcDbSpline
 62
9
  6
CONTINUOUS
 70
0
 71
3
 72
9
 73
5
 74
0
 42
0.0000001
 43
0.0000001
 44
0.0000000001
 40
0.0
 40
0.0
 40
0.0
 40
0.0
 40
0.5057242597
 40
1.0
 40
1.0
 40
1.0
 40
1.0
 10
26.7414754825
 20
21.573490223
 30
0.0
 10
26.7657533477
 20
21.6809196962
 30
0.0
 10
26.8179926482
 20
21.8924179198
 30
0.0
 10
26.8797205673
 20
22.1013731674
 30
0.0
 10
26.912894751
 20
22.203779119
 30
0.0
  0
LINE
  5
411
100
AcDbEntity
  8
0
100
AcDbLine
 62
9
  6
CONTINUOUS
 10
26.912894751
 20
22.203779119
 11
26.9144011916
 21
22.2084231176
  0
SPLINE
  5
412
100
AcDbEntity
  8
0
100
AcDbSpline
 62
9
  6
CONTINUOUS
 70
0
 71
3
 72
16
 73
12
 74
0
 42
0.0000001
 43
0.0000001
 44
0.0000000001
 40
0.0
 40
0.0
 40
0.0
 40
0.0
 40
0.1364518888
 40
0.2696929727
 40
0.3995685927
 40
0.5259718322
 40
0.5878665489
 40
0.6489016881
 40
0.7684450686
 40
0.8851256069
 40
1.0
 40
1.0
 40
1.0
 40
1.0
 10
26.9144011916
 20
22.2084231176
 30
0.0
 10
26.9431592237
 20
22.2969580197
 30
0.0
 10
27.0039612739
 20
22.4706958396
 30
0.0
 10
27.1072883036
 20
22.7230913101
 30
0.0
 10
27.2226146926
 20
22.9626901067
 30
0.0
 10
27.3303352758
 20
23.1514075137
 30
0.0
 10
27.4238562214
 20
23.2935526085
 30
0.0
 10
27.5210069867
 20
23.4274877048
 30
0.0
 10
27.6523337974
 20
23.5826026832
 30
0.0
 10
27.8286615315
 20
23.7456660436
 30
0.0
 10
27.959883152
 20
23.8351111386
 30
0.0
 10
28.0282881365
 20
23.8733513962
 30
0.0
  0
SPLINE
  5
413
100
AcDbEntity
  8
0
100
AcDbSpline
 62
9
  6
CONTINUOUS
 70
0
 71
3
 72
33
 73
29
 74
0
 42
0.0000001
 43
0.0000001
 44
0.0000000001
 40
0.0
 40
0.0
 40
0.0
 40
0.0
 40
0.0199892865
 40
0.0401319452
 40
0.0605973723
 40
0.0815814367
 40
0.1033019795
 40
0.1259778864
 40
0.149814682
 40
0.1749841495
 40
0.1881129019
 40
0.2016152679
 40
0.2297519744
 40
0.2593884378
 40
0.2904465153
 40
0.3227965546
 40
0.356264499
 40
0.3906609794
 40
0.4257879745
 40
0.461468764
 40
0.4975429243
 40
0.5703336627
 40
0.6433416251
 40
0.7160569796
 40
0.7881941186
 40
0.8596027199
 40
0.9302134942
 40
1.0
 40
1.0
 40
1.0
 40
1.0
 10
28.0344515126
 20
23.8767754343
 30
0.0
 10
28.0709616688
 20
23.8969315661
 30
0.0
 10
28.1462372029
 20
23.9339534575
 30
0.0
 10
28.2649982831
 20
23.9779595107
 30
0.0
 10
28.3898741017
 20
24.0093785468
 30
0.0
 10
28.5207785533
 20
24.0269712292
 30
0.0
 10
28.6574637855
 20
24.0294756664
 30
0.0
 10
28.7994672174
 20
24.0157789276
 30
0.0
 10
28.9461031663
 20
23.984945407
 30
0.0
 10
29.0696755894
 20
23.9449715713
 30
0.0
 10
29.1698320111
 20
23.9042805701
 30
0.0
 10
29.2735659533
 20
23.8562749853
 30
0.0
 10
29.4040455915
 20
23.7845065247
 30
0.0
 10
29.558577612
 20
23.6818521766
 30
0.0
 10
29.711791574
 20
23.5623705813
 30
0.0
 10
29.862316623
 20
23.4272703636
 30
0.0
 10
30.0089535329
 20
23.2780573601
 30
0.0
 10
30.150692853
 20
23.1164208157
 30
0.0
 10
30.2867625563
 20
22.9440833229
 30
0.0
 10
30.4166607808
 20
22.7627394805
 30
0.0
 10
30.5817249311
 20
22.5102638325
 30
0.0
 10
30.7707730363
 20
22.1808535312
 30
0.0
 10
30.9719346673
 20
21.7714607721
 30
0.0
 10
31.1498397656
 20
21.3529790892
 30
0.0
 10
31.3067522508
 20
20.9297962897
 30
0.0
 10
31.4446650035
 20
20.5046904755
 30
0.0
 10
31.5655142101
 20
20.0795477087
 30
0.0
 10
31.636158536
 20
19.7952174793
 30
0.0
 10
31.6690801266
 20
19.6533899124
 30
0.0
  0
SPLINE
  5
414
100
AcDbEntity
  8
0
100
AcDbSpline
 62
7
  6
CONTINUOUS
 70
0
 71
3
 72
25
 73
21
 74
0
 42
0.0000001
 43
0.0000001
 44
0.0000000001
 40
0.0
 40
0.0
 40
0.0
 40
0.0
 40
0.0623427469
 40
0.1287314206
 40
0.198327375
 40
0.2702916282
 40
0.3436707202
 40
0.4174006898
 40
0.4904222282
 40
0.5617058231
 40
0.6303045024
 40
0.6953907521
 40
0.7563386788
 40
0.8127772015
 40
0.8646776818
 40
0.9124562382
 40
0.9351007705
 40
0.9571058412
 40
0.9786672422
 40
1.0
 40
1.0
 40
1.0
 40
1.0
 10
30.3114590935
 20
19.6180804247
 30
0.0
 10
30.2956615735
 20
19.6089597223
 30
0.0
 10
30.2617772822
 20
19.592268166
 30
0.0
 10
30.2071351239
 20
19.5724454857
 30
0.0
 10
30.1480672039
 20
19.5574571369
 30
0.0
 10
30.0858713902
 20
19.5475986115
 30
0.0
 10
30.0218525877
 20
19.5430691363
 30
0.0
 10
29.9573724206
 20
19.5439786316
 30
0.0
 10
29.8938091659
 20
19.5502925823
 30
0.0
 10
29.832518612
 20
19.5619003962
 30
0.0
 10
29.7747963469
 20
19.5785246223
 30
0.0
 10
29.7218713735
 20
19.5998521365
 30
0.0
 10
29.674847613
 20
19.6254196681
 30
0.0
 10
29.634713046
 20
19.6547447637
 30
0.0
 10
29.6023294322
 20
19.6872583627
 30
0.0
 10
29.5820492377
 20
19.7170833947
 30
0.0
 10
29.570748827
 20
19.7417118088
 30
0.0
 10
29.5647619604
 20
19.7601870836
 30
0.0
 10
29.5611457392
 20
19.7788762849
 30
0.0
 10
29.5603344044
 20
19.7914414217
 30
0.0
 10
29.5603341314
 20
19.7976833582
 30
0.0
  0
SPLINE
  5
415
100
AcDbEntity
  8
0
100
AcDbSpline
 62
7
  6
CONTINUOUS
 70
0
 71
3
 72
15
 73
11
 74
0
 42
0.0000001
 43
0.0000001
 44
0.0000000001
 40
0.0
 40
0.0
 40
0.0
 40
0.0
 40
0.148401996
 40
0.2894011716
 40
0.4227528261
 40
0.548685325
 40
0.6680190356
 40
0.781932764
 40
0.8919827694
 40
1.0
 40
1.0
 40
1.0
 40
1.0
 10
30.2566583179
 20
19.6497196672
 30
0.0
 10
30.2648239147
 20
19.6544340767
 30
0.0
 10
30.280374756
 20
19.6642987399
 30
0.0
 10
30.301649847
 20
19.6807626472
 30
0.0
 10
30.3200686092
 20
19.6983763103
 30
0.0
 10
30.3354121274
 20
19.7169838055
 30
0.0
 10
30.3475435048
 20
19.7363986614
 30
0.0
 10
30.3563164008
 20
19.7564624369
 30
0.0
 10
30.3616314011
 20
19.776966483
 30
0.0
 10
30.362830471
 20
19.7908487576
 30
0.0
 10
30.3628308742
 20
19.7977117038
 30
0.0
  0
SPLINE
  5
416
100
AcDbEntity
  8
0
100
AcDbSpline
 62
7
  6
CONTINUOUS
 70
0
 71
3
 72
23
 73
19
 74
0
 42
0.0000001
 43
0.0000001
 44
0.0000000001
 40
0.0
 40
0.0
 40
0.0
 40
0.0
 40
0.0428131487
 40
0.0873914463
 40
0.1351746841
 40
0.1870812555
 40
0.2435257731
 40
0.3044812254
 40
0.3695749922
 40
0.4381829347
 40
0.5094772719
 40
0.5825124889
 40
0.6562579378
 40
0.7296532054
 40
0.8016332267
 40
0.8712449556
 40
0.9376468701
 40
1.0
 40
1.0
 40
1.0
 40
1.0
 10
23.90347936
 20
16.3684215671
 30
0.0
 10
23.9034786242
 20
16.3558961697
 30
0.0
 10
23.9068365165
 20
16.3302214346
 30
0.0
 10
23.9215536824
 20
16.2931441267
 30
0.0
 10
23.945454063
 20
16.2580011027
 30
0.0
 10
23.9778376042
 20
16.2254766421
 30
0.0
 10
24.0179669561
 20
16.1961500166
 30
0.0
 10
24.0649891731
 20
16.1705801042
 30
0.0
 10
24.1179119382
 20
16.1492490563
 30
0.0
 10
24.1756335941
 20
16.1326221097
 30
0.0
 10
24.236925166
 20
16.1210116704
 30
0.0
 10
24.3004912901
 20
16.1146942263
 30
0.0
 10
24.3649761058
 20
16.1137836342
 30
0.0
 10
24.4290004166
 20
16.118310657
 30
0.0
 10
24.4912018641
 20
16.1281694209
 30
0.0
 10
24.5502749051
 20
16.1431578431
 30
0.0
 10
24.6049207254
 20
16.1629815799
 30
0.0
 10
24.638806803
 20
16.1796737816
 30
0.0
 10
24.654604844
 20
16.1887947848
 30
0.0
  0
SPLINE
  5
417
100
AcDbEntity
  8
0
100
AcDbSpline
 62
7
  6
CONTINUOUS
 70
0
 71
3
 72
28
 73
24
 74
0
 42
0.0000001
 43
0.0000001
 44
0.0000000001
 40
0.0
 40
0.0
 40
0.0
 40
0.0
 40
0.0623642519
 40
0.128709557
 40
0.1982856093
 40
0.2702532266
 40
0.3436189545
 40
0.4173390819
 40
0.4903536108
 40
0.5616308237
 40
0.6302182508
 40
0.6952957988
 40
0.7562343808
 40
0.7850406096
 40
0.8127008985
 40
0.8392216033
 40
0.8646411972
 40
0.889024481
 40
0.9124700483
 40
0.9351119136
 40
0.9571138189
 40
0.9786712053
 40
1.0
 40
1.0
 40
1.0
 40
1.0
 10
30.8241115098
 20
20.6611548068
 30
0.0
 10
30.7822619442
 20
20.6369929488
 30
0.0
 10
30.6925564444
 20
20.5927715125
 30
0.0
 10
30.547865952
 20
20.5403316917
 30
0.0
 10
30.3914910747
 20
20.5006428969
 30
0.0
 10
30.2268079065
 20
20.4745230851
 30
0.0
 10
30.0572872259
 20
20.4625421519
 30
0.0
 10
29.8865534786
 20
20.4649472723
 30
0.0
 10
29.7182446346
 20
20.4816831602
 30
0.0
 10
29.5559497953
 20
20.5123976347
 30
0.0
 10
29.4031133417
 20
20.5564490563
 30
0.0
 10
29.2629889485
 20
20.6129033861
 30
0.0
 10
29.1572946758
 20
20.6703833478
 30
0.0
 10
29.0821575682
 20
20.7217887534
 30
0.0
 10
29.0317988534
 20
20.7618760505
 30
0.0
 10
28.9866705678
 20
20.8040224364
 30
0.0
 10
28.9470026129
 20
20.8479919075
 30
0.0
 10
28.9130211753
 20
20.8935646057
 30
0.0
 10
28.8849318
 20
20.9405083778
 30
0.0
 10
28.8628791555
 20
20.98856137
 30
0.0
 10
28.8470279511
 20
21.0374791163
 30
0.0
 10
28.8374730622
 20
21.0869684475
 30
0.0
 10
28.8353336026
 20
21.1202371836
 30
0.0
 10
28.8353335154
 20
21.1367640653
 30
0.0
  0
SPLINE
  5
418
100
AcDbEntity
  8
0
100
AcDbSpline
 62
7
  6
CONTINUOUS
 70
0
 71
3
 72
15
 73
11
 74
0
 42
0.0000001
 43
0.0000001
 44
0.0000000001
 40
0.0
 40
0.0
 40
0.0
 40
0.0
 40
0.1485055862
 40
0.2894896413
 40
0.4227462759
 40
0.5486512582
 40
0.6679959459
 40
0.781939434
 40
0.8919892528
 40
1.0
 40
1.0
 40
1.0
 40
1.0
 10
29.3073674642
 20
21.5368473899
 30
0.0
 10
29.2852767957
 20
21.5240933365
 30
0.0
 10
29.2432195285
 20
21.497423147
 30
0.0
 10
29.1856980581
 20
21.4529199081
 30
0.0
 10
29.1359456004
 20
21.4052944323
 30
0.0
 10
29.094461794
 20
21.3550177318
 30
0.0
 10
29.061680962
 20
21.302518176
 30
0.0
 10
29.0379374913
 20
21.2482826642
 30
0.0
 10
29.023556937
 20
21.1928469322
 30
0.0
 10
29.020337408
 20
21.1553165636
 30
0.0
 10
29.0203355248
 20
21.1367640651
 30
0.0
  0
SPLINE
  5
419
100
AcDbEntity
  8
0
100
AcDbSpline
 62
7
  6
CONTINUOUS
 70
0
 71
3
 72
15
 73
11
 74
0
 42
0.0000001
 43
0.0000001
 44
0.0000000001
 40
0.0
 40
0.0
 40
0.0
 40
0.0
 40
0.1080198438
 40
0.2180702008
 40
0.3319840788
 40
0.4513190231
 40
0.5772529451
 40
0.7106052448
 40
0.8516019961
 40
1.0
 40
1.0
 40
1.0
 40
1.0
 10
24.7834758386
 20
16.5317496631
 30
0.0
 10
24.7834762029
 20
16.5234184185
 30
0.0
 10
24.782023205
 20
16.5065661279
 30
0.0
 10
24.7755754061
 20
16.481674508
 30
0.0
 10
24.7649275513
 20
16.4573177755
 30
0.0
 10
24.7502025827
 20
16.433748578
 30
0.0
 10
24.7315778151
 20
16.4111594392
 30
0.0
 10
24.7092194
 20
16.3897774934
 30
0.0
 10
24.6833938947
 20
16.3697915357
 30
0.0
 10
24.6645169292
 20
16.3578168461
 30
0.0
 10
24.654604844
 20
16.352094101
 30
0.0
  0
SPLINE
  5
41A
100
AcDbEntity
  8
0
100
AcDbSpline
 62
9
  6
CONTINUOUS
 70
0
 71
3
 72
11
 73
7
 74
0
 42
0.0000001
 43
0.0000001
 44
0.0000000001
 40
0.0
 40
0.0
 40
0.0
 40
0.0
 40
0.1686508301
 40
0.3831994263
 40
0.6620724258
 40
1.0
 40
1.0
 40
1.0
 40
1.0
 10
32.6679945966
 20
20.0300452053
 30
0.0
 10
32.668167561
 20
20.0294882665
 30
0.0
 10
32.6680988888
 20
20.0280790578
 30
0.0
 10
32.6669094891
 20
20.0260710115
 30
0.0
 10
32.6648750545
 20
20.0240201481
 30
0.0
 10
32.6631436202
 20
20.0227600835
 30
0.0
 10
32.66216131
 20
20.0221272246
 30
0.0
  0
SPLINE
  5
41B
100
AcDbEntity
  8
0
100
AcDbSpline
 62
9
  6
CONTINUOUS
 70
0
 71
3
 72
11
 73
7
 74
0
 42
0.0000001
 43
0.0000001
 44
0.0000000001
 40
0.0
 40
0.0
 40
0.0
 40
0.0
 40
0.2370305758
 40
0.5000609289
 40
0.7630333758
 40
1.0
 40
1.0
 40
1.0
 40
1.0
 10
29.9861899741
 20
18.8097488096
 30
0.0
 10
29.9861899741
 20
18.812065014
 30
0.0
 10
29.9870675467
 20
18.8169524475
 30
0.0
 10
29.9900850122
 20
18.8238313948
 30
0.0
 10
29.9945332911
 20
18.8298836837
 30
0.0
 10
29.998326759
 20
18.8330859172
 30
0.0
 10
30.0003321098
 20
18.834243707
 30
0.0
  0
SPLINE
  5
41C
100
AcDbEntity
  8
0
100
AcDbSpline
 62
9
  6
CONTINUOUS
 70
0
 71
3
 72
11
 73
7
 74
0
 42
0.0000001
 43
0.0000001
 44
0.0000000001
 40
0.0
 40
0.0
 40
0.0
 40
0.0
 40
0.2370200272
 40
0.5
 40
0.7629799728
 40
1.0
 40
1.0
 40
1.0
 40
1.0
 10
30.0003321098
 20
18.834243707
 30
0.0
 10
30.0023379097
 20
18.8330856579
 30
0.0
 10
30.0061312032
 20
18.8298823113
 30
0.0
 10
30.0105802993
 20
18.8238305704
 30
0.0
 10
30.0135967127
 20
18.8169516697
 30
0.0
 10
30.0144742454
 20
18.8120649078
 30
0.0
 10
30.0144742454
 20
18.8097488096
 30
0.0
  0
SPLINE
  5
41D
100
AcDbEntity
  8
0
100
AcDbSpline
 62
9
  6
CONTINUOUS
 70
0
 71
3
 72
11
 73
7
 74
0
 42
0.0000001
 43
0.0000001
 44
0.0000000001
 40
0.0
 40
0.0
 40
0.0
 40
0.0
 40
0.2369658628
 40
0.4999371234
 40
0.7629681484
 40
1.0
 40
1.0
 40
1.0
 40
1.0
 10
30.0144742454
 20
18.8097488096
 30
0.0
 10
30.0124689011
 20
18.8085910235
 30
0.0
 10
30.0077989734
 20
18.8069069009
 30
0.0
 10
30.0003334099
 20
18.8060807117
 30
0.0
 10
29.9928673301
 20
18.8069069977
 30
0.0
 10
29.9881958768
 20
18.8085907011
 30
0.0
 10
29.9861899741
 20
18.8097488096
 30
0.0
  0
SPLINE
  5
41E
100
AcDbEntity
  8
0
100
AcDbSpline
 62
9
  6
CONTINUOUS
 70
0
 71
3
 72
11
 73
7
 74
0
 42
0.0000001
 43
0.0000001
 44
0.0000000001
 40
0.0
 40
0.0
 40
0.0
 40
0.0
 40
0.2370305758
 40
0.5000609289
 40
0.7630333758
 40
1.0
 40
1.0
 40
1.0
 40
1.0
 10
27.1577628494
 20
16.9726315025
 30
0.0
 10
27.1577628494
 20
16.974947707
 30
0.0
 10
27.158640422
 20
16.9798351404
 30
0.0
 10
27.1616578874
 20
16.9867140877
 30
0.0
 10
27.1661061664
 20
16.9927663766
 30
0.0
 10
27.1698996343
 20
16.9959686101
 30
0.0
 10
27.171904985
 20
16.9971263999
 30
0.0
  0
SPLINE
  5
41F
100
AcDbEntity
  8
0
100
AcDbSpline
 62
9
  6
CONTINUOUS
 70
0
 71
3
 72
11
 73
7
 74
0
 42
0.0000001
 43
0.0000001
 44
0.0000000001
 40
0.0
 40
0.0
 40
0.0
 40
0.0
 40
0.2004386264
 40
0.4279075236
 40
0.6954266527
 40
1.0
 40
1.0
 40
1.0
 40
1.0
 10
32.6589243239
 20
20.0067680187
 30
0.0
 10
32.6598916435
 20
20.0073272707
 30
0.0
 10
32.6616458887
 20
20.0090999258
 30
0.0
 10
32.6629787581
 20
20.0128270097
 30
0.0
 10
32.6631767294
 20
20.0173260511
 30
0.0
 10
32.6626047697
 20
20.0204885473
 30
0.0
 10
32.6621594063
 20
20.0221269456
 30
0.0
  0
SPLINE
  5
420
100
AcDbEntity
  8
0
100
AcDbSpline
 62
9
  6
CONTINUOUS
 70
0
 71
3
 72
11
 73
7
 74
0
 42
0.0000001
 43
0.0000001
 44
0.0000000001
 40
0.0
 40
0.0
 40
0.0
 40
0.0
 40
0.2370200272
 40
0.5
 40
0.7629799728
 40
1.0
 40
1.0
 40
1.0
 40
1.0
 10
27.171904985
 20
16.9971263999
 30
0.0
 10
27.1739107849
 20
16.9959683508
 30
0.0
 10
27.1777040785
 20
16.9927650042
 30
0.0
 10
27.1821531745
 20
16.9867132633
 30
0.0
 10
27.1851695879
 20
16.9798343626
 30
0.0
 10
27.1860471206
 20
16.9749476007
 30
0.0
 10
27.1860471206
 20
16.9726315025
 30
0.0
  0
SPLINE
  5
421
100
AcDbEntity
  8
0
100
AcDbSpline
 62
9
  6
CONTINUOUS
 70
0
 71
3
 72
11
 73
7
 74
0
 42
0.0000001
 43
0.0000001
 44
0.0000000001
 40
0.0
 40
0.0
 40
0.0
 40
0.0
 40
0.2369658628
 40
0.4999371234
 40
0.7629681484
 40
1.0
 40
1.0
 40
1.0
 40
1.0
 10
27.1860471206
 20
16.9726315025
 30
0.0
 10
27.1840417764
 20
16.9714737164
 30
0.0
 10
27.1793718487
 20
16.9697895938
 30
0.0
 10
27.1719062852
 20
16.9689634047
 30
0.0
 10
27.1644402053
 20
16.9697896907
 30
0.0
 10
27.1597687521
 20
16.971473394
 30
0.0
 10
27.1577628494
 20
16.9726315025
 30
0.0
  0
SPLINE
  5
422
100
AcDbEntity
  8
0
100
AcDbSpline
 62
9
  6
CONTINUOUS
 70
0
 71
3
 72
28
 73
24
 74
0
 42
0.0000001
 43
0.0000001
 44
0.0000000001
 40
0.0
 40
0.0
 40
0.0
 40
0.0
 40
0.0702274648
 40
0.1395572397
 40
0.2079749171
 40
0.275462286
 40
0.3419961966
 40
0.4075460184
 40
0.4720765379
 40
0.5355422539
 40
0.5978944205
 40
0.6286372091
 40
0.6590796979
 40
0.7190272926
 40
0.7776816015
 40
0.8065124126
 40
0.8350072252
 40
0.8631682958
 40
0.8910045054
 40
0.9185415438
 40
0.9458250568
 40
0.9729321541
 40
1.0
 40
1.0
 40
1.0
 40
1.0
 10
27.1054846965
 20
17.5111628274
 30
0.0
 10
27.1107568549
 20
17.6376502213
 30
0.0
 10
27.1239558955
 20
17.8889041498
 30
0.0
 10
27.1520659496
 20
18.2627917489
 30
0.0
 10
27.1885534041
 20
18.6309968189
 30
0.0
 10
27.2336504128
 20
18.9931719034
 30
0.0
 10
27.2876543365
 20
19.3489042062
 30
0.0
 10
27.3509979792
 20
19.6976835541
 30
0.0
 10
27.4241462739
 20
20.0388960271
 30
0.0
 10
27.5077853606
 20
20.3717593284
 30
0.0
 10
27.5872351915
 20
20.642668269
 30
0.0
 10
27.6570633787
 20
20.8541552373
 30
0.0
 10
27.7305067157
 20
21.0598161714
 30
0.0
 10
27.8306413455
 20
21.309287656
 30
0.0
 10
27.9446320631
 20
21.5496266164
 30
0.0
 10
28.0448119068
 20
21.7331938466
 30
0.0
 10
28.1242563318
 20
21.8653018678
 30
0.0
 10
28.2088371134
 20
21.9920469918
 30
0.0
 10
28.29910241
 20
22.1126838054
 30
0.0
 10
28.3956136124
 20
22.2263455649
 30
0.0
 10
28.4990330763
 20
22.3319883761
 30
0.0
 10
28.6103268037
 20
22.4280678796
 30
0.0
 10
28.6903798176
 20
22.4843990171
 30
0.0
 10
28.7318418374
 20
22.5101245726
 30
0.0
  0
SPLINE
  5
423
100
AcDbEntity
  8
0
100
AcDbSpline
 62
9
  6
CONTINUOUS
 70
0
 71
3
 72
9
 73
5
 74
0
 42
0.0000001
 43
0.0000001
 44
0.0000000001
 40
0.0
 40
0.0
 40
0.0
 40
0.0
 40
0.2453056231
 40
1.0
 40
1.0
 40
1.0
 40
1.0
 10
22.9475517225
 20
16.3694189415
 30
0.0
 10
22.9477740575
 20
16.3695470756
 30
0.0
 10
22.9487099822
 20
16.3700175797
 30
0.0
 10
22.9497540184
 20
16.3702624504
 30
0.0
 10
22.950541092
 20
16.3703241458
 30
0.0
  0
SPLINE
  5
424
100
AcDbEntity
  8
0
100
AcDbSpline
 62
9
  6
CONTINUOUS
 70
0
 71
3
 72
9
 73
5
 74
0
 42
0.0000001
 43
0.0000001
 44
0.0000000001
 40
0.0
 40
0.0
 40
0.0
 40
0.0
 40
0.2257499235
 40
1.0
 40
1.0
 40
1.0
 40
1.0
 10
22.950541092
 20
16.3703241458
 30
0.0
 10
22.9510906021
 20
16.3703672196
 30
0.0
 10
22.953545353
 20
16.3703028576
 30
0.0
 10
22.9559114129
 20
16.3693692452
 30
0.0
 10
22.9575485691
 20
16.3684240326
 30
0.0
  0
SPLINE
  5
425
100
AcDbEntity
  8
0
100
AcDbSpline
 62
9
  6
CONTINUOUS
 70
0
 71
3
 72
11
 73
7
 74
0
 42
0.0000001
 43
0.0000001
 44
0.0000000001
 40
0.0
 40
0.0
 40
0.0
 40
0.0
 40
0.2177670053
 40
0.4517776554
 40
0.7118830878
 40
1.0
 40
1.0
 40
1.0
 40
1.0
 10
25.7494097208
 20
16.352094101
 30
0.0
 10
25.7494097208
 20
16.3513325129
 30
0.0
 10
25.7491295575
 20
16.3497408687
 30
0.0
 10
25.7479102831
 20
16.347530404
 30
0.0
 10
25.7460076303
 20
16.3455333324
 30
0.0
 10
25.7444219116
 20
16.3444329452
 30
0.0
 10
25.743549287
 20
16.3439291352
 30
0.0
  0
SPLINE
  5
426
100
AcDbEntity
  8
0
100
AcDbSpline
 62
9
  6
CONTINUOUS
 70
0
 71
3
 72
10
 73
6
 74
0
 42
0.0000001
 43
0.0000001
 44
0.0000000001
 40
0.0
 40
0.0
 40
0.0
 40
0.0
 40
0.2276618839
 40
0.4782320476
 40
1.0
 40
1.0
 40
1.0
 40
1.0
 10
22.9575485691
 20
16.3684240326
 30
0.0
 10
22.9562445663
 20
16.3676711662
 30
0.0
 10
22.9536943882
 20
16.3657553693
 30
0.0
 10
22.9491496366
 20
16.3609280561
 30
0.0
 10
22.946545332
 20
16.3564068172
 30
0.0
 10
22.9453011204
 20
16.353187999
 30
0.0
  0
SPLINE
  5
427
100
AcDbEntity
  8
0
100
AcDbSpline
 62
9
  6
CONTINUOUS
 70
0
 71
3
 72
9
 73
5
 74
0
 42
0.0000001
 43
0.0000001
 44
0.0000000001
 40
0.0
 40
0.0
 40
0.0
 40
0.0
 40
0.2652946006
 40
1.0
 40
1.0
 40
1.0
 40
1.0
 10
22.9445782938
 20
16.3511016911
 30
0.0
 10
22.9443893965
 20
16.350486093
 30
0.0
 10
22.9437524878
 20
16.3481448897
 30
0.0
 10
22.9434064335
 20
16.3457124256
 30
0.0
 10
22.9434064335
 20
16.3439291352
 30
0.0
  0
SPLINE
  5
428
100
AcDbEntity
  8
0
100
AcDbSpline
 62
9
  6
CONTINUOUS
 70
0
 71
3
 72
11
 73
7
 74
0
 42
0.0000001
 43
0.0000001
 44
0.0000000001
 40
0.0
 40
0.0
 40
0.0
 40
0.0
 40
0.2881180929
 40
0.5481997965
 40
0.7821891408
 40
1.0
 40
1.0
 40
1.0
 40
1.0
 10
22.9434064335
 20
16.3439291352
 30
0.0
 10
22.9425342121
 20
16.3444327124
 30
0.0
 10
22.9409491653
 20
16.3455322454
 30
0.0
 10
22.9390467211
 20
16.3475275994
 30
0.0
 10
22.9378279219
 20
16.3497369548
 30
0.0
 10
22.9375470015
 20
16.3513276609
 30
0.0
 10
22.9375463889
 20
16.352089047
 30
0.0
  0
SPLINE
  5
429
100
AcDbEntity
  8
0
100
AcDbSpline
 62
9
  6
CONTINUOUS
 70
0
 71
3
 72
9
 73
5
 74
0
 42
0.0000001
 43
0.0000001
 44
0.0000000001
 40
0.0
 40
0.0
 40
0.0
 40
0.0
 40
0.2475374343
 40
1.0
 40
1.0
 40
1.0
 40
1.0
 10
29.1894363076
 20
22.6609145087
 30
0.0
 10
29.1840950016
 20
22.6535307745
 30
0.0
 10
29.1627802433
 20
22.6235122068
 30
0.0
 10
29.1424865188
 20
22.5927721204
 30
0.0
 10
29.1277443156
 20
22.5693185637
 30
0.0
  0
SPLINE
  5
42A
100
AcDbEntity
  8
0
100
AcDbSpline
 62
9
  6
CONTINUOUS
 70
0
 71
3
 72
9
 73
5
 74
0
 42
0.0000001
 43
0.0000001
 44
0.0000000001
 40
0.0
 40
0.0
 40
0.0
 40
0.0
 40
0.4940262161
 40
1.0
 40
1.0
 40
1.0
 40
1.0
 10
29.1277443156
 20
22.5693185637
 30
0.0
 10
29.1078310713
 20
22.5376383327
 30
0.0
 10
29.0694536566
 20
22.4722850375
 30
0.0
 10
29.0345086277
 20
22.4050500386
 30
0.0
 10
29.0175971061
 20
22.3706593779
 30
0.0
  0
SPLINE
  5
42B
100
AcDbEntity
  8
0
100
AcDbSpline
 62
9
  6
CONTINUOUS
 70
0
 71
3
 72
18
 73
14
 74
0
 42
0.0000001
 43
0.0000001
 44
0.0000000001
 40
0.0
 40
0.0
 40
0.0
 40
0.0
 40
0.0541774678
 40
0.1098094462
 40
0.1667861527
 40
0.2250149986
 40
0.2844125509
 40
0.344906726
 40
0.46894159
 40
0.5967287457
 40
0.727970641
 40
0.8624477055
 40
1.0
 40
1.0
 40
1.0
 40
1.0
 10
28.8886609905
 20
22.0659470868
 30
0.0
 10
28.8655743964
 20
22.0026844369
 30
0.0
 10
28.8222668754
 20
21.8731701294
 30
0.0
 10
28.7656267259
 20
21.6736785273
 30
0.0
 10
28.7159023861
 20
21.4671741114
 30
0.0
 10
28.6727187737
 20
21.254436674
 30
0.0
 10
28.6357194424
 20
21.0361064089
 30
0.0
 10
28.5939184729
 20
20.7357600866
 30
0.0
 10
28.5562782259
 20
20.3491861047
 30
0.0
 10
28.532700752
 20
19.8734622776
 30
0.0
 10
28.5295416503
 20
19.3841944723
 30
0.0
 10
28.5463661459
 20
18.8830836706
 30
0.0
 10
28.5705665161
 20
18.5457196572
 30
0.0
 10
28.5859293659
 20
18.375431313
 30
0.0
  0
LINE
  5
42C
100
AcDbEntity
  8
0
100
AcDbLine
 62
9
  6
CONTINUOUS
 10
28.5859293659
 20
18.375431313
 11
28.5867496796
 21
18.3663716723
  0
SPLINE
  5
42D
100
AcDbEntity
  8
0
100
AcDbSpline
 62
9
  6
CONTINUOUS
 70
0
 71
3
 72
11
 73
7
 74
0
 42
0.0000001
 43
0.0000001
 44
0.0000000001
 40
0.0
 40
0.0
 40
0.0
 40
0.0
 40
0.2173832913
 40
0.4512033802
 40
0.7117039313
 40
1.0
 40
1.0
 40
1.0
 40
1.0
 10
28.5925187249
 20
18.3756181562
 30
0.0
 10
28.5925903789
 20
18.3747887177
 30
0.0
 10
28.5924275073
 20
18.3730268176
 30
0.0
 10
28.5912719247
 20
18.3705131393
 30
0.0
 10
28.5893258455
 20
18.3681985065
 30
0.0
 10
28.5876590453
 20
18.3668942352
 30
0.0
 10
28.5867342762
 20
18.3662910312
 30
0.0
  0
SPLINE
  5
42E
100
AcDbEntity
  8
0
100
AcDbSpline
 62
9
  6
CONTINUOUS
 70
0
 71
3
 72
10
 73
6
 74
0
 42
0.0000001
 43
0.0000001
 44
0.0000000001
 40
0.0
 40
0.0
 40
0.0
 40
0.0
 40
0.2276151772
 40
0.4780985325
 40
1.0
 40
1.0
 40
1.0
 40
1.0
 10
25.743549287
 20
16.3439291352
 30
0.0
 10
25.743549287
 20
16.3454318132
 30
0.0
 10
25.7431673394
 20
16.3485916357
 30
0.0
 10
25.7412651012
 20
16.3549303691
 30
0.0
 10
25.7386600432
 20
16.3594400285
 30
0.0
 10
25.7365010965
 20
16.362125261
 30
0.0
  0
SPLINE
  5
42F
100
AcDbEntity
  8
0
100
AcDbSpline
 62
9
  6
CONTINUOUS
 70
0
 71
3
 72
9
 73
5
 74
0
 42
0.0000001
 43
0.0000001
 44
0.0000000001
 40
0.0
 40
0.0
 40
0.0
 40
0.0
 40
0.2647392292
 40
1.0
 40
1.0
 40
1.0
 40
1.0
 10
25.7346654575
 20
16.3642107043
 30
0.0
 10
25.734252018
 20
16.3646394734
 30
0.0
 10
25.7326427078
 20
16.3662107305
 30
0.0
 10
25.7308397692
 20
16.3675969103
 30
0.0
 10
25.7294071514
 20
16.3684240326
 30
0.0
  0
SPLINE
  5
430
100
AcDbEntity
  8
0
100
AcDbSpline
 62
9
  6
CONTINUOUS
 70
0
 71
3
 72
11
 73
7
 74
0
 42
0.0000001
 43
0.0000001
 44
0.0000000001
 40
0.0
 40
0.0
 40
0.0
 40
0.0
 40
0.2880181037
 40
0.5481290279
 40
0.7822167462
 40
1.0
 40
1.0
 40
1.0
 40
1.0
 10
25.7294071514
 20
16.3684240326
 30
0.0
 10
25.7302774437
 20
16.3689264961
 30
0.0
 10
25.7320186544
 20
16.369747887
 30
0.0
 10
25.7346924626
 20
16.3703977877
 30
0.0
 10
25.7372107093
 20
16.3703535533
 30
0.0
 10
25.7387274473
 20
16.369806304
 30
0.0
 10
25.7393868932
 20
16.3694287681
 30
0.0
  0
SPLINE
  5
431
100
AcDbEntity
  8
0
100
AcDbSpline
 62
7
  6
CONTINUOUS
 70
0
 71
3
 72
15
 73
11
 74
0
 42
0.0000001
 43
0.0000001
 44
0.0000000001
 40
0.0
 40
0.0
 40
0.0
 40
0.0
 40
0.148401996
 40
0.2894011716
 40
0.4227528261
 40
0.548685325
 40
0.6680190356
 40
0.781932764
 40
0.8919827694
 40
1.0
 40
1.0
 40
1.0
 40
1.0
 10
24.654604844
 20
16.1887947848
 30
0.0
 10
24.664516189
 20
16.1945171025
 30
0.0
 10
24.683391693
 20
16.2064907627
 30
0.0
 10
24.7092152517
 20
16.2264745399
 30
0.0
 10
24.7315718182
 20
16.2478538826
 30
0.0
 10
24.7501956748
 20
16.270439532
 30
0.0
 10
24.764920657
 20
16.2940051502
 30
0.0
 10
24.7755691377
 20
16.3183584225
 30
0.0
 10
24.7820204484
 20
16.3432460922
 30
0.0
 10
24.7834758711
 20
16.3600963014
 30
0.0
 10
24.7834763605
 20
16.3684264981
 30
0.0
  0
SPLINE
  5
432
100
AcDbEntity
  8
0
100
AcDbSpline
 62
9
  6
CONTINUOUS
 70
0
 71
3
 72
20
 73
16
 74
0
 42
0.0000001
 43
0.0000001
 44
0.0000000001
 40
0.0
 40
0.0
 40
0.0
 40
0.0
 40
0.0174597885
 40
0.0455530917
 40
0.0845697027
 40
0.1342994894
 40
0.193656935
 40
0.259887752
 40
0.4036562549
 40
0.5576430305
 40
0.7165283495
 40
0.7940433311
 40
0.8682394537
 40
0.9373393496
 40
1.0
 40
1.0
 40
1.0
 40
1.0
 10
31.6691475609
 20
19.6526714329
 30
0.0
 10
31.6693027123
 20
19.6527839262
 30
0.0
 10
31.6698295239
 20
19.6528550305
 30
0.0
 10
31.6707415502
 20
19.6528296298
 30
0.0
 10
31.6720279153
 20
19.6527231423
 30
0.0
 10
31.6736286854
 20
19.6524469149
 30
0.0
 10
31.6755102696
 20
19.6520376981
 30
0.0
 10
31.6784180163
 20
19.6515147911
 30
0.0
 10
31.6824635499
 20
19.6513336047
 30
0.0
 10
31.687343692
 20
19.6526830158
 30
0.0
 10
31.6913192858
 20
19.6542662943
 30
0.0
 10
31.6945951673
 20
19.6552266418
 30
0.0
 10
31.6969649607
 20
19.6557409592
 30
0.0
 10
31.6991962256
 20
19.6561086989
 30
0.0
 10
31.7006424599
 20
19.6562206946
 30
0.0
 10
31.7013302327
 20
19.6562186232
 30
0.0
  0
SPLINE
  5
433
100
AcDbEntity
  8
0
100
AcDbSpline
 62
7
  6
CONTINUOUS
 70
0
 71
3
 72
25
 73
21
 74
0
 42
0.0000001
 43
0.0000001
 44
0.0000000001
 40
0.0
 40
0.0
 40
0.0
 40
0.0
 40
0.0623427469
 40
0.1287314206
 40
0.198327375
 40
0.2702916282
 40
0.3436707202
 40
0.4174006898
 40
0.4904222282
 40
0.5617058231
 40
0.6303045024
 40
0.6953907521
 40
0.7563386788
 40
0.8127772015
 40
0.8646776818
 40
0.9124562382
 40
0.9351007705
 40
0.9571058412
 40
0.9786672422
 40
1.0
 40
1.0
 40
1.0
 40
1.0
 10
24.654604844
 20
16.352094101
 30
0.0
 10
24.638807324
 20
16.3429733986
 30
0.0
 10
24.6049230327
 20
16.3262818423
 30
0.0
 10
24.5502808744
 20
16.306459162
 30
0.0
 10
24.4912129544
 20
16.2914708132
 30
0.0
 10
24.4290171407
 20
16.2816122878
 30
0.0
 10
24.3649983382
 20
16.2770828126
 30
0.0
 10
24.3005181711
 20
16.2779923079
 30
0.0
 10
24.2369549165
 20
16.2843062586
 30
0.0
 10
24.1756643625
 20
16.2959140725
 30
0.0
 10
24.1179420975
 20
16.3125382986
 30
0.0
 10
24.065017124
 20
16.3338658128
 30
0.0
 10
24.0179933635
 20
16.3594333444
 30
0.0
 10
23.9778587965
 20
16.38875844
 30
0.0
 10
23.9454751827
 20
16.4212720389
 30
0.0
 10
23.9251949882
 20
16.451097071
 30
0.0
 10
23.9138945775
 20
16.4757254851
 30
0.0
 10
23.9079077109
 20
16.4942007599
 30
0.0
 10
23.9042914897
 20
16.5128899612
 30
0.0
 10
23.9034801549
 20
16.5254550979
 30
0.0
 10
23.9034798819
 20
16.5316970345
 30
0.0
  0
SPLINE
  5
434
100
AcDbEntity
  8
0
100
AcDbSpline
 62
7
  6
CONTINUOUS
 70
0
 71
3
 72
9
 73
5
 74
0
 42
0.0000001
 43
0.0000001
 44
0.0000000001
 40
0.0
 40
0.0
 40
0.0
 40
0.0
 40
0.4971997656
 40
1.0
 40
1.0
 40
1.0
 40
1.0
 10
28.5946832488
 20
24.2157210564
 30
0.0
 10
28.6381502055
 20
24.2367880531
 30
0.0
 10
28.7275906566
 20
24.2751336777
 30
0.0
 10
28.8204119021
 20
24.3044555234
 30
0.0
 10
28.8676889033
 20
24.3167412133
 30
0.0
  0
SPLINE
  5
435
100
AcDbEntity
  8
0
100
AcDbSpline
 62
7
  6
CONTINUOUS
 70
0
 71
3
 72
9
 73
5
 74
0
 42
0.0000001
 43
0.0000001
 44
0.0000000001
 40
0.0
 40
0.0
 40
0.0
 40
0.0
 40
0.2447016345
 40
1.0
 40
1.0
 40
1.0
 40
1.0
 10
29.7259051944
 20
24.2773999951
 30
0.0
 10
29.7428877878
 20
24.2717898421
 30
0.0
 10
29.8119562772
 20
24.2478634633
 30
0.0
 10
29.8796463983
 20
24.2199953814
 30
0.0
 10
29.9298477275
 20
24.1970302864
 30
0.0
  0
SPLINE
  5
436
100
AcDbEntity
  8
0
100
AcDbSpline
 62
7
  6
CONTINUOUS
 70
0
 71
3
 72
22
 73
18
 74
0
 42
0.0000001
 43
0.0000001
 44
0.0000000001
 40
0.0
 40
0.0
 40
0.0
 40
0.0
 40
0.0550755966
 40
0.1131903692
 40
0.1738659846
 40
0.2365019714
 40
0.3004823112
 40
0.3652553397
 40
0.4303722136
 40
0.4954958882
 40
0.5603869447
 40
0.6248846284
 40
0.6888865259
 40
0.7523286899
 40
0.8151737316
 40
0.8774044866
 40
1.0
 40
1.0
 40
1.0
 40
1.0
 10
29.9934394341
 20
24.1666885536
 30
0.0
 10
30.0735828653
 20
24.1268737516
 30
0.0
 10
30.2335208153
 20
24.0351912181
 30
0.0
 10
30.4633440113
 20
23.8702235679
 30
0.0
 10
30.6867833365
 20
23.6773972857
 30
0.0
 10
30.9011269507
 20
23.4609969358
 30
0.0
 10
31.1045188005
 20
23.2254784991
 30
0.0
 10
31.2958957723
 20
22.97506432
 30
0.0
 10
31.4748870898
 20
22.713443022
 30
0.0
 10
31.6416888945
 20
22.4436930783
 30
0.0
 10
31.7967084326
 20
22.1681810201
 30
0.0
 10
31.9406336167
 20
21.888781856
 30
0.0
 10
32.0742292422
 20
21.6069149754
 30
0.0
 10
32.1982081002
 20
21.3236269014
 30
0.0
 10
32.3132476608
 20
21.0397000241
 30
0.0
 10
32.4548902264
 20
20.6629954989
 30
0.0
 10
32.5506961293
 20
20.3782397527
 30
0.0
 10
32.6102637736
 20
20.1881579639
 30
0.0
  0
LINE
  5
437
100
AcDbEntity
  8
0
100
AcDbLine
 62
7
  6
CONTINUOUS
 10
32.6102637736
 20
20.1881579639
 11
32.6120568168
 21
20.1824321113
  0
SPLINE
  5
438
100
AcDbEntity
  8
0
100
AcDbSpline
 62
7
  6
CONTINUOUS
 70
0
 71
3
 72
15
 73
11
 74
0
 42
0.0000001
 43
0.0000001
 44
0.0000000001
 40
0.0
 40
0.0
 40
0.0
 40
0.0
 40
0.148401996
 40
0.2894011716
 40
0.4227528261
 40
0.548685325
 40
0.6680190356
 40
0.781932764
 40
0.8919827694
 40
1.0
 40
1.0
 40
1.0
 40
1.0
 10
24.5998040684
 20
16.3837333435
 30
0.0
 10
24.6079696652
 20
16.388447753
 30
0.0
 10
24.6235205065
 20
16.3983124162
 30
0.0
 10
24.6447955975
 20
16.4147763235
 30
0.0
 10
24.6632143597
 20
16.4323899865
 30
0.0
 10
24.6785578779
 20
16.4509974818
 30
0.0
 10
24.6906892553
 20
16.4704123377
 30
0.0
 10
24.6994621513
 20
16.4904761132
 30
0.0
 10
24.7047771516
 20
16.5109801593
 30
0.0
 10
24.7059762215
 20
16.5248624338
 30
0.0
 10
24.7059766247
 20
16.53172538
 30
0.0
  0
SPLINE
  5
439
100
AcDbEntity
  8
0
100
AcDbSpline
 62
9
  6
CONTINUOUS
 70
0
 71
3
 72
11
 73
7
 74
0
 42
0.0000001
 43
0.0000001
 44
0.0000000001
 40
0.0
 40
0.0
 40
0.0
 40
0.0
 40
0.1555099329
 40
0.3769366338
 40
0.6630649429
 40
1.0
 40
1.0
 40
1.0
 40
1.0
 10
31.707814355
 20
19.4863198382
 30
0.0
 10
31.708264204
 20
19.485767577
 30
0.0
 10
31.7098461595
 20
19.484885393
 30
0.0
 10
31.712811525
 20
19.4842342643
 30
0.0
 10
31.7166946617
 20
19.4840412501
 30
0.0
 10
31.7195457982
 20
19.4842230965
 30
0.0
 10
31.7210803071
 20
19.4843873979
 30
0.0
  0
SPLINE
  5
43A
100
AcDbEntity
  8
0
100
AcDbSpline
 62
9
  6
CONTINUOUS
 70
0
 71
3
 72
9
 73
5
 74
0
 42
0.0000001
 43
0.0000001
 44
0.0000000001
 40
0.0
 40
0.0
 40
0.0
 40
0.0
 40
0.243378388
 40
1.0
 40
1.0
 40
1.0
 40
1.0
 10
31.7210803071
 20
19.4843873979
 30
0.0
 10
31.7219980428
 20
19.4844856607
 30
0.0
 10
31.7257573394
 20
19.4849904352
 30
0.0
 10
31.7294704616
 20
19.4858398434
 30
0.0
 10
31.732216135
 20
19.4866733163
 30
0.0
  0
SPLINE
  5
43B
100
AcDbEntity
  8
0
100
AcDbSpline
 62
9
  6
CONTINUOUS
 70
0
 71
3
 72
9
 73
5
 74
0
 42
0.0000001
 43
0.0000001
 44
0.0000000001
 40
0.0
 40
0.0
 40
0.0
 40
0.0
 40
0.2676602196
 40
1.0
 40
1.0
 40
1.0
 40
1.0
 10
31.732216135
 20
19.4866733163
 30
0.0
 10
31.7329402797
 20
19.4868931368
 30
0.0
 10
31.7356286449
 20
19.4877669464
 30
0.0
 10
31.738261143
 20
19.4888326556
 30
0.0
 10
31.7401038354
 20
19.4897770302
 30
0.0
  0
SPLINE
  5
43C
100
AcDbEntity
  8
0
100
AcDbSpline
 62
7
  6
CONTINUOUS
 70
0
 71
3
 72
33
 73
29
 74
0
 42
0.0000001
 43
0.0000001
 44
0.0000000001
 40
0.0
 40
0.0
 40
0.0
 40
0.0
 40
0.0199627995
 40
0.0400938517
 40
0.060564305
 40
0.0815721669
 40
0.1033341198
 40
0.1260684807
 40
0.1499775508
 40
0.1752277171
 40
0.2019334957
 40
0.2301455479
 40
0.2598444232
 40
0.2909496596
 40
0.3233270194
 40
0.3568082745
 40
0.391204644
 40
0.42632661
 40
0.4619948325
 40
0.4980488872
 40
0.5343519952
 40
0.5707915138
 40
0.6437303413
 40
0.7163734474
 40
0.7884357987
 40
0.8597666014
 40
0.9302969401
 40
1.0
 40
1.0
 40
1.0
 40
1.0
 10
28.0518198291
 20
23.9065926885
 30
0.0
 10
28.0885840107
 20
23.9265148874
 30
0.0
 10
28.1643883753
 20
23.963034788
 30
0.0
 10
28.2839312824
 20
24.0061730598
 30
0.0
 10
28.4096108292
 20
24.0366298563
 30
0.0
 10
28.5413321431
 20
24.0531578745
 30
0.0
 10
28.6788357953
 20
24.0545085643
 30
0.0
 10
28.8216456358
 20
24.0395859829
 30
0.0
 10
28.969071187
 20
24.0074675224
 30
0.0
 10
29.1202098179
 20
23.9575039906
 30
0.0
 10
29.27396102
 20
23.8893681043
 30
0.0
 10
29.4290516288
 20
23.8031124391
 30
0.0
 10
29.5841357818
 20
23.6992494287
 30
0.0
 10
29.7378004157
 20
23.5786309219
 30
0.0
 10
29.8887406166
 20
23.4425163471
 30
0.0
 10
30.0357364266
 20
23.2923721697
 30
0.0
 10
30.1778326971
 20
23.1298901618
 30
0.0
 10
30.3142556967
 20
22.9567656487
 30
0.0
 10
30.444501506
 20
22.7746784354
 30
0.0
 10
30.5682858401
 20
22.5851909259
 30
0.0
 10
30.6855093226
 20
22.3896995839
 30
0.0
 10
30.8331728577
 20
22.1225966011
 30
0.0
 10
31.0014575606
 20
21.7801945547
 30
0.0
 10
31.1799997191
 20
21.3605238126
 30
0.0
 10
31.3375018147
 20
20.9361412264
 30
0.0
 10
31.475943072
 20
20.5098499437
 30
0.0
 10
31.5972654307
 20
20.0835381423
 30
0.0
 10
31.6682230606
 20
19.7984376937
 30
0.0
 10
31.7012963229
 20
19.6562295187
 30
0.0
  0
SPLINE
  5
43D
100
AcDbEntity
  8
0
100
AcDbSpline
 62
9
  6
CONTINUOUS
 70
0
 71
3
 72
11
 73
7
 74
0
 42
0.0000001
 43
0.0000001
 44
0.0000000001
 40
0.0
 40
0.0
 40
0.0
 40
0.0
 40
0.3045715131
 40
0.5720910505
 40
0.7995850705
 40
1.0
 40
1.0
 40
1.0
 40
1.0
 10
31.7401055846
 20
19.4897788903
 30
0.0
 10
31.7405511365
 20
19.4881406165
 30
0.0
 10
31.7411233181
 20
19.4849782959
 30
0.0
 10
31.7409256822
 20
19.4804791805
 30
0.0
 10
31.7395923709
 20
19.4767524358
 30
0.0
 10
31.7378384548
 20
19.4749796337
 30
0.0
 10
31.736871291
 20
19.4744204556
 30
0.0
  0
SPLINE
  5
43E
100
AcDbEntity
  8
0
100
AcDbSpline
 62
7
  6
CONTINUOUS
 70
0
 71
3
 72
28
 73
24
 74
0
 42
0.0000001
 43
0.0000001
 44
0.0000000001
 40
0.0
 40
0.0
 40
0.0
 40
0.0
 40
0.0623642519
 40
0.128709557
 40
0.1982856093
 40
0.2702532266
 40
0.3436189545
 40
0.4173390819
 40
0.4903536108
 40
0.5616308237
 40
0.6302182508
 40
0.6952957988
 40
0.7562343808
 40
0.7850406096
 40
0.8127008985
 40
0.8392216033
 40
0.8646411972
 40
0.889024481
 40
0.9124700483
 40
0.9351119136
 40
0.9571138189
 40
0.9786712053
 40
1.0
 40
1.0
 40
1.0
 40
1.0
 10
25.1672572603
 20
17.3951684831
 30
0.0
 10
25.1254076947
 20
17.3710066251
 30
0.0
 10
25.0357021949
 20
17.3267851888
 30
0.0
 10
24.8910117025
 20
17.274345368
 30
0.0
 10
24.7346368252
 20
17.2346565732
 30
0.0
 10
24.569953657
 20
17.2085367614
 30
0.0
 10
24.4004329764
 20
17.1965558281
 30
0.0
 10
24.2296992291
 20
17.1989609486
 30
0.0
 10
24.0613903851
 20
17.2156968365
 30
0.0
 10
23.8990955459
 20
17.246411311
 30
0.0
 10
23.7462590922
 20
17.2904627325
 30
0.0
 10
23.606134699
 20
17.3469170624
 30
0.0
 10
23.5004404263
 20
17.4043970241
 30
0.0
 10
23.4253033187
 20
17.4558024297
 30
0.0
 10
23.3749446039
 20
17.4958897268
 30
0.0
 10
23.3298163183
 20
17.5380361127
 30
0.0
 10
23.2901483634
 20
17.5820055838
 30
0.0
 10
23.2561669258
 20
17.6275782819
 30
0.0
 10
23.2280775505
 20
17.6745220541
 30
0.0
 10
23.206024906
 20
17.7225750463
 30
0.0
 10
23.1901737016
 20
17.7714927926
 30
0.0
 10
23.1806188127
 20
17.8209821238
 30
0.0
 10
23.1784793531
 20
17.8542508598
 30
0.0
 10
23.1784792659
 20
17.8707777416
 30
0.0
  0
SPLINE
  5
43F
100
AcDbEntity
  8
0
100
AcDbSpline
 62
7
  6
CONTINUOUS
 70
0
 71
3
 72
15
 73
11
 74
0
 42
0.0000001
 43
0.0000001
 44
0.0000000001
 40
0.0
 40
0.0
 40
0.0
 40
0.0
 40
0.1485055862
 40
0.2894896413
 40
0.4227462759
 40
0.5486512582
 40
0.6679959459
 40
0.781939434
 40
0.8919892528
 40
1.0
 40
1.0
 40
1.0
 40
1.0
 10
23.6505132147
 20
18.2708610662
 30
0.0
 10
23.6284225462
 20
18.2581070128
 30
0.0
 10
23.586365279
 20
18.2314368233
 30
0.0
 10
23.5288438086
 20
18.1869335844
 30
0.0
 10
23.4790913509
 20
18.1393081086
 30
0.0
 10
23.4376075445
 20
18.089031408
 30
0.0
 10
23.4048267125
 20
18.0365318523
 30
0.0
 10
23.3810832419
 20
17.9822963405
 30
0.0
 10
23.3667026875
 20
17.9268606085
 30
0.0
 10
23.3634831585
 20
17.8893302399
 30
0.0
 10
23.3634812753
 20
17.8707777414
 30
0.0
  0
SPLINE
  5
440
100
AcDbEntity
  8
0
100
AcDbSpline
 62
7
  6
CONTINUOUS
 70
0
 71
3
 72
26
 73
22
 74
0
 42
0.0000001
 43
0.0000001
 44
0.0000000001
 40
0.0
 40
0.0
 40
0.0
 40
0.0
 40
0.0213300623
 40
0.0428894332
 40
0.064893372
 40
0.0875366515
 40
0.1109855351
 40
0.135370372
 40
0.1872686658
 40
0.24370165
 40
0.3046444536
 40
0.3697280016
 40
0.4383199181
 40
0.5096011699
 40
0.5826213185
 40
0.6563465698
 40
0.7297197191
 40
0.8016939815
 40
0.871275842
 40
0.9376346167
 40
1.0
 40
1.0
 40
1.0
 40
1.0
 10
25.3234744452
 20
17.8707777416
 30
0.0
 10
25.3234758564
 20
17.8846798159
 30
0.0
 10
25.3216830328
 20
17.9126660785
 30
0.0
 10
25.3136341237
 20
17.9542944933
 30
0.0
 10
25.3003033604
 20
17.9954443319
 30
0.0
 10
25.281759362
 20
18.0358706263
 30
0.0
 10
25.2581184387
 20
18.0753544515
 30
0.0
 10
25.2192164667
 20
18.1275468668
 30
0.0
 10
25.1578443369
 20
18.1891795843
 30
0.0
 10
25.068476112
 20
18.2544796054
 30
0.0
 10
24.9637420342
 20
18.3114512893
 30
0.0
 10
24.8458571881
 20
18.3589381359
 30
0.0
 10
24.7172957003
 20
18.3959906354
 30
0.0
 10
24.5807759694
 20
18.4218337881
 30
0.0
 10
24.4391968824
 20
18.4359117099
 30
0.0
 10
24.2955757293
 20
18.4379327584
 30
0.0
 10
24.1529746324
 20
18.4278536497
 30
0.0
 10
24.0144409948
 20
18.4058876148
 30
0.0
 10
23.8828929792
 20
18.3724991327
 30
0.0
 10
23.7611787799
 20
18.3283816199
 30
0.0
 10
23.6857147586
 20
18.291184687
 30
0.0
 10
23.6505132147
 20
18.2708610662
 30
0.0
  0
SPLINE
  5
441
100
AcDbEntity
  8
0
100
AcDbSpline
 62
9
  6
CONTINUOUS
 70
0
 71
3
 72
11
 73
7
 74
0
 42
0.0000001
 43
0.0000001
 44
0.0000000001
 40
0.0
 40
0.0
 40
0.0
 40
0.0
 40
0.2370305758
 40
0.5000609289
 40
0.7630333758
 40
1.0
 40
1.0
 40
1.0
 40
1.0
 10
24.3293357246
 20
15.5437624859
 30
0.0
 10
24.3293357246
 20
15.5460786903
 30
0.0
 10
24.3302132973
 20
15.5509661238
 30
0.0
 10
24.3332307627
 20
15.5578450711
 30
0.0
 10
24.3376790416
 20
15.5638973599
 30
0.0
 10
24.3414725095
 20
15.5670995935
 30
0.0
 10
24.3434778603
 20
15.5682573833
 30
0.0
  0
SPLINE
  5
442
100
AcDbEntity
  8
0
100
AcDbSpline
 62
9
  6
CONTINUOUS
 70
0
 71
3
 72
11
 73
7
 74
0
 42
0.0000001
 43
0.0000001
 44
0.0000000001
 40
0.0
 40
0.0
 40
0.0
 40
0.0
 40
0.2370200272
 40
0.5
 40
0.7629799728
 40
1.0
 40
1.0
 40
1.0
 40
1.0
 10
24.3434778603
 20
15.5682573833
 30
0.0
 10
24.3454836602
 20
15.5670993342
 30
0.0
 10
24.3492769537
 20
15.5638959876
 30
0.0
 10
24.3537260498
 20
15.5578442466
 30
0.0
 10
24.3567424632
 20
15.550965346
 30
0.0
 10
24.3576199959
 20
15.5460785841
 30
0.0
 10
24.3576199959
 20
15.5437624859
 30
0.0
  0
SPLINE
  5
443
100
AcDbEntity
  8
0
100
AcDbSpline
 62
9
  6
CONTINUOUS
 70
0
 71
3
 72
11
 73
7
 74
0
 42
0.0000001
 43
0.0000001
 44
0.0000000001
 40
0.0
 40
0.0
 40
0.0
 40
0.0
 40
0.2369658628
 40
0.4999371234
 40
0.7629681484
 40
1.0
 40
1.0
 40
1.0
 40
1.0
 10
24.3576199959
 20
15.5437624859
 30
0.0
 10
24.3556146516
 20
15.5426046998
 30
0.0
 10
24.3509447239
 20
15.5409205772
 30
0.0
 10
24.3434791604
 20
15.540094388
 30
0.0
 10
24.3360130806
 20
15.540920674
 30
0.0
 10
24.3313416273
 20
15.5426043774
 30
0.0
 10
24.3293357246
 20
15.5437624859
 30
0.0
  0
SPLINE
  5
444
100
AcDbEntity
  8
0
100
AcDbSpline
 62
7
  6
CONTINUOUS
 70
0
 71
3
 72
11
 73
7
 74
0
 42
0.0000001
 43
0.0000001
 44
0.0000000001
 40
0.0
 40
0.0
 40
0.0
 40
0.0
 40
0.2183459289
 40
0.4506929889
 40
0.7102390282
 40
1.0
 40
1.0
 40
1.0
 40
1.0
 10
28.6215166932
 20
18.0567502906
 30
0.0
 10
28.6215907752
 20
18.055944351
 30
0.0
 10
28.6214349142
 20
18.0542365652
 30
0.0
 10
28.6202612644
 20
18.0518287154
 30
0.0
 10
28.6182838791
 20
18.0496710957
 30
0.0
 10
28.6166041086
 20
18.048493877
 30
0.0
 10
28.6156740768
 20
18.0479566404
 30
0.0
  0
SPLINE
  5
445
100
AcDbEntity
  8
0
100
AcDbSpline
 62
7
  6
CONTINUOUS
 70
0
 71
3
 72
17
 73
13
 74
0
 42
0.0000001
 43
0.0000001
 44
0.0000000001
 40
0.0
 40
0.0
 40
0.0
 40
0.0
 40
0.119432637
 40
0.1818351539
 40
0.245634819
 40
0.3761224785
 40
0.5082636805
 40
0.6392817047
 40
0.7664502474
 40
0.8873494284
 40
0.9448415647
 40
1.0
 40
1.0
 40
1.0
 40
1.0
 10
30.5864134698
 20
21.590232213
 30
0.0
 10
30.5381332298
 20
21.6110288341
 30
0.0
 10
30.4623544334
 20
21.6376338701
 30
0.0
 10
30.3575768871
 20
21.6644308059
 30
0.0
 10
30.246660767
 20
21.6862386327
 30
0.0
 10
30.103601406
 20
21.7023924112
 30
0.0
 10
29.9300525675
 20
21.7040808571
 30
0.0
 10
29.7586711178
 20
21.6881449308
 30
0.0
 10
29.594793317
 20
21.6551039508
 30
0.0
 10
29.4665155546
 20
21.6134368625
 30
0.0
 10
29.3723287043
 20
21.5720876243
 30
0.0
 10
29.3283930348
 20
21.5489865087
 30
0.0
 10
29.3073674642
 20
21.5368473899
 30
0.0
  0
SPLINE
  5
446
100
AcDbEntity
  8
0
100
AcDbSpline
 62
9
  6
CONTINUOUS
 70
0
 71
3
 72
11
 73
7
 74
0
 42
0.0000001
 43
0.0000001
 44
0.0000000001
 40
0.0
 40
0.0
 40
0.0
 40
0.0
 40
0.3480794667
 40
0.6231960682
 40
0.8332061897
 40
1.0
 40
1.0
 40
1.0
 40
1.0
 10
32.6118849335
 20
20.1827777811
 30
0.0
 10
32.6129116408
 20
20.1834163819
 30
0.0
 10
32.6146971359
 20
20.1846581667
 30
0.0
 10
32.6167433322
 20
20.186731914
 30
0.0
 10
32.6178859146
 20
20.1887386836
 30
0.0
 10
32.6179381866
 20
20.1901284272
 30
0.0
 10
32.6177647578
 20
20.1906812452
 30
0.0
  0
SPLINE
  5
447
100
AcDbEntity
  8
0
100
AcDbSpline
 62
9
  6
CONTINUOUS
 70
0
 71
3
 72
11
 73
7
 74
0
 42
0.0000001
 43
0.0000001
 44
0.0000000001
 40
0.0
 40
0.0
 40
0.0
 40
0.0
 40
0.2177670053
 40
0.4517776554
 40
0.7118830878
 40
1.0
 40
1.0
 40
1.0
 40
1.0
 10
28.9213889514
 20
18.0024099961
 30
0.0
 10
28.9207293968
 20
18.0027907901
 30
0.0
 10
28.9192109109
 20
18.0033439837
 30
0.0
 10
28.9166869551
 20
18.0033932935
 30
0.0
 10
28.9140061139
 20
18.0027440836
 30
0.0
 10
28.9122602913
 20
18.0019210045
 30
0.0
 10
28.9113876667
 20
18.0014171945
 30
0.0
  0
SPLINE
  5
448
100
AcDbEntity
  8
0
100
AcDbSpline
 62
9
  6
CONTINUOUS
 70
0
 71
3
 72
11
 73
7
 74
0
 42
0.0000001
 43
0.0000001
 44
0.0000000001
 40
0.0
 40
0.0
 40
0.0
 40
0.0
 40
0.2177824866
 40
0.4518710163
 40
0.7119824098
 40
1.0
 40
1.0
 40
1.0
 40
1.0
 10
28.931389805
 20
17.9850626723
 30
0.0
 10
28.9313870426
 20
17.9843028081
 30
0.0
 10
28.9311026091
 20
17.9827156425
 30
0.0
 10
28.9298817779
 20
17.9805126587
 30
0.0
 10
28.9279820485
 20
17.9785220064
 30
0.0
 10
28.9264000955
 20
17.977424761
 30
0.0
 10
28.9255298023
 20
17.976922297
 30
0.0
  0
ENDSEC
  0
SECTION
  2
OBJECTS
  0
DICTIONARY
  5
C
100
AcDbDictionary
280
0
281
1
  3
ACAD_GROUP
350
D
  3
ACAD_MLINESTYLE
350
17
  3
ACAD_LAYOUT
350
1A
  3
ACAD_PLOTSETTINGS
350
19
  3
ACAD_PLOTSTYLENAME
350
E
  0
DICTIONARY
  5
D
102
{ACAD_REACTORS
330
C
102
}
100
AcDbDictionary
280
0
281
1
  0
ACDBDICTIONARYWDFLT
  5
E
102
{ACAD_REACTORS
330
C
102
}
100
AcDbDictionary
281
1
  3
Normal
350
F
100
AcDbDictionaryWithDefault
340
F
  0
DICTIONARY
  5
17
102
{ACAD_REACTORS
330
C
102
}
100
AcDbDictionary
280
0
281
1
  3
Standard
350
18
  0
DICTIONARY
  5
19
102
{ACAD_REACTORS
330
C
102
}
100
AcDbDictionary
281
1
  0
DICTIONARY
  5
1A
102
{ACAD_REACTORS
330
C
102
}
100
AcDbDictionary
281
1
  3
Model
350
449
  3
Layout1
350
44A
  0
ACDBPLACEHOLDER
  5
F
102
{ACAD_REACTORS
330
E
102
}
  0
MLINESTYLE
  5
18
102
{ACAD_REACTORS
330
17
102
}
100
AcDbMlineStyle
  2
STANDARD
 70
0
  3

 62
256
 51
90.0
 52
90.0
 71
2
 49
0.5
 62
256
  6
BYLAYER
 49
-0.5
 62
256
  6
BYLAYER
  0
LAYOUT
  5
449
102
{ACAD_REACTORS
330
1A
102
}
100
AcDbPlotSettings
  1

  2
none_device
  4

  6

 40
0.0
 41
0.0
 42
0.0
 43
0.0
 44
1016.0
 45
711.2
 46
0.0
 47
0.0
 48
0.0
 49
0.0
140
0.0
141
0.0
142
1.0
143
1.0
 70
1024
 72
0
 73
0
 74
0
  7

 75
0
147
1.0
148
0.0
149
0.0
100
AcDbLayout
  1
Model
 70
0
 71
0
 10
0.0
 20
0.0
 11
40.0
 21
28.0
 12
0.0
 22
0.0
 32
0.0
 14
0.0
 24
0.0
 34
0.0
 15
0.0
 25
0.0
 35
0.0
146
0.0
 13
0.0
 23
0.0
 33
0.0
 16
1.0
 26
0.0
 36
0.0
 17
0.0
 27
1.0
 37
0.0
 76
0
330
200
345
0
346
0
  0
LAYOUT
  5
44A
102
{ACAD_REACTORS
330
1A
102
}
100
AcDbPlotSettings
  1

  2
none_device
  4

  6

 40
0.0
 41
0.0
 42
0.0
 43
0.0
 44
1016.0
 45
711.2
 46
0.0
 47
0.0
 48
0.0
 49
0.0
140
0.0
141
0.0
142
1.0
143
1.0
 70
0
 72
0
 73
0
 74
0
  7

 75
0
147
1.0
148
0.0
149
0.0
100
AcDbLayout
  1
Layout1
 70
0
 71
1
 10
0.0
 20
0.0
 11
40.0
 21
28.0
 12
0.0
 22
0.0
 32
0.0
 14
0.0
 24
0.0
 34
0.0
 15
0.0
 25
0.0
 35
0.0
146
0.0
 13
0.0
 23
0.0
 33
0.0
 16
1.0
 26
0.0
 36
0.0
 17
0.0
 27
1.0
 37
0.0
 76
0
330
201
345
0
346
0
  0
ENDSEC
  0
EOF
