999
DXF file: 2104bsn101-xxxx-xx.dxf
999
Pro/ENGINEER 2015070 by Parametric Technology Corporation
  0
SECTION
  2
HEADER
  9
$ACADVER
  1
AC1021
  9
$DWGCODEPAGE
  3
ANSI_936
  9
$EXTMAX
 10
40.0
 20
28.0
 30
0.0
  9
$EXTMIN
 10
0.0
 20
0.0
 30
0.0
  9
$LIMMIN
 10
0.0
 20
0.0
  9
$LIMMAX
 10
40.0
 20
28.0
  9
$VIEWCTR
 10
20.0
 20
14.0
  9
$VIEWSIZE
 40
28.0
  9
$CLAYER
  8
0
  9
$LTSCALE
 40
2.2
  9
$CELTYPE
  6
BYLAYER
  9
$DIMSCALE
 40
1.0
  9
$DIMASZ
 40
0.125
  9
$DIMEXO
 40
0.0625
  9
$DIMDLI
 40
1.52
  9
$DIMEXE
 40
0.125
  9
$DIMCEN
 40
0.36
  9
$DIMLFAC
 40
1.0
  9
$DIMBLK
  1
_FILLED
  9
$DIMTXT
 40
0.12
  9
$DIMTOL
 70
1
  9
$DIMLIM
 70
0
  9
$DIMTFAC
 40
1.0
  9
$DIMTP
 40
0.001
  9
$DIMTM
 40
0.001
  9
$DIMGAP
 40
0.09
  9
$DIMDSEP
 70
46
  9
$PDMODE
 70
3
  9
$PDSIZE
 40
0.125
  9
$HANDSEED
  5
41A
  9
$TILEMODE
 70
1
  9
$MEASUREMENT
 70
0
  9
$INSUNITS
 70
1
  0
ENDSEC
  0
SECTION
  2
CLASSES
  0
CLASS
  1
ACDBDICTIONARYWDFLT
  2
AcDbDictionaryWithDefault
  3
AutoCAD 2000
 90
0
 91
1
280
0
281
0
  0
CLASS
  1
ACDBPLACEHOLDER
  2
AcDbPlaceHolder
  3
AutoCAD 2000
 90
0
 91
1
280
0
281
0
  0
CLASS
  1
LAYOUT
  2
AcDbLayout
  3
AutoCAD 2000
 90
0
 91
0
280
0
281
0
  0
ENDSEC
  0
SECTION
  2
TABLES
  0
TABLE
  2
VPORT
  5
8
100
AcDbSymbolTable
 70
2
  0
VPORT
  5
1F4
100
AcDbSymbolTableRecord
100
AcDbViewportTableRecord
  2
*ACTIVE
 70
0
 10
0.0
 20
0.0
 11
1.0
 21
1.0
 12
20.0
 22
14.0
 13
0.0
 23
0.0
 14
1.0
 24
1.0
 15
0.0
 25
0.0
 16
0.0
 26
0.0
 36
1.0
 17
0.0
 27
0.0
 37
0.0
 40
28.0
 41
1.4285714286
 42
50.0
 43
0.0
 44
0.0
 50
0.0
 51
0.0
 71
0
 72
100
 73
1
 74
1
 75
0
 76
0
 77
0
 78
0
  0
ENDTAB
  0
TABLE
  2
LTYPE
  5
5
100
AcDbSymbolTable
 70
6
  0
LTYPE
  5
14
100
AcDbSymbolTableRecord
100
AcDbLinetypeTableRecord
  2
BYBLOCK
 70
0
  3

 72
65
 73
0
 40
0.0
  0
LTYPE
  5
15
100
AcDbSymbolTableRecord
100
AcDbLinetypeTableRecord
  2
BYLAYER
 70
0
  3

 72
65
 73
0
 40
0.0
  0
LTYPE
  5
16
100
AcDbSymbolTableRecord
100
AcDbLinetypeTableRecord
  2
CONTINUOUS
 70
64
  3
Solid line
 72
65
 73
0
 40
0.0
  0
LTYPE
  5
1F5
100
AcDbSymbolTableRecord
100
AcDbLinetypeTableRecord
  2
CENTER
 70
64
  3
____ _ ____ _ ____ _ ____ _ ____ _ ____ _ ____
 72
65
 73
4
 40
0.6
 49
0.375
 74
0
 49
-0.075
 74
0
 49
0.075
 74
0
 49
-0.075
 74
0
  0
LTYPE
  5
1F6
100
AcDbSymbolTableRecord
100
AcDbLinetypeTableRecord
  2
HIDDEN
 70
64
  3
- - - - - - - - - - - - - - - - - - - -
 72
65
 73
2
 40
0.2
 49
0.1
 74
0
 49
-0.1
 74
0
  0
LTYPE
  5
1F7
100
AcDbSymbolTableRecord
100
AcDbLinetypeTableRecord
  2
PHANTOM
 70
64
  3
_____ _ _ _____ _ _ _____ _ _ _____
 72
65
 73
6
 40
0.8
 49
0.45
 74
0
 49
-0.05
 74
0
 49
0.1
 74
0
 49
-0.05
 74
0
 49
0.1
 74
0
 49
-0.05
 74
0
  0
LTYPE
  5
1F8
100
AcDbSymbolTableRecord
100
AcDbLinetypeTableRecord
  2
DOT
 70
64
  3
. . . . . . . . . . . . . . . . . . . .
 72
65
 73
2
 40
0.2
 49
0.1
 74
0
 49
-0.1
 74
0
  0
LTYPE
  5
1F9
100
AcDbSymbolTableRecord
100
AcDbLinetypeTableRecord
  2
DASHED
 70
64
  3
- - - - - - - - - - - - - - - - - - - -
 72
65
 73
2
 40
0.2
 49
0.1
 74
0
 49
-0.1
 74
0
  0
ENDTAB
  0
TABLE
  2
LAYER
  5
2
100
AcDbSymbolTable
 70
36
  0
LAYER
  5
10
100
AcDbSymbolTableRecord
100
AcDbLayerTableRecord
  2
0
 70
0
 62
7
  6
CONTINUOUS
370
-3
390
F
  0
LAYER
  5
1FA
100
AcDbSymbolTableRecord
100
AcDbLayerTableRecord
  2
DEFAULT_1
 70
0
 62
7
  6
CENTER
370
-3
390
F
  0
LAYER
  5
1FB
100
AcDbSymbolTableRecord
100
AcDbLayerTableRecord
  2
DEFAULT_2
 70
0
 62
8
  6
HIDDEN
370
-3
390
F
  0
LAYER
  5
1FC
100
AcDbSymbolTableRecord
100
AcDbLayerTableRecord
  2
DEFAULT_3
 70
0
 62
7
  6
PHANTOM
370
-3
390
F
  0
LAYER
  5
1FD
100
AcDbSymbolTableRecord
100
AcDbLayerTableRecord
  2
___SHELL
 70
0
 62
7
  6
CONTINUOUS
370
-3
390
F
  0
ENDTAB
  0
TABLE
  2
STYLE
  5
3
100
AcDbSymbolTable
 70
1
  0
STYLE
  5
11
100
AcDbSymbolTableRecord
100
AcDbTextStyleTableRecord
  2
STANDARD
 70
0
 40
0.0
 41
1.0
 50
0.0
 71
0
 42
0.2
  3
txt
  4

  0
STYLE
  5
1FE
100
AcDbSymbolTableRecord
100
AcDbTextStyleTableRecord
  2
TEXTSTYLE_1
 70
0
 40
0.0
 41
0.8
 50
0.0
 71
0
 42
0.2
  3
gdt
  4

  0
ENDTAB
  0
TABLE
  2
VIEW
  5
6
100
AcDbSymbolTable
 70
0
  0
ENDTAB
  0
TABLE
  2
UCS
  5
7
100
AcDbSymbolTable
 70
0
  0
ENDTAB
  0
TABLE
  2
APPID
  5
9
100
AcDbSymbolTable
 70
1
  0
APPID
  5
1FF
100
AcDbSymbolTableRecord
100
AcDbRegAppTableRecord
  2
ACAD
 70
0
  0
ENDTAB
  0
TABLE
  2
BLOCK_RECORD
  5
1
100
AcDbSymbolTable
 70
0
  0
BLOCK_RECORD
  5
200
100
AcDbSymbolTableRecord
100
AcDbBlockTableRecord
  2
*Model_Space
  0
BLOCK_RECORD
  5
201
100
AcDbSymbolTableRecord
100
AcDbBlockTableRecord
  2
*Paper_Space
  0
ENDTAB
  0
TABLE
  2
DIMSTYLE
  5
A
100
AcDbSymbolTable
 70
1
100
AcDbDimStyleTable
 71
0
  0
DIMSTYLE
105
202
100
AcDbSymbolTableRecord
100
AcDbDimStyleTableRecord
  2
STANDARD
 70
0
  3

  4

 40
1.0
 41
0.125
 42
0.0625
 43
0.38
 44
0.125
 45
0.0
 46
0.0
 47
0.001
 48
0.001
140
0.12
141
0.09
142
0.0
143
25.4
144
1.0
145
0.0
146
1.0
147
0.09
 71
1.0
 72
0.0
 73
1
 74
1
 75
0
 76
0
 77
0
 78
4
170
0
171
2
172
0
173
0
174
0
175
0
176
0
177
0
178
0
270
2
271
3
272
3
273
2
274
2
275
0
280
0
281
0
282
0
283
1
284
4
285
0
286
0
287
3
288
0
340
11
278
46
  0
ENDTAB
  0
ENDSEC
  0
SECTION
  2
BLOCKS
  0
BLOCK
  5
20
100
AcDbEntity
  8
0
100
AcDbBlockBegin
  2
*Model_Space
 70
0
 10
0.0
 20
0.0
 30
0.0
  3
*Model_Space
  1

  0
ENDBLK
  5
21
100
AcDbEntity
  8
0
100
AcDbBlockEnd
  0
BLOCK
  5
1C
100
AcDbEntity
  8
0
100
AcDbBlockBegin
  2
*Paper_Space
 70
0
 10
0.0
 20
0.0
 30
0.0
  3
*Paper_Space
  1

  0
ENDBLK
  5
1D
100
AcDbEntity
  8
0
100
AcDbBlockEnd
  0
ENDSEC
  0
SECTION
  2
ENTITIES
  0
LINE
  5
203
100
AcDbEntity
  8
0
100
AcDbLine
 62
7
  6
CONTINUOUS
 10
0.0
 20
0.0
 11
0.0
 21
28.0
  0
LINE
  5
204
100
AcDbEntity
  8
0
100
AcDbLine
 62
7
  6
CONTINUOUS
 10
0.0
 20
0.0
 11
40.0
 21
0.0
  0
LINE
  5
205
100
AcDbEntity
  8
0
100
AcDbLine
 62
7
  6
CONTINUOUS
 10
0.0
 20
28.0
 11
40.0
 21
28.0
  0
LINE
  5
206
100
AcDbEntity
  8
0
100
AcDbLine
 62
7
  6
CONTINUOUS
 10
40.0
 20
0.0
 11
40.0
 21
28.0
  0
LINE
  5
207
100
AcDbEntity
  8
0
100
AcDbLine
 62
7
  6
CONTINUOUS
 10
7.7631113956
 20
4.0681818038
 11
7.7631113956
 21
2.7181818038
  0
LINE
  5
208
100
AcDbEntity
  8
0
100
AcDbLine
 62
7
  6
CONTINUOUS
 10
7.8681113956
 20
6.2201818038
 11
7.8681113956
 21
4.9301818038
  0
LINE
  5
209
100
AcDbEntity
  8
0
100
AcDbLine
 62
7
  6
CONTINUOUS
 10
7.7631113956
 20
2.7181818038
 11
9.9331113956
 21
2.7181818038
  0
LINE
  5
20A
100
AcDbEntity
  8
0
100
AcDbLine
 62
7
  6
CONTINUOUS
 10
11.5981113956
 20
2.7181818038
 11
14.0981113956
 21
2.7181818038
  0
LINE
  5
20B
100
AcDbEntity
  8
0
100
AcDbLine
 62
7
  6
CONTINUOUS
 10
15.7631113956
 20
2.7181818038
 11
17.9331113956
 21
2.7181818038
  0
LINE
  5
20C
100
AcDbEntity
  8
0
100
AcDbLine
 62
9
  6
CONTINUOUS
 10
14.0981113956
 20
3.0981818038
 11
11.5981113956
 21
3.0981818038
  0
LINE
  5
20D
100
AcDbEntity
  8
0
100
AcDbLine
 62
7
  6
CONTINUOUS
 10
11.6181113956
 20
3.1181818038
 11
14.0781113956
 21
3.1181818038
  0
LINE
  5
20E
100
AcDbEntity
  8
0
100
AcDbLine
 62
7
  6
CONTINUOUS
 10
8.4081113956
 20
4.0681818038
 11
8.4081113956
 21
4.2681818038
  0
LINE
  5
20F
100
AcDbEntity
  8
0
100
AcDbLine
 62
7
  6
CONTINUOUS
 10
8.4416113956
 20
6.2201818038
 11
8.4416113956
 21
4.9301818038
  0
LINE
  5
210
100
AcDbEntity
  8
0
100
AcDbLine
 62
7
  6
CONTINUOUS
 10
8.4981113956
 20
4.9301818038
 11
8.4981113956
 21
4.6251818038
  0
LINE
  5
211
100
AcDbEntity
  8
0
100
AcDbLine
 62
7
  6
CONTINUOUS
 10
8.4981113956
 20
4.4611818038
 11
8.4981113956
 21
4.3801818038
  0
LINE
  5
212
100
AcDbEntity
  8
0
100
AcDbLine
 62
7
  6
CONTINUOUS
 10
8.5531113956
 20
4.3801818038
 11
8.5531113956
 21
4.2681818038
  0
LINE
  5
213
100
AcDbEntity
  8
0
100
AcDbLine
 62
7
  6
CONTINUOUS
 10
8.5616113956
 20
6.2201818038
 11
8.5616113956
 21
4.9301818038
  0
LINE
  5
214
100
AcDbEntity
  8
0
100
AcDbLine
 62
7
  6
CONTINUOUS
 10
7.7631113956
 20
4.0681818038
 11
9.9331113956
 21
4.0681818038
  0
LINE
  5
215
100
AcDbEntity
  8
0
100
AcDbLine
 62
7
  6
CONTINUOUS
 10
15.7631113956
 20
4.0681818038
 11
17.9331113956
 21
4.0681818038
  0
LINE
  5
216
100
AcDbEntity
  8
0
100
AcDbLine
 62
7
  6
CONTINUOUS
 10
9.1346113956
 20
6.2201818038
 11
9.1346113956
 21
4.9301818038
  0
LINE
  5
217
100
AcDbEntity
  8
0
100
AcDbLine
 62
7
  6
CONTINUOUS
 10
9.1431113956
 20
4.3801818038
 11
9.1431113956
 21
4.2681818038
  0
LINE
  5
218
100
AcDbEntity
  8
0
100
AcDbLine
 62
7
  6
CONTINUOUS
 10
9.1981113956
 20
4.9301818038
 11
9.1981113956
 21
4.3801818038
  0
LINE
  5
219
100
AcDbEntity
  8
0
100
AcDbLine
 62
7
  6
CONTINUOUS
 10
9.2546113956
 20
6.2201818038
 11
9.2546113956
 21
4.9301818038
  0
LINE
  5
21A
100
AcDbEntity
  8
0
100
AcDbLine
 62
7
  6
CONTINUOUS
 10
9.2881113956
 20
4.2681818038
 11
9.2881113956
 21
4.0681818038
  0
LINE
  5
21B
100
AcDbEntity
  8
0
100
AcDbLine
 62
7
  6
CONTINUOUS
 10
17.2881113956
 20
4.2681818038
 11
16.4081113956
 21
4.2681818038
  0
LINE
  5
21C
100
AcDbEntity
  8
0
100
AcDbLine
 62
7
  6
CONTINUOUS
 10
9.2881113956
 20
4.2681818038
 11
8.4081113956
 21
4.2681818038
  0
LINE
  5
21D
100
AcDbEntity
  8
0
100
AcDbLine
 62
7
  6
CONTINUOUS
 10
8.4981113956
 20
4.3801818038
 11
9.1981113956
 21
4.3801818038
  0
LINE
  5
21E
100
AcDbEntity
  8
0
100
AcDbLine
 62
7
  6
CONTINUOUS
 10
16.4981113956
 20
4.3801818038
 11
17.1981113956
 21
4.3801818038
  0
LINE
  5
21F
100
AcDbEntity
  8
0
100
AcDbLine
 62
7
  6
CONTINUOUS
 10
9.8281113956
 20
6.2201818038
 11
9.8281113956
 21
4.9301818038
  0
LINE
  5
220
100
AcDbEntity
  8
0
100
AcDbLine
 62
7
  6
CONTINUOUS
 10
9.9331113956
 20
2.7181818038
 11
9.9331113956
 21
4.0681818038
  0
LINE
  5
221
100
AcDbEntity
  8
0
100
AcDbLine
 62
7
  6
CONTINUOUS
 10
17.8281113956
 20
4.9301818038
 11
15.8681113956
 21
4.9301818038
  0
LINE
  5
222
100
AcDbEntity
  8
0
100
AcDbLine
 62
7
  6
CONTINUOUS
 10
9.8281113956
 20
4.9301818038
 11
7.8681113956
 21
4.9301818038
  0
LINE
  5
223
100
AcDbEntity
  8
0
100
AcDbLine
 62
7
  6
CONTINUOUS
 10
8.4416113956
 20
5.7201818038
 11
8.5616113956
 21
5.7201818038
  0
LINE
  5
224
100
AcDbEntity
  8
0
100
AcDbLine
 62
7
  6
CONTINUOUS
 10
9.1346113956
 20
5.7201818038
 11
9.2546113956
 21
5.7201818038
  0
LINE
  5
225
100
AcDbEntity
  8
0
100
AcDbLine
 62
7
  6
CONTINUOUS
 10
16.4416113956
 20
5.7201818038
 11
16.5616113956
 21
5.7201818038
  0
LINE
  5
226
100
AcDbEntity
  8
0
100
AcDbLine
 62
7
  6
CONTINUOUS
 10
17.1346113956
 20
5.7201818038
 11
17.2546113956
 21
5.7201818038
  0
LINE
  5
227
100
AcDbEntity
  8
0
100
AcDbLine
 62
7
  6
CONTINUOUS
 10
17.8281113956
 20
6.2201818038
 11
17.2546113956
 21
6.2201818038
  0
LINE
  5
228
100
AcDbEntity
  8
0
100
AcDbLine
 62
7
  6
CONTINUOUS
 10
17.1346113956
 20
6.2201818038
 11
16.5616113956
 21
6.2201818038
  0
LINE
  5
229
100
AcDbEntity
  8
0
100
AcDbLine
 62
7
  6
CONTINUOUS
 10
16.4416113956
 20
6.2201818038
 11
15.8681113956
 21
6.2201818038
  0
LINE
  5
22A
100
AcDbEntity
  8
0
100
AcDbLine
 62
7
  6
CONTINUOUS
 10
9.8281113956
 20
6.2201818038
 11
9.2546113956
 21
6.2201818038
  0
LINE
  5
22B
100
AcDbEntity
  8
0
100
AcDbLine
 62
7
  6
CONTINUOUS
 10
9.1346113956
 20
6.2201818038
 11
8.5616113956
 21
6.2201818038
  0
LINE
  5
22C
100
AcDbEntity
  8
0
100
AcDbLine
 62
7
  6
CONTINUOUS
 10
8.4416113956
 20
6.2201818038
 11
7.8681113956
 21
6.2201818038
  0
LINE
  5
22D
100
AcDbEntity
  8
0
100
AcDbLine
 62
7
  6
CONTINUOUS
 10
11.5981113956
 20
2.7181818038
 11
11.5981113956
 21
3.0981818038
  0
LINE
  5
22E
100
AcDbEntity
  8
0
100
AcDbLine
 62
9
  6
CONTINUOUS
 10
11.6181113956
 20
2.7181818038
 11
11.6181113956
 21
3.1181818038
  0
LINE
  5
22F
100
AcDbEntity
  8
0
100
AcDbLine
 62
7
  6
CONTINUOUS
 10
12.0981113956
 20
3.1181818038
 11
12.0981113956
 21
13.3231345046
  0
LINE
  5
230
100
AcDbEntity
  8
0
100
AcDbLine
 62
9
  6
CONTINUOUS
 10
12.1181113956
 20
3.1181818038
 11
12.1181113956
 21
13.3431818038
  0
LINE
  5
231
100
AcDbEntity
  8
0
100
AcDbLine
 62
9
  6
CONTINUOUS
 10
13.5781113956
 20
3.1181818038
 11
13.5781113956
 21
13.3431818038
  0
LINE
  5
232
100
AcDbEntity
  8
0
100
AcDbLine
 62
7
  6
CONTINUOUS
 10
13.5981113956
 20
13.3231818038
 11
13.5981113956
 21
3.1181818038
  0
LINE
  5
233
100
AcDbEntity
  8
0
100
AcDbLine
 62
7
  6
CONTINUOUS
 10
12.0981113956
 20
8.8681818038
 11
13.5981113956
 21
8.8681818038
  0
LINE
  5
234
100
AcDbEntity
  8
0
100
AcDbLine
 62
9
  6
CONTINUOUS
 10
14.0781113956
 20
2.7181818038
 11
14.0781113956
 21
3.1181818038
  0
LINE
  5
235
100
AcDbEntity
  8
0
100
AcDbLine
 62
7
  6
CONTINUOUS
 10
14.0981113956
 20
3.0981818038
 11
14.0981113956
 21
2.7181818038
  0
LINE
  5
236
100
AcDbEntity
  8
0
100
AcDbLine
 62
9
  6
CONTINUOUS
 10
12.0981113956
 20
9.7181818038
 11
13.5981113956
 21
9.7181818038
  0
LINE
  5
237
100
AcDbEntity
  8
0
100
AcDbLine
 62
7
  6
CONTINUOUS
 10
15.7631113956
 20
4.0681818038
 11
15.7631113956
 21
2.7181818038
  0
LINE
  5
238
100
AcDbEntity
  8
0
100
AcDbLine
 62
7
  6
CONTINUOUS
 10
15.8681113956
 20
6.2201818038
 11
15.8681113956
 21
4.9301818038
  0
LINE
  5
239
100
AcDbEntity
  8
0
100
AcDbLine
 62
7
  6
CONTINUOUS
 10
16.4081113956
 20
4.0681818038
 11
16.4081113956
 21
4.2681818038
  0
LINE
  5
23A
100
AcDbEntity
  8
0
100
AcDbLine
 62
7
  6
CONTINUOUS
 10
16.4416113956
 20
6.2201818038
 11
16.4416113956
 21
4.9301818038
  0
LINE
  5
23B
100
AcDbEntity
  8
0
100
AcDbLine
 62
7
  6
CONTINUOUS
 10
16.4981113956
 20
4.9301818038
 11
16.4981113956
 21
4.3801818038
  0
LINE
  5
23C
100
AcDbEntity
  8
0
100
AcDbLine
 62
7
  6
CONTINUOUS
 10
16.5531113956
 20
4.3801818038
 11
16.5531113956
 21
4.2681818038
  0
LINE
  5
23D
100
AcDbEntity
  8
0
100
AcDbLine
 62
7
  6
CONTINUOUS
 10
16.5616113956
 20
6.2201818038
 11
16.5616113956
 21
4.9301818038
  0
LINE
  5
23E
100
AcDbEntity
  8
0
100
AcDbLine
 62
7
  6
CONTINUOUS
 10
17.1346113956
 20
6.2201818038
 11
17.1346113956
 21
4.9301818038
  0
LINE
  5
23F
100
AcDbEntity
  8
0
100
AcDbLine
 62
7
  6
CONTINUOUS
 10
17.1431113956
 20
4.3801818038
 11
17.1431113956
 21
4.2681818038
  0
LINE
  5
240
100
AcDbEntity
  8
0
100
AcDbLine
 62
7
  6
CONTINUOUS
 10
17.1981113956
 20
4.9301818038
 11
17.1981113956
 21
4.6251818038
  0
LINE
  5
241
100
AcDbEntity
  8
0
100
AcDbLine
 62
7
  6
CONTINUOUS
 10
17.1981113956
 20
4.4611818038
 11
17.1981113956
 21
4.3801818038
  0
LINE
  5
242
100
AcDbEntity
  8
0
100
AcDbLine
 62
7
  6
CONTINUOUS
 10
17.2546113956
 20
4.9301818038
 11
17.2546113956
 21
6.2201818038
  0
LINE
  5
243
100
AcDbEntity
  8
0
100
AcDbLine
 62
7
  6
CONTINUOUS
 10
17.2881113956
 20
4.2681818038
 11
17.2881113956
 21
4.0681818038
  0
LINE
  5
244
100
AcDbEntity
  8
0
100
AcDbLine
 62
7
  6
CONTINUOUS
 10
17.8281113956
 20
4.9301818038
 11
17.8281113956
 21
6.2201818038
  0
LINE
  5
245
100
AcDbEntity
  8
0
100
AcDbLine
 62
7
  6
CONTINUOUS
 10
17.9331113956
 20
2.7181818038
 11
17.9331113956
 21
4.0681818038
  0
LINE
  5
246
100
AcDbEntity
  8
0
100
AcDbLine
 62
7
  6
CONTINUOUS
 10
12.1181113956
 20
13.3431818038
 11
13.5781113956
 21
13.3431818038
  0
LINE
  5
247
100
AcDbEntity
  8
0
100
AcDbLine
 62
7
  6
CONTINUOUS
 10
29.9860383789
 20
2.7181818038
 11
32.1560383789
 21
2.7181818038
  0
LINE
  5
248
100
AcDbEntity
  8
0
100
AcDbLine
 62
7
  6
CONTINUOUS
 10
24.0710383789
 20
9.7181818038
 11
24.0710383789
 21
8.8681818038
  0
LINE
  5
249
100
AcDbEntity
  8
0
100
AcDbLine
 62
9
  6
CONTINUOUS
 10
24.0910383783
 20
9.7181818038
 11
24.0910383789
 21
8.8681818038
  0
LINE
  5
24A
100
AcDbEntity
  8
0
100
AcDbLine
 62
7
  6
CONTINUOUS
 10
29.9860383789
 20
4.0681818038
 11
32.1560383789
 21
4.0681818038
  0
LINE
  5
24B
100
AcDbEntity
  8
0
100
AcDbLine
 62
9
  6
CONTINUOUS
 10
24.5510383819
 20
8.8681818038
 11
24.5510383879
 21
9.7181818038
  0
LINE
  5
24C
100
AcDbEntity
  8
0
100
AcDbLine
 62
7
  6
CONTINUOUS
 10
24.5710383789
 20
9.7181818038
 11
24.5710383789
 21
8.8681818038
  0
LINE
  5
24D
100
AcDbEntity
  8
0
100
AcDbLine
 62
7
  6
CONTINUOUS
 10
31.5110358582
 20
4.2681818038
 11
30.6310408995
 21
4.2681818038
  0
LINE
  5
24E
100
AcDbEntity
  8
0
100
AcDbLine
 62
7
  6
CONTINUOUS
 10
30.7210403839
 20
4.3801818038
 11
31.4210363738
 21
4.3801818038
  0
LINE
  5
24F
100
AcDbEntity
  8
0
100
AcDbLine
 62
7
  6
CONTINUOUS
 10
32.0510383789
 20
4.9301818038
 11
30.0910383789
 21
4.9301818038
  0
LINE
  5
250
100
AcDbEntity
  8
0
100
AcDbLine
 62
7
  6
CONTINUOUS
 10
30.6645383789
 20
5.7201818038
 11
30.7845383789
 21
5.7201818038
  0
LINE
  5
251
100
AcDbEntity
  8
0
100
AcDbLine
 62
7
  6
CONTINUOUS
 10
31.3575383789
 20
5.7201818038
 11
31.4775383789
 21
5.7201818038
  0
LINE
  5
252
100
AcDbEntity
  8
0
100
AcDbLine
 62
7
  6
CONTINUOUS
 10
32.0510383789
 20
6.2201818038
 11
31.4775383789
 21
6.2201818038
  0
LINE
  5
253
100
AcDbEntity
  8
0
100
AcDbLine
 62
7
  6
CONTINUOUS
 10
31.3575383789
 20
6.2201818038
 11
30.7845383789
 21
6.2201818038
  0
LINE
  5
254
100
AcDbEntity
  8
0
100
AcDbLine
 62
7
  6
CONTINUOUS
 10
30.0910383789
 20
6.2201818038
 11
30.6645383789
 21
6.2201818038
  0
LINE
  5
255
100
AcDbEntity
  8
0
100
AcDbLine
 62
7
  6
CONTINUOUS
 10
24.0710383789
 20
8.8681818038
 11
24.5710383789
 21
8.8681818038
  0
LINE
  5
256
100
AcDbEntity
  8
0
100
AcDbLine
 62
9
  6
CONTINUOUS
 10
31.3210383789
 20
9.7181818038
 11
31.3010383789
 21
9.7181818038
  0
LINE
  5
257
100
AcDbEntity
  8
0
100
AcDbLine
 62
9
  6
CONTINUOUS
 10
30.8410383789
 20
9.7181818038
 11
30.8210383789
 21
9.7181818038
  0
LINE
  5
258
100
AcDbEntity
  8
0
100
AcDbLine
 62
9
  6
CONTINUOUS
 10
24.5710383789
 20
9.7181818038
 11
24.5510383789
 21
9.7181818038
  0
LINE
  5
259
100
AcDbEntity
  8
0
100
AcDbLine
 62
9
  6
CONTINUOUS
 10
24.0710383789
 20
9.7181818038
 11
24.0910383789
 21
9.7181818038
  0
LINE
  5
25A
100
AcDbEntity
  8
0
100
AcDbLine
 62
7
  6
CONTINUOUS
 10
29.9860383789
 20
2.7181818038
 11
29.9860383789
 21
4.0681818038
  0
LINE
  5
25B
100
AcDbEntity
  8
0
100
AcDbLine
 62
7
  6
CONTINUOUS
 10
30.0910383789
 20
4.9301818038
 11
30.0910383789
 21
6.2201818038
  0
LINE
  5
25C
100
AcDbEntity
  8
0
100
AcDbLine
 62
7
  6
CONTINUOUS
 10
30.6310383789
 20
4.0681818038
 11
30.6310383789
 21
4.2681818038
  0
LINE
  5
25D
100
AcDbEntity
  8
0
100
AcDbLine
 62
7
  6
CONTINUOUS
 10
30.6645383789
 20
6.2201818038
 11
30.6645383789
 21
4.9301818038
  0
LINE
  5
25E
100
AcDbEntity
  8
0
100
AcDbLine
 62
7
  6
CONTINUOUS
 10
30.7210383789
 20
4.9301818038
 11
30.7210383789
 21
4.3801818038
  0
LINE
  5
25F
100
AcDbEntity
  8
0
100
AcDbLine
 62
7
  6
CONTINUOUS
 10
30.7760383789
 20
4.3801818038
 11
30.7760383789
 21
4.2681818038
  0
LINE
  5
260
100
AcDbEntity
  8
0
100
AcDbLine
 62
7
  6
CONTINUOUS
 10
30.7845383789
 20
6.2201818038
 11
30.7845383789
 21
4.9301818038
  0
LINE
  5
261
100
AcDbEntity
  8
0
100
AcDbLine
 62
7
  6
CONTINUOUS
 10
30.8210383789
 20
9.7181818038
 11
30.8210383789
 21
6.2201818038
  0
LINE
  5
262
100
AcDbEntity
  8
0
100
AcDbLine
 62
9
  6
CONTINUOUS
 10
30.8410383774
 20
9.7181818038
 11
30.8410383782
 21
6.2201818038
  0
LINE
  5
263
100
AcDbEntity
  8
0
100
AcDbLine
 62
9
  6
CONTINUOUS
 10
31.301038382
 20
9.7181818038
 11
31.3010383803
 21
6.2201818038
  0
LINE
  5
264
100
AcDbEntity
  8
0
100
AcDbLine
 62
7
  6
CONTINUOUS
 10
31.3210383789
 20
9.7181818038
 11
31.3210383789
 21
6.2201818038
  0
LINE
  5
265
100
AcDbEntity
  8
0
100
AcDbLine
 62
7
  6
CONTINUOUS
 10
31.3575383789
 20
6.2201818038
 11
31.3575383789
 21
4.9301818038
  0
LINE
  5
266
100
AcDbEntity
  8
0
100
AcDbLine
 62
7
  6
CONTINUOUS
 10
31.3660383789
 20
4.3801818038
 11
31.3660383789
 21
4.2681818038
  0
LINE
  5
267
100
AcDbEntity
  8
0
100
AcDbLine
 62
7
  6
CONTINUOUS
 10
31.4210383789
 20
4.9301818038
 11
31.4210383789
 21
4.3801818038
  0
LINE
  5
268
100
AcDbEntity
  8
0
100
AcDbLine
 62
7
  6
CONTINUOUS
 10
31.4775383789
 20
6.2201818038
 11
31.4775383789
 21
4.9301818038
  0
LINE
  5
269
100
AcDbEntity
  8
0
100
AcDbLine
 62
7
  6
CONTINUOUS
 10
31.5110383789
 20
4.0681818038
 11
31.5110383789
 21
4.2681818038
  0
LINE
  5
26A
100
AcDbEntity
  8
0
100
AcDbLine
 62
7
  6
CONTINUOUS
 10
32.0510383789
 20
6.2201818038
 11
32.0510383789
 21
4.9301818038
  0
LINE
  5
26B
100
AcDbEntity
  8
0
100
AcDbLine
 62
7
  6
CONTINUOUS
 10
32.1560383789
 20
2.7181818038
 11
32.1560383789
 21
4.0681818038
  0
LINE
  5
26C
100
AcDbEntity
  8
0
100
AcDbLine
 62
7
  6
CONTINUOUS
 10
7.7631113956
 20
24.5862026901
 11
7.7631113956
 21
22.4162026901
  0
LINE
  5
26D
100
AcDbEntity
  8
0
100
AcDbLine
 62
7
  6
CONTINUOUS
 10
7.8681113956
 20
24.4812026901
 11
7.8681113956
 21
23.9077026901
  0
LINE
  5
26E
100
AcDbEntity
  8
0
100
AcDbLine
 62
7
  6
CONTINUOUS
 10
7.8681113956
 20
22.5212026901
 11
7.8681113956
 21
23.0947026901
  0
LINE
  5
26F
100
AcDbEntity
  8
0
100
AcDbLine
 62
7
  6
CONTINUOUS
 10
7.8681113956
 20
23.2147026901
 11
7.8681113956
 21
23.7877026901
  0
LINE
  5
270
100
AcDbEntity
  8
0
100
AcDbLine
 62
7
  6
CONTINUOUS
 10
8.3681113956
 20
23.9077026901
 11
8.3681113956
 21
23.7877026901
  0
LINE
  5
271
100
AcDbEntity
  8
0
100
AcDbLine
 62
7
  6
CONTINUOUS
 10
8.3681113956
 20
23.2147026901
 11
8.3681113956
 21
23.0947026901
  0
LINE
  5
272
100
AcDbEntity
  8
0
100
AcDbLine
 62
7
  6
CONTINUOUS
 10
8.4416113956
 20
24.4812026901
 11
8.4416113956
 21
23.9077026901
  0
LINE
  5
273
100
AcDbEntity
  8
0
100
AcDbLine
 62
7
  6
CONTINUOUS
 10
8.4416113956
 20
23.7877026901
 11
8.4416113956
 21
23.2147026901
  0
LINE
  5
274
100
AcDbEntity
  8
0
100
AcDbLine
 62
7
  6
CONTINUOUS
 10
8.4416113956
 20
23.0947026901
 11
8.4416113956
 21
22.5212026901
  0
LINE
  5
275
100
AcDbEntity
  8
0
100
AcDbLine
 62
7
  6
CONTINUOUS
 10
8.5616113956
 20
22.5212026901
 11
8.5616113956
 21
23.0947026901
  0
LINE
  5
276
100
AcDbEntity
  8
0
100
AcDbLine
 62
7
  6
CONTINUOUS
 10
8.5616113956
 20
23.2147026901
 11
8.5616113956
 21
23.7877026901
  0
LINE
  5
277
100
AcDbEntity
  8
0
100
AcDbLine
 62
7
  6
CONTINUOUS
 10
8.5616113956
 20
23.9077026901
 11
8.5616113956
 21
24.4812026901
  0
LINE
  5
278
100
AcDbEntity
  8
0
100
AcDbLine
 62
7
  6
CONTINUOUS
 10
12.1181113956
 20
16.5012026901
 11
13.5781113956
 21
16.5012026901
  0
LINE
  5
279
100
AcDbEntity
  8
0
100
AcDbLine
 62
7
  6
CONTINUOUS
 10
9.1346113956
 20
24.4812026901
 11
9.1346113956
 21
23.9077026901
  0
LINE
  5
27A
100
AcDbEntity
  8
0
100
AcDbLine
 62
7
  6
CONTINUOUS
 10
9.1346113956
 20
23.7877026901
 11
9.1346113956
 21
23.2147026901
  0
LINE
  5
27B
100
AcDbEntity
  8
0
100
AcDbLine
 62
7
  6
CONTINUOUS
 10
9.1346113956
 20
23.0947026901
 11
9.1346113956
 21
22.5212026901
  0
LINE
  5
27C
100
AcDbEntity
  8
0
100
AcDbLine
 62
7
  6
CONTINUOUS
 10
9.2546113956
 20
22.5212026901
 11
9.2546113956
 21
23.0947026901
  0
LINE
  5
27D
100
AcDbEntity
  8
0
100
AcDbLine
 62
7
  6
CONTINUOUS
 10
9.2546113956
 20
23.2147026901
 11
9.2546113956
 21
23.7877026901
  0
LINE
  5
27E
100
AcDbEntity
  8
0
100
AcDbLine
 62
7
  6
CONTINUOUS
 10
9.2546113956
 20
23.9077026901
 11
9.2546113956
 21
24.4812026901
  0
LINE
  5
27F
100
AcDbEntity
  8
0
100
AcDbLine
 62
7
  6
CONTINUOUS
 10
9.3281113956
 20
23.0947026901
 11
9.3281113956
 21
23.2147026901
  0
LINE
  5
280
100
AcDbEntity
  8
0
100
AcDbLine
 62
7
  6
CONTINUOUS
 10
9.3281113956
 20
23.7877026901
 11
9.3281113956
 21
23.9077026901
  0
LINE
  5
281
100
AcDbEntity
  8
0
100
AcDbLine
 62
7
  6
CONTINUOUS
 10
9.8281113956
 20
24.4812026901
 11
9.8281113956
 21
23.9077026901
  0
LINE
  5
282
100
AcDbEntity
  8
0
100
AcDbLine
 62
7
  6
CONTINUOUS
 10
9.8281113956
 20
23.7877026901
 11
9.8281113956
 21
23.2147026901
  0
LINE
  5
283
100
AcDbEntity
  8
0
100
AcDbLine
 62
7
  6
CONTINUOUS
 10
9.8281113956
 20
23.0947026901
 11
9.8281113956
 21
22.5212026901
  0
LINE
  5
284
100
AcDbEntity
  8
0
100
AcDbLine
 62
7
  6
CONTINUOUS
 10
9.9331113956
 20
22.4162026901
 11
9.9331113956
 21
24.5862026901
  0
LINE
  5
285
100
AcDbEntity
  8
0
100
AcDbLine
 62
7
  6
CONTINUOUS
 10
11.5981113956
 20
24.4812026901
 11
11.5981113956
 21
22.5212026901
  0
LINE
  5
286
100
AcDbEntity
  8
0
100
AcDbLine
 62
9
  6
CONTINUOUS
 10
11.6181113956
 20
24.5012026901
 11
11.6181113956
 21
22.5012026901
  0
LINE
  5
287
100
AcDbEntity
  8
0
100
AcDbLine
 62
7
  6
CONTINUOUS
 10
12.0981113956
 20
23.7312026905
 11
12.0981113956
 21
16.5212026882
  0
LINE
  5
288
100
AcDbEntity
  8
0
100
AcDbLine
 62
9
  6
CONTINUOUS
 10
12.1181113956
 20
23.7512026901
 11
12.1181113956
 21
16.5012026901
  0
LINE
  5
289
100
AcDbEntity
  8
0
100
AcDbLine
 62
7
  6
CONTINUOUS
 10
12.5481113956
 20
24.4562026901
 11
12.5481113956
 21
23.8962026901
  0
LINE
  5
28A
100
AcDbEntity
  8
0
100
AcDbLine
 62
9
  6
CONTINUOUS
 10
12.5681113956
 20
23.8762026901
 11
12.5681113956
 21
24.4762026901
  0
LINE
  5
28B
100
AcDbEntity
  8
0
100
AcDbLine
 62
9
  6
CONTINUOUS
 10
13.1281113956
 20
23.8762026901
 11
13.1281113956
 21
24.4762026901
  0
LINE
  5
28C
100
AcDbEntity
  8
0
100
AcDbLine
 62
7
  6
CONTINUOUS
 10
13.1481113956
 20
24.4562026901
 11
13.1481113956
 21
23.8962026901
  0
LINE
  5
28D
100
AcDbEntity
  8
0
100
AcDbLine
 62
9
  6
CONTINUOUS
 10
13.5781113956
 20
16.5012026901
 11
13.5781113956
 21
23.7512026901
  0
LINE
  5
28E
100
AcDbEntity
  8
0
100
AcDbLine
 62
7
  6
CONTINUOUS
 10
13.5981113956
 20
16.5212026896
 11
13.5981113956
 21
23.7312026932
  0
LINE
  5
28F
100
AcDbEntity
  8
0
100
AcDbLine
 62
9
  6
CONTINUOUS
 10
14.0781113956
 20
22.5012026901
 11
14.0781113956
 21
24.5012026901
  0
LINE
  5
290
100
AcDbEntity
  8
0
100
AcDbLine
 62
7
  6
CONTINUOUS
 10
14.0981113956
 20
24.4812026901
 11
14.0981113956
 21
22.5212026901
  0
LINE
  5
291
100
AcDbEntity
  8
0
100
AcDbLine
 62
7
  6
CONTINUOUS
 10
7.7631113956
 20
22.4162026901
 11
9.9331113956
 21
22.4162026901
  0
LINE
  5
292
100
AcDbEntity
  8
0
100
AcDbLine
 62
7
  6
CONTINUOUS
 10
15.7631113956
 20
22.4162026901
 11
17.9331113956
 21
22.4162026901
  0
LINE
  5
293
100
AcDbEntity
  8
0
100
AcDbLine
 62
7
  6
CONTINUOUS
 10
14.0781113956
 20
22.5012026901
 11
13.5981113956
 21
22.5012026901
  0
LINE
  5
294
100
AcDbEntity
  8
0
100
AcDbLine
 62
7
  6
CONTINUOUS
 10
12.0981113956
 20
22.5012026901
 11
11.6181113956
 21
22.5012026901
  0
LINE
  5
295
100
AcDbEntity
  8
0
100
AcDbLine
 62
7
  6
CONTINUOUS
 10
17.8281113956
 20
22.5212026901
 11
17.2546113956
 21
22.5212026901
  0
LINE
  5
296
100
AcDbEntity
  8
0
100
AcDbLine
 62
7
  6
CONTINUOUS
 10
17.1346113956
 20
22.5212026901
 11
16.5616113956
 21
22.5212026901
  0
LINE
  5
297
100
AcDbEntity
  8
0
100
AcDbLine
 62
7
  6
CONTINUOUS
 10
16.4416113956
 20
22.5212026901
 11
15.8681113956
 21
22.5212026901
  0
LINE
  5
298
100
AcDbEntity
  8
0
100
AcDbLine
 62
7
  6
CONTINUOUS
 10
9.8281113956
 20
22.5212026901
 11
9.2546113956
 21
22.5212026901
  0
LINE
  5
299
100
AcDbEntity
  8
0
100
AcDbLine
 62
7
  6
CONTINUOUS
 10
9.1346113956
 20
22.5212026901
 11
8.5616113956
 21
22.5212026901
  0
LINE
  5
29A
100
AcDbEntity
  8
0
100
AcDbLine
 62
7
  6
CONTINUOUS
 10
8.4416113956
 20
22.5212026901
 11
7.8681113956
 21
22.5212026901
  0
LINE
  5
29B
100
AcDbEntity
  8
0
100
AcDbLine
 62
9
  6
CONTINUOUS
 10
11.5981113956
 20
22.5212026901
 11
12.0981113956
 21
22.5212026901
  0
LINE
  5
29C
100
AcDbEntity
  8
0
100
AcDbLine
 62
9
  6
CONTINUOUS
 10
13.5981113956
 20
22.5212026901
 11
14.0981113956
 21
22.5212026901
  0
LINE
  5
29D
100
AcDbEntity
  8
0
100
AcDbLine
 62
7
  6
CONTINUOUS
 10
8.4416113956
 20
23.0212026901
 11
8.5616113956
 21
23.0212026901
  0
LINE
  5
29E
100
AcDbEntity
  8
0
100
AcDbLine
 62
7
  6
CONTINUOUS
 10
9.1346113956
 20
23.0212026901
 11
9.2546113956
 21
23.0212026901
  0
LINE
  5
29F
100
AcDbEntity
  8
0
100
AcDbLine
 62
7
  6
CONTINUOUS
 10
16.4416113956
 20
23.0212026901
 11
16.5616113956
 21
23.0212026901
  0
LINE
  5
2A0
100
AcDbEntity
  8
0
100
AcDbLine
 62
7
  6
CONTINUOUS
 10
17.1346113956
 20
23.0212026901
 11
17.2546113956
 21
23.0212026901
  0
LINE
  5
2A1
100
AcDbEntity
  8
0
100
AcDbLine
 62
7
  6
CONTINUOUS
 10
17.8281113956
 20
23.0947026901
 11
17.2546113956
 21
23.0947026901
  0
LINE
  5
2A2
100
AcDbEntity
  8
0
100
AcDbLine
 62
7
  6
CONTINUOUS
 10
7.8681113956
 20
23.0947026901
 11
8.4416113956
 21
23.0947026901
  0
LINE
  5
2A3
100
AcDbEntity
  8
0
100
AcDbLine
 62
7
  6
CONTINUOUS
 10
8.5616113956
 20
23.0947026901
 11
9.1346113956
 21
23.0947026901
  0
LINE
  5
2A4
100
AcDbEntity
  8
0
100
AcDbLine
 62
7
  6
CONTINUOUS
 10
9.2546113956
 20
23.0947026901
 11
9.8281113956
 21
23.0947026901
  0
LINE
  5
2A5
100
AcDbEntity
  8
0
100
AcDbLine
 62
7
  6
CONTINUOUS
 10
15.8681113956
 20
23.0947026901
 11
16.4416113956
 21
23.0947026901
  0
LINE
  5
2A6
100
AcDbEntity
  8
0
100
AcDbLine
 62
7
  6
CONTINUOUS
 10
16.5616113956
 20
23.0947026901
 11
17.1346113956
 21
23.0947026901
  0
LINE
  5
2A7
100
AcDbEntity
  8
0
100
AcDbLine
 62
7
  6
CONTINUOUS
 10
15.7631113956
 20
24.5862026901
 11
15.7631113956
 21
22.4162026901
  0
LINE
  5
2A8
100
AcDbEntity
  8
0
100
AcDbLine
 62
7
  6
CONTINUOUS
 10
15.8681113956
 20
22.5212026901
 11
15.8681113956
 21
23.0947026901
  0
LINE
  5
2A9
100
AcDbEntity
  8
0
100
AcDbLine
 62
7
  6
CONTINUOUS
 10
15.8681113956
 20
23.2147026901
 11
15.8681113956
 21
23.7877026901
  0
LINE
  5
2AA
100
AcDbEntity
  8
0
100
AcDbLine
 62
7
  6
CONTINUOUS
 10
15.8681113956
 20
23.9077026901
 11
15.8681113956
 21
24.4812026901
  0
LINE
  5
2AB
100
AcDbEntity
  8
0
100
AcDbLine
 62
7
  6
CONTINUOUS
 10
17.8281113956
 20
23.2147026901
 11
17.2546113956
 21
23.2147026901
  0
LINE
  5
2AC
100
AcDbEntity
  8
0
100
AcDbLine
 62
7
  6
CONTINUOUS
 10
17.1346113956
 20
23.2147026901
 11
16.5616113956
 21
23.2147026901
  0
LINE
  5
2AD
100
AcDbEntity
  8
0
100
AcDbLine
 62
7
  6
CONTINUOUS
 10
16.4416113956
 20
23.2147026901
 11
15.8681113956
 21
23.2147026901
  0
LINE
  5
2AE
100
AcDbEntity
  8
0
100
AcDbLine
 62
7
  6
CONTINUOUS
 10
9.8281113956
 20
23.2147026901
 11
9.2546113956
 21
23.2147026901
  0
LINE
  5
2AF
100
AcDbEntity
  8
0
100
AcDbLine
 62
7
  6
CONTINUOUS
 10
9.1346113956
 20
23.2147026901
 11
8.5616113956
 21
23.2147026901
  0
LINE
  5
2B0
100
AcDbEntity
  8
0
100
AcDbLine
 62
7
  6
CONTINUOUS
 10
8.4416113956
 20
23.2147026901
 11
7.8681113956
 21
23.2147026901
  0
LINE
  5
2B1
100
AcDbEntity
  8
0
100
AcDbLine
 62
7
  6
CONTINUOUS
 10
16.3681113956
 20
23.9077026901
 11
16.3681113956
 21
23.7877026901
  0
LINE
  5
2B2
100
AcDbEntity
  8
0
100
AcDbLine
 62
7
  6
CONTINUOUS
 10
16.3681113956
 20
23.2147026901
 11
16.3681113956
 21
23.0947026901
  0
LINE
  5
2B3
100
AcDbEntity
  8
0
100
AcDbLine
 62
7
  6
CONTINUOUS
 10
12.1181113956
 20
23.7512026901
 11
13.5781113956
 21
23.7512026901
  0
LINE
  5
2B4
100
AcDbEntity
  8
0
100
AcDbLine
 62
7
  6
CONTINUOUS
 10
7.8681113956
 20
23.7877026901
 11
8.4416113956
 21
23.7877026901
  0
LINE
  5
2B5
100
AcDbEntity
  8
0
100
AcDbLine
 62
7
  6
CONTINUOUS
 10
8.5616113956
 20
23.7877026901
 11
9.1346113956
 21
23.7877026901
  0
LINE
  5
2B6
100
AcDbEntity
  8
0
100
AcDbLine
 62
7
  6
CONTINUOUS
 10
9.2546113956
 20
23.7877026901
 11
9.8281113956
 21
23.7877026901
  0
LINE
  5
2B7
100
AcDbEntity
  8
0
100
AcDbLine
 62
7
  6
CONTINUOUS
 10
15.8681113956
 20
23.7877026901
 11
16.4416113956
 21
23.7877026901
  0
LINE
  5
2B8
100
AcDbEntity
  8
0
100
AcDbLine
 62
7
  6
CONTINUOUS
 10
16.5616113956
 20
23.7877026901
 11
17.1346113956
 21
23.7877026901
  0
LINE
  5
2B9
100
AcDbEntity
  8
0
100
AcDbLine
 62
7
  6
CONTINUOUS
 10
17.2546113956
 20
23.7877026901
 11
17.8281113956
 21
23.7877026901
  0
LINE
  5
2BA
100
AcDbEntity
  8
0
100
AcDbLine
 62
7
  6
CONTINUOUS
 10
13.1281113956
 20
23.8762026901
 11
12.5681113956
 21
23.8762026901
  0
LINE
  5
2BB
100
AcDbEntity
  8
0
100
AcDbLine
 62
9
  6
CONTINUOUS
 10
12.5481113956
 20
23.8962026901
 11
13.1481113956
 21
23.8962026901
  0
LINE
  5
2BC
100
AcDbEntity
  8
0
100
AcDbLine
 62
7
  6
CONTINUOUS
 10
17.8281113956
 20
23.9077026901
 11
17.2546113956
 21
23.9077026901
  0
LINE
  5
2BD
100
AcDbEntity
  8
0
100
AcDbLine
 62
7
  6
CONTINUOUS
 10
17.1346113956
 20
23.9077026901
 11
16.5616113956
 21
23.9077026901
  0
LINE
  5
2BE
100
AcDbEntity
  8
0
100
AcDbLine
 62
7
  6
CONTINUOUS
 10
16.4416113956
 20
23.9077026901
 11
15.8681113956
 21
23.9077026901
  0
LINE
  5
2BF
100
AcDbEntity
  8
0
100
AcDbLine
 62
7
  6
CONTINUOUS
 10
9.8281113956
 20
23.9077026901
 11
9.2546113956
 21
23.9077026901
  0
LINE
  5
2C0
100
AcDbEntity
  8
0
100
AcDbLine
 62
7
  6
CONTINUOUS
 10
9.1346113956
 20
23.9077026901
 11
8.5616113956
 21
23.9077026901
  0
LINE
  5
2C1
100
AcDbEntity
  8
0
100
AcDbLine
 62
7
  6
CONTINUOUS
 10
7.8681113956
 20
23.9077026901
 11
8.4416113956
 21
23.9077026901
  0
LINE
  5
2C2
100
AcDbEntity
  8
0
100
AcDbLine
 62
7
  6
CONTINUOUS
 10
17.2546113956
 20
23.9812026901
 11
17.1346113956
 21
23.9812026901
  0
LINE
  5
2C3
100
AcDbEntity
  8
0
100
AcDbLine
 62
7
  6
CONTINUOUS
 10
16.5616113956
 20
23.9812026901
 11
16.4416113956
 21
23.9812026901
  0
LINE
  5
2C4
100
AcDbEntity
  8
0
100
AcDbLine
 62
7
  6
CONTINUOUS
 10
9.2546113956
 20
23.9812026901
 11
9.1346113956
 21
23.9812026901
  0
LINE
  5
2C5
100
AcDbEntity
  8
0
100
AcDbLine
 62
7
  6
CONTINUOUS
 10
8.5616113956
 20
23.9812026901
 11
8.4416113956
 21
23.9812026901
  0
LINE
  5
2C6
100
AcDbEntity
  8
0
100
AcDbLine
 62
7
  6
CONTINUOUS
 10
16.4416113956
 20
24.4812026901
 11
16.4416113956
 21
23.9077026901
  0
LINE
  5
2C7
100
AcDbEntity
  8
0
100
AcDbLine
 62
7
  6
CONTINUOUS
 10
16.4416113956
 20
23.7877026901
 11
16.4416113956
 21
23.2147026901
  0
LINE
  5
2C8
100
AcDbEntity
  8
0
100
AcDbLine
 62
7
  6
CONTINUOUS
 10
16.4416113956
 20
23.0947026901
 11
16.4416113956
 21
22.5212026901
  0
LINE
  5
2C9
100
AcDbEntity
  8
0
100
AcDbLine
 62
7
  6
CONTINUOUS
 10
16.5616113956
 20
22.5212026901
 11
16.5616113956
 21
23.0947026901
  0
LINE
  5
2CA
100
AcDbEntity
  8
0
100
AcDbLine
 62
7
  6
CONTINUOUS
 10
16.5616113956
 20
23.2147026901
 11
16.5616113956
 21
23.7877026901
  0
LINE
  5
2CB
100
AcDbEntity
  8
0
100
AcDbLine
 62
7
  6
CONTINUOUS
 10
16.5616113956
 20
23.9077026901
 11
16.5616113956
 21
24.4812026901
  0
LINE
  5
2CC
100
AcDbEntity
  8
0
100
AcDbLine
 62
9
  6
CONTINUOUS
 10
12.5481113956
 20
24.4562026901
 11
13.1481113956
 21
24.4562026901
  0
LINE
  5
2CD
100
AcDbEntity
  8
0
100
AcDbLine
 62
7
  6
CONTINUOUS
 10
13.1281113956
 20
24.4762026901
 11
12.5681113956
 21
24.4762026901
  0
LINE
  5
2CE
100
AcDbEntity
  8
0
100
AcDbLine
 62
9
  6
CONTINUOUS
 10
14.0981113956
 20
24.4812026901
 11
11.5981113956
 21
24.4812026901
  0
LINE
  5
2CF
100
AcDbEntity
  8
0
100
AcDbLine
 62
7
  6
CONTINUOUS
 10
7.8681113956
 20
24.4812026901
 11
8.4416113956
 21
24.4812026901
  0
LINE
  5
2D0
100
AcDbEntity
  8
0
100
AcDbLine
 62
7
  6
CONTINUOUS
 10
8.5616113956
 20
24.4812026901
 11
9.1346113956
 21
24.4812026901
  0
LINE
  5
2D1
100
AcDbEntity
  8
0
100
AcDbLine
 62
7
  6
CONTINUOUS
 10
9.2546113956
 20
24.4812026901
 11
9.8281113956
 21
24.4812026901
  0
LINE
  5
2D2
100
AcDbEntity
  8
0
100
AcDbLine
 62
7
  6
CONTINUOUS
 10
15.8681113956
 20
24.4812026901
 11
16.4416113956
 21
24.4812026901
  0
LINE
  5
2D3
100
AcDbEntity
  8
0
100
AcDbLine
 62
7
  6
CONTINUOUS
 10
16.5616113956
 20
24.4812026901
 11
17.1346113956
 21
24.4812026901
  0
LINE
  5
2D4
100
AcDbEntity
  8
0
100
AcDbLine
 62
7
  6
CONTINUOUS
 10
17.2546113956
 20
24.4812026901
 11
17.8281113956
 21
24.4812026901
  0
LINE
  5
2D5
100
AcDbEntity
  8
0
100
AcDbLine
 62
7
  6
CONTINUOUS
 10
17.1346113956
 20
24.4812026901
 11
17.1346113956
 21
23.9077026901
  0
LINE
  5
2D6
100
AcDbEntity
  8
0
100
AcDbLine
 62
7
  6
CONTINUOUS
 10
17.1346113956
 20
23.7877026901
 11
17.1346113956
 21
23.2147026901
  0
LINE
  5
2D7
100
AcDbEntity
  8
0
100
AcDbLine
 62
7
  6
CONTINUOUS
 10
17.1346113956
 20
23.0947026901
 11
17.1346113956
 21
22.5212026901
  0
LINE
  5
2D8
100
AcDbEntity
  8
0
100
AcDbLine
 62
7
  6
CONTINUOUS
 10
11.6181113956
 20
24.5012026901
 11
14.0781113956
 21
24.5012026901
  0
LINE
  5
2D9
100
AcDbEntity
  8
0
100
AcDbLine
 62
7
  6
CONTINUOUS
 10
17.9331113956
 20
24.5862026901
 11
15.7631113956
 21
24.5862026901
  0
LINE
  5
2DA
100
AcDbEntity
  8
0
100
AcDbLine
 62
7
  6
CONTINUOUS
 10
9.9331113956
 20
24.5862026901
 11
7.7631113956
 21
24.5862026901
  0
LINE
  5
2DB
100
AcDbEntity
  8
0
100
AcDbLine
 62
7
  6
CONTINUOUS
 10
17.2546113956
 20
22.5212026901
 11
17.2546113956
 21
23.0947026901
  0
LINE
  5
2DC
100
AcDbEntity
  8
0
100
AcDbLine
 62
7
  6
CONTINUOUS
 10
17.2546113956
 20
23.2147026901
 11
17.2546113956
 21
23.7877026901
  0
LINE
  5
2DD
100
AcDbEntity
  8
0
100
AcDbLine
 62
7
  6
CONTINUOUS
 10
17.2546113956
 20
23.9077026901
 11
17.2546113956
 21
24.4812026901
  0
LINE
  5
2DE
100
AcDbEntity
  8
0
100
AcDbLine
 62
7
  6
CONTINUOUS
 10
17.3281113956
 20
23.0947026901
 11
17.3281113956
 21
23.2147026901
  0
LINE
  5
2DF
100
AcDbEntity
  8
0
100
AcDbLine
 62
7
  6
CONTINUOUS
 10
17.3281113956
 20
23.7877026901
 11
17.3281113956
 21
23.9077026901
  0
LINE
  5
2E0
100
AcDbEntity
  8
0
100
AcDbLine
 62
7
  6
CONTINUOUS
 10
17.8281113956
 20
24.4812026901
 11
17.8281113956
 21
23.9077026901
  0
LINE
  5
2E1
100
AcDbEntity
  8
0
100
AcDbLine
 62
7
  6
CONTINUOUS
 10
17.8281113956
 20
23.7877026901
 11
17.8281113956
 21
23.2147026901
  0
LINE
  5
2E2
100
AcDbEntity
  8
0
100
AcDbLine
 62
7
  6
CONTINUOUS
 10
17.8281113956
 20
22.5212026901
 11
17.8281113956
 21
23.0947026901
  0
LINE
  5
2E3
100
AcDbEntity
  8
0
100
AcDbLine
 62
7
  6
CONTINUOUS
 10
17.9331113956
 20
22.4162026901
 11
17.9331113956
 21
24.5862026901
  0
LINE
  5
2E4
100
AcDbEntity
  8
0
100
AcDbLine
 62
7
  6
CONTINUOUS
 10
21.9541551431
 20
15.6026858446
 11
23.4885768583
 21
14.7167870543
  0
LINE
  5
2E5
100
AcDbEntity
  8
0
100
AcDbLine
 62
7
  6
CONTINUOUS
 10
21.9541551431
 20
16.7049562288
 11
23.4885768583
 21
15.8190574385
  0
LINE
  5
2E6
100
AcDbEntity
  8
0
100
AcDbLine
 62
7
  6
CONTINUOUS
 10
21.9541551431
 20
15.6026858446
 11
21.9541551431
 21
16.7049562288
  0
LINE
  5
2E7
100
AcDbEntity
  8
0
100
AcDbLine
 62
7
  6
CONTINUOUS
 10
22.1026475671
 20
17.4087762816
 11
22.1026475671
 21
18.462056871
  0
LINE
  5
2E8
100
AcDbEntity
  8
0
100
AcDbLine
 62
7
  6
CONTINUOUS
 10
22.5081733062
 20
18.2279264764
 11
22.5081733062
 21
17.174645887
  0
LINE
  5
2E9
100
AcDbEntity
  8
0
100
AcDbLine
 62
7
  6
CONTINUOUS
 10
22.5930261199
 20
18.7451770604
 11
22.5930261199
 21
18.6471974707
  0
LINE
  5
2EA
100
AcDbEntity
  8
0
100
AcDbLine
 62
7
  6
CONTINUOUS
 10
22.5930261199
 20
18.1789366815
 11
22.5930261199
 21
17.1256560921
  0
LINE
  5
2EB
100
AcDbEntity
  8
0
100
AcDbLine
 62
7
  6
CONTINUOUS
 10
23.4885768583
 20
16.6086096323
 11
23.0830511193
 21
16.8427400268
  0
LINE
  5
2EC
100
AcDbEntity
  8
0
100
AcDbLine
 62
7
  6
CONTINUOUS
 10
22.9981983055
 20
16.8917298217
 11
22.5930261199
 21
17.1256560921
  0
LINE
  5
2ED
100
AcDbEntity
  8
0
100
AcDbLine
 62
7
  6
CONTINUOUS
 10
22.5081733062
 20
17.174645887
 11
22.1026475671
 21
17.4087762816
  0
LINE
  5
2EE
100
AcDbEntity
  8
0
100
AcDbLine
 62
7
  6
CONTINUOUS
 10
22.9136990452
 20
18.462056871
 11
22.9136990452
 21
18.3640772813
  0
LINE
  5
2EF
100
AcDbEntity
  8
0
100
AcDbLine
 62
7
  6
CONTINUOUS
 10
22.9981983055
 20
17.9450104111
 11
22.9981983055
 21
16.8917298217
  0
LINE
  5
2F0
100
AcDbEntity
  8
0
100
AcDbLine
 62
7
  6
CONTINUOUS
 10
22.9985518589
 20
18.4130670761
 11
22.9985518589
 21
18.5110466658
  0
LINE
  5
2F1
100
AcDbEntity
  8
0
100
AcDbLine
 62
7
  6
CONTINUOUS
 10
23.0485768583
 20
16.7049562288
 11
23.0485768583
 21
16.868255545
  0
LINE
  5
2F2
100
AcDbEntity
  8
0
100
AcDbLine
 62
7
  6
CONTINUOUS
 10
23.0830511193
 20
19.0280931257
 11
23.0830511193
 21
18.930113536
  0
LINE
  5
2F3
100
AcDbEntity
  8
0
100
AcDbLine
 62
7
  6
CONTINUOUS
 10
23.0830511193
 20
17.8960206162
 11
23.0830511193
 21
16.8427400268
  0
LINE
  5
2F4
100
AcDbEntity
  8
0
100
AcDbLine
 62
7
  6
CONTINUOUS
 10
23.0834046726
 20
18.462056871
 11
23.0834046726
 21
18.3640772813
  0
LINE
  5
2F5
100
AcDbEntity
  8
0
100
AcDbLine
 62
7
  6
CONTINUOUS
 10
26.3748014193
 20
24.4146379293
 11
27.4071773198
 21
25.0106804334
  0
LINE
  5
2F6
100
AcDbEntity
  8
0
100
AcDbLine
 62
7
  6
CONTINUOUS
 10
23.978955411
 20
16.8917298217
 11
23.8941025973
 21
16.9407196166
  0
LINE
  5
2F7
100
AcDbEntity
  8
0
100
AcDbLine
 62
7
  6
CONTINUOUS
 10
23.4037240445
 20
18.7449729363
 11
23.4037240445
 21
18.6469933466
  0
LINE
  5
2F8
100
AcDbEntity
  8
0
100
AcDbLine
 62
7
  6
CONTINUOUS
 10
23.4037240445
 20
18.081161216
 11
23.4037240445
 21
18.1791408057
  0
LINE
  5
2F9
100
AcDbEntity
  8
0
100
AcDbLine
 62
7
  6
CONTINUOUS
 10
23.4885768583
 20
18.2281306005
 11
23.4885768583
 21
18.1301510108
  0
LINE
  5
2FA
100
AcDbEntity
  8
0
100
AcDbLine
 62
7
  6
CONTINUOUS
 10
23.4885768583
 20
17.6618902217
 11
23.4885768583
 21
16.6086096323
  0
LINE
  5
2FB
100
AcDbEntity
  8
0
100
AcDbLine
 62
7
  6
CONTINUOUS
 10
23.4885768583
 20
15.8190574385
 11
23.4885768583
 21
14.7167870543
  0
LINE
  5
2FC
100
AcDbEntity
  8
0
100
AcDbLine
 62
7
  6
CONTINUOUS
 10
23.4885768583
 20
18.6959831414
 11
23.4885768583
 21
18.7939627311
  0
LINE
  5
2FD
100
AcDbEntity
  8
0
100
AcDbLine
 62
7
  6
CONTINUOUS
 10
23.573429672
 20
18.1791408057
 11
23.573429672
 21
18.081161216
  0
LINE
  5
2FE
100
AcDbEntity
  8
0
100
AcDbLine
 62
7
  6
CONTINUOUS
 10
23.573429672
 20
18.6469933466
 11
23.573429672
 21
18.7449729363
  0
LINE
  5
2FF
100
AcDbEntity
  8
0
100
AcDbLine
 62
7
  6
CONTINUOUS
 10
25.0229985734
 20
16.7049562288
 11
24.339226316
 21
17.0997323257
  0
LINE
  5
300
100
AcDbEntity
  8
0
100
AcDbLine
 62
7
  6
CONTINUOUS
 10
23.4885768583
 20
17.6618902217
 11
23.0830511193
 21
17.8960206162
  0
LINE
  5
301
100
AcDbEntity
  8
0
100
AcDbLine
 62
7
  6
CONTINUOUS
 10
22.9981983055
 20
17.9450104111
 11
22.5930261199
 21
18.1789366815
  0
LINE
  5
302
100
AcDbEntity
  8
0
100
AcDbLine
 62
7
  6
CONTINUOUS
 10
22.1026475671
 20
18.462056871
 11
22.5081733062
 21
18.2279264764
  0
LINE
  5
303
100
AcDbEntity
  8
0
100
AcDbLine
 62
7
  6
CONTINUOUS
 10
24.4689804104
 20
17.174645887
 11
24.3841275966
 21
17.2236356819
  0
LINE
  5
304
100
AcDbEntity
  8
0
100
AcDbLine
 62
7
  6
CONTINUOUS
 10
24.740155861
 20
17.125451968
 11
26.1260851521
 21
16.3252853187
  0
LINE
  5
305
100
AcDbEntity
  8
0
100
AcDbLine
 62
7
  6
CONTINUOUS
 10
23.8937490439
 20
18.3640772813
 11
23.8937490439
 21
18.462056871
  0
LINE
  5
306
100
AcDbEntity
  8
0
100
AcDbLine
 62
7
  6
CONTINUOUS
 10
23.8941025973
 20
19.0280931257
 11
23.8941025973
 21
18.930113536
  0
LINE
  5
307
100
AcDbEntity
  8
0
100
AcDbLine
 62
7
  6
CONTINUOUS
 10
23.8941025973
 20
17.8960206162
 11
23.8941025973
 21
16.8427400268
  0
LINE
  5
308
100
AcDbEntity
  8
0
100
AcDbLine
 62
7
  6
CONTINUOUS
 10
23.9285768583
 20
16.7049562288
 11
23.9285768583
 21
16.868255545
  0
LINE
  5
309
100
AcDbEntity
  8
0
100
AcDbLine
 62
7
  6
CONTINUOUS
 10
23.9786018576
 20
18.5110466658
 11
23.9786018576
 21
18.4130670761
  0
LINE
  5
30A
100
AcDbEntity
  8
0
100
AcDbLine
 62
7
  6
CONTINUOUS
 10
23.978955411
 20
17.9450104111
 11
23.978955411
 21
16.8917298217
  0
LINE
  5
30B
100
AcDbEntity
  8
0
100
AcDbLine
 62
7
  6
CONTINUOUS
 10
22.5081733062
 20
18.6961872656
 11
22.9136990452
 21
18.462056871
  0
LINE
  5
30C
100
AcDbEntity
  8
0
100
AcDbLine
 62
7
  6
CONTINUOUS
 10
22.9985518589
 20
18.4130670761
 11
23.4037240445
 21
18.1791408057
  0
LINE
  5
30D
100
AcDbEntity
  8
0
100
AcDbLine
 62
7
  6
CONTINUOUS
 10
23.4885768583
 20
18.1301510108
 11
23.8941025973
 21
17.8960206162
  0
LINE
  5
30E
100
AcDbEntity
  8
0
100
AcDbLine
 62
9
  6
CONTINUOUS
 10
24.830665529
 20
17.3834648876
 11
26.1260851521
 21
16.6355540194
  0
LINE
  5
30F
100
AcDbEntity
  8
0
100
AcDbLine
 62
9
  6
CONTINUOUS
 10
24.8589498002
 20
17.3997948192
 11
26.1402272877
 21
16.6600489169
  0
LINE
  5
310
100
AcDbEntity
  8
0
100
AcDbLine
 62
7
  6
CONTINUOUS
 10
23.978955411
 20
17.9450104111
 11
23.573429672
 21
18.1791408057
  0
LINE
  5
311
100
AcDbEntity
  8
0
100
AcDbLine
 62
7
  6
CONTINUOUS
 10
23.4885768583
 20
18.2281306005
 11
23.0834046726
 21
18.462056871
  0
LINE
  5
312
100
AcDbEntity
  8
0
100
AcDbLine
 62
7
  6
CONTINUOUS
 10
22.9985518589
 20
18.5110466658
 11
22.5930261199
 21
18.7451770604
  0
LINE
  5
313
100
AcDbEntity
  8
0
100
AcDbLine
 62
7
  6
CONTINUOUS
 10
25.9493084568
 20
17.1621943141
 11
25.6240393374
 21
17.3499885277
  0
LINE
  5
314
100
AcDbEntity
  8
0
100
AcDbLine
 62
7
  6
CONTINUOUS
 10
24.0634546714
 20
18.3640772813
 11
24.0634546714
 21
18.462056871
  0
LINE
  5
315
100
AcDbEntity
  8
0
100
AcDbLine
 62
7
  6
CONTINUOUS
 10
24.3841275966
 20
18.7451770604
 11
24.3841275966
 21
18.6471974707
  0
LINE
  5
316
100
AcDbEntity
  8
0
100
AcDbLine
 62
7
  6
CONTINUOUS
 10
24.3841275966
 20
18.1789366815
 11
24.3841275966
 21
17.1256560921
  0
LINE
  5
317
100
AcDbEntity
  8
0
100
AcDbLine
 62
7
  6
CONTINUOUS
 10
24.4689804104
 20
18.2279264764
 11
24.4689804104
 21
17.174645887
  0
LINE
  5
318
100
AcDbEntity
  8
0
100
AcDbLine
 62
9
  6
CONTINUOUS
 10
27.0099686286
 20
23.1471142523
 11
25.977592728
 21
22.5510717483
  0
LINE
  5
319
100
AcDbEntity
  8
0
100
AcDbLine
 62
7
  6
CONTINUOUS
 10
22.9981983055
 20
18.9791033308
 11
23.4037240445
 21
18.7449729363
  0
LINE
  5
31A
100
AcDbEntity
  8
0
100
AcDbLine
 62
7
  6
CONTINUOUS
 10
23.4885768583
 20
18.6959831414
 11
23.8937490439
 21
18.462056871
  0
LINE
  5
31B
100
AcDbEntity
  8
0
100
AcDbLine
 62
7
  6
CONTINUOUS
 10
23.9786018576
 20
18.4130670761
 11
24.3841275966
 21
18.1789366815
  0
LINE
  5
31C
100
AcDbEntity
  8
0
100
AcDbLine
 62
7
  6
CONTINUOUS
 10
24.4689804104
 20
18.2279264764
 11
24.0634546714
 21
18.462056871
  0
LINE
  5
31D
100
AcDbEntity
  8
0
100
AcDbLine
 62
7
  6
CONTINUOUS
 10
23.9786018576
 20
18.5110466658
 11
23.573429672
 21
18.7449729363
  0
LINE
  5
31E
100
AcDbEntity
  8
0
100
AcDbLine
 62
7
  6
CONTINUOUS
 10
23.4885768583
 20
18.7939627311
 11
23.0830511193
 21
19.0280931257
  0
LINE
  5
31F
100
AcDbEntity
  8
0
100
AcDbLine
 62
7
  6
CONTINUOUS
 10
24.7342979966
 20
17.3278270668
 11
24.7342979966
 21
17.1336169338
  0
LINE
  5
320
100
AcDbEntity
  8
0
100
AcDbLine
 62
9
  6
CONTINUOUS
 10
24.740155861
 20
17.3312091064
 11
24.740155861
 21
17.125451968
  0
LINE
  5
321
100
AcDbEntity
  8
0
100
AcDbLine
 62
7
  6
CONTINUOUS
 10
24.8745061494
 20
18.462056871
 11
24.8745061494
 21
17.4087762816
  0
LINE
  5
322
100
AcDbEntity
  8
0
100
AcDbLine
 62
7
  6
CONTINUOUS
 10
23.4885768583
 20
19.2622235203
 11
23.8941025973
 21
19.0280931257
  0
LINE
  5
323
100
AcDbEntity
  8
0
100
AcDbLine
 62
7
  6
CONTINUOUS
 10
23.978955411
 20
18.9791033308
 11
24.3841275966
 21
18.7451770604
  0
LINE
  5
324
100
AcDbEntity
  8
0
100
AcDbLine
 62
7
  6
CONTINUOUS
 10
24.4689804104
 20
18.6961872656
 11
24.8745061494
 21
18.462056871
  0
LINE
  5
325
100
AcDbEntity
  8
0
100
AcDbLine
 62
7
  6
CONTINUOUS
 10
25.4337271082
 20
18.2859277779
 11
25.6181814731
 21
18.1794330007
  0
LINE
  5
326
100
AcDbEntity
  8
0
100
AcDbLine
 62
9
  6
CONTINUOUS
 10
25.4295849726
 20
18.2950833202
 11
25.6181814731
 21
18.186197021
  0
LINE
  5
327
100
AcDbEntity
  8
0
100
AcDbLine
 62
9
  6
CONTINUOUS
 10
25.4295849726
 20
18.4665476022
 11
25.6181814731
 21
18.3576613619
  0
LINE
  5
328
100
AcDbEntity
  8
0
100
AcDbLine
 62
9
  6
CONTINUOUS
 10
25.6181814731
 20
18.3903212251
 11
25.4437271082
 21
18.4910424996
  0
LINE
  5
329
100
AcDbEntity
  8
0
100
AcDbLine
 62
7
  6
CONTINUOUS
 10
25.0229985734
 20
15.6026858446
 11
25.0229985734
 21
16.7049562288
  0
LINE
  5
32A
100
AcDbEntity
  8
0
100
AcDbLine
 62
7
  6
CONTINUOUS
 10
25.4237271082
 20
18.303248286
 11
25.4237271082
 21
18.474712568
  0
LINE
  5
32B
100
AcDbEntity
  8
0
100
AcDbLine
 62
9
  6
CONTINUOUS
 10
25.4295849726
 20
18.2950833202
 11
25.4295849726
 21
18.4665476022
  0
LINE
  5
32C
100
AcDbEntity
  8
0
100
AcDbLine
 62
9
  6
CONTINUOUS
 10
27.8797099694
 20
17.6643397114
 11
27.015826493
 21
18.1631030691
  0
LINE
  5
32D
100
AcDbEntity
  8
0
100
AcDbLine
 62
7
  6
CONTINUOUS
 10
27.8897099694
 20
17.6653302879
 11
27.015826493
 21
18.1698671483
  0
LINE
  5
32E
100
AcDbEntity
  8
0
100
AcDbLine
 62
7
  6
CONTINUOUS
 10
25.6181814731
 20
22.7470309277
 11
25.6181814731
 21
17.3581534936
  0
LINE
  5
32F
100
AcDbEntity
  8
0
100
AcDbLine
 62
9
  6
CONTINUOUS
 10
25.6240393372
 20
22.738865962
 11
25.6240393374
 21
17.3499885277
  0
LINE
  5
330
100
AcDbEntity
  8
0
100
AcDbLine
 62
9
  6
CONTINUOUS
 10
25.9493084553
 20
22.5510717491
 11
25.9493084568
 21
17.1621943141
  0
LINE
  5
331
100
AcDbEntity
  8
0
100
AcDbLine
 62
9
  6
CONTINUOUS
 10
25.977592728
 20
22.5510717483
 11
25.977592728
 21
17.1621943141
  0
LINE
  5
332
100
AcDbEntity
  8
0
100
AcDbLine
 62
7
  6
CONTINUOUS
 10
22.1026475671
 20
18.462056871
 11
22.5081733062
 21
18.6961872656
  0
LINE
  5
333
100
AcDbEntity
  8
0
100
AcDbLine
 62
7
  6
CONTINUOUS
 10
22.5930261199
 20
18.7451770604
 11
22.9981983055
 21
18.9791033308
  0
LINE
  5
334
100
AcDbEntity
  8
0
100
AcDbLine
 62
7
  6
CONTINUOUS
 10
23.0830511193
 20
19.0280931257
 11
23.4885768583
 21
19.2622235203
  0
LINE
  5
335
100
AcDbEntity
  8
0
100
AcDbLine
 62
7
  6
CONTINUOUS
 10
27.7595018166
 20
21.7280431947
 11
28.1650275556
 21
21.9621735893
  0
LINE
  5
336
100
AcDbEntity
  8
0
100
AcDbLine
 62
7
  6
CONTINUOUS
 10
28.2498803694
 20
22.0111633841
 11
28.655052555
 21
22.2450896546
  0
LINE
  5
337
100
AcDbEntity
  8
0
100
AcDbLine
 62
7
  6
CONTINUOUS
 10
28.7399053687
 20
22.2940794494
 11
29.1454311078
 21
22.528209844
  0
LINE
  5
338
100
AcDbEntity
  8
0
100
AcDbLine
 62
9
  6
CONTINUOUS
 10
26.1260851521
 20
16.3252853187
 11
26.1260851521
 21
16.6355540194
  0
LINE
  5
339
100
AcDbEntity
  8
0
100
AcDbLine
 62
9
  6
CONTINUOUS
 10
26.1543694233
 20
16.3252853187
 11
26.1543694233
 21
16.6355540194
  0
LINE
  5
33A
100
AcDbEntity
  8
0
100
AcDbLine
 62
7
  6
CONTINUOUS
 10
29.5509568468
 20
22.2940794494
 11
29.1454311078
 21
22.0599490548
  0
LINE
  5
33B
100
AcDbEntity
  8
0
100
AcDbLine
 62
7
  6
CONTINUOUS
 10
29.060578294
 20
22.01095926
 11
28.6554061084
 21
21.7770329895
  0
LINE
  5
33C
100
AcDbEntity
  8
0
100
AcDbLine
 62
7
  6
CONTINUOUS
 10
28.5705532947
 20
21.7280431947
 11
28.1650275556
 21
21.4939128001
  0
LINE
  5
33D
100
AcDbEntity
  8
0
100
AcDbLine
 62
7
  6
CONTINUOUS
 10
23.8941025973
 20
19.0280931257
 11
23.4885768583
 21
18.7939627311
  0
LINE
  5
33E
100
AcDbEntity
  8
0
100
AcDbLine
 62
7
  6
CONTINUOUS
 10
23.4037240445
 20
18.7449729363
 11
22.9985518589
 21
18.5110466658
  0
LINE
  5
33F
100
AcDbEntity
  8
0
100
AcDbLine
 62
7
  6
CONTINUOUS
 10
22.5081733062
 20
18.2279264764
 11
22.9136990452
 21
18.462056871
  0
LINE
  5
340
100
AcDbEntity
  8
0
100
AcDbLine
 62
7
  6
CONTINUOUS
 10
22.5930261199
 20
18.1789366815
 11
22.9985518589
 21
18.4130670761
  0
LINE
  5
341
100
AcDbEntity
  8
0
100
AcDbLine
 62
7
  6
CONTINUOUS
 10
23.0834046726
 20
18.462056871
 11
23.4885768583
 21
18.6959831414
  0
LINE
  5
342
100
AcDbEntity
  8
0
100
AcDbLine
 62
7
  6
CONTINUOUS
 10
23.573429672
 20
18.7449729363
 11
23.978955411
 21
18.9791033308
  0
LINE
  5
343
100
AcDbEntity
  8
0
100
AcDbLine
 62
7
  6
CONTINUOUS
 10
28.2498803694
 20
21.4449230052
 11
28.6554061084
 21
21.6790533998
  0
LINE
  5
344
100
AcDbEntity
  8
0
100
AcDbLine
 62
7
  6
CONTINUOUS
 10
28.7402589221
 20
21.7280431947
 11
29.1454311078
 21
21.9619694651
  0
LINE
  5
345
100
AcDbEntity
  8
0
100
AcDbLine
 62
7
  6
CONTINUOUS
 10
29.2302839215
 20
22.01095926
 11
29.6358096605
 21
22.2450896546
  0
LINE
  5
346
100
AcDbEntity
  8
0
100
AcDbLine
 62
7
  6
CONTINUOUS
 10
27.6110093926
 20
18.8686721683
 11
29.1454311078
 21
17.982773378
  0
LINE
  5
347
100
AcDbEntity
  8
0
100
AcDbLine
 62
7
  6
CONTINUOUS
 10
29.8758574246
 20
21.9158287549
 11
29.6354561071
 21
21.7770329895
  0
LINE
  5
348
100
AcDbEntity
  8
0
100
AcDbLine
 62
7
  6
CONTINUOUS
 10
29.5506032934
 20
21.7280431947
 11
29.1454311078
 21
21.4941169242
  0
LINE
  5
349
100
AcDbEntity
  8
0
100
AcDbLine
 62
7
  6
CONTINUOUS
 10
29.060578294
 20
21.4451271294
 11
28.655052555
 21
21.2109967348
  0
LINE
  5
34A
100
AcDbEntity
  8
0
100
AcDbLine
 62
7
  6
CONTINUOUS
 10
24.3841275966
 20
18.7451770604
 11
23.9786018576
 21
18.5110466658
  0
LINE
  5
34B
100
AcDbEntity
  8
0
100
AcDbLine
 62
7
  6
CONTINUOUS
 10
23.8937490439
 20
18.462056871
 11
23.4885768583
 21
18.2281306005
  0
LINE
  5
34C
100
AcDbEntity
  8
0
100
AcDbLine
 62
7
  6
CONTINUOUS
 10
23.4037240445
 20
18.1791408057
 11
22.9981983055
 21
17.9450104111
  0
LINE
  5
34D
100
AcDbEntity
  8
0
100
AcDbLine
 62
7
  6
CONTINUOUS
 10
29.9149023321
 20
21.840391753
 11
29.7203089209
 21
21.7280431947
  0
LINE
  5
34E
100
AcDbEntity
  8
0
100
AcDbLine
 62
7
  6
CONTINUOUS
 10
23.0830511193
 20
17.8960206162
 11
23.4885768583
 21
18.1301510108
  0
LINE
  5
34F
100
AcDbEntity
  8
0
100
AcDbLine
 62
7
  6
CONTINUOUS
 10
23.573429672
 20
18.1791408057
 11
23.9786018576
 21
18.4130670761
  0
LINE
  5
350
100
AcDbEntity
  8
0
100
AcDbLine
 62
7
  6
CONTINUOUS
 10
24.0634546714
 20
18.462056871
 11
24.4689804104
 21
18.6961872656
  0
LINE
  5
351
100
AcDbEntity
  8
0
100
AcDbLine
 62
7
  6
CONTINUOUS
 10
28.7399053687
 20
21.16200694
 11
29.1454311078
 21
21.3961373345
  0
LINE
  5
352
100
AcDbEntity
  8
0
100
AcDbLine
 62
7
  6
CONTINUOUS
 10
29.2302839215
 20
21.4451271294
 11
29.6354561071
 21
21.6790533998
  0
LINE
  5
353
100
AcDbEntity
  8
0
100
AcDbLine
 62
9
  6
CONTINUOUS
 10
27.0099686286
 20
23.1471142523
 11
27.0099686286
 21
17.7582368182
  0
LINE
  5
354
100
AcDbEntity
  8
0
100
AcDbLine
 62
7
  6
CONTINUOUS
 10
27.015826493
 20
23.1552792181
 11
27.015826493
 21
17.766401784
  0
LINE
  5
355
100
AcDbEntity
  8
0
100
AcDbLine
 62
7
  6
CONTINUOUS
 10
28.2498803694
 20
20.4896220056
 11
28.1650275556
 21
20.4406322107
  0
LINE
  5
356
100
AcDbEntity
  8
0
100
AcDbLine
 62
7
  6
CONTINUOUS
 10
22.5930261199
 20
17.2236356819
 11
22.5081733062
 21
17.174645887
  0
LINE
  5
357
100
AcDbEntity
  8
0
100
AcDbLine
 62
7
  6
CONTINUOUS
 10
30.0409818461
 20
21.4449230052
 11
29.6358096605
 21
21.2109967348
  0
LINE
  5
358
100
AcDbEntity
  8
0
100
AcDbLine
 62
7
  6
CONTINUOUS
 10
29.5509568468
 20
21.16200694
 11
29.1454311078
 21
20.9278765454
  0
LINE
  5
359
100
AcDbEntity
  8
0
100
AcDbLine
 62
7
  6
CONTINUOUS
 10
24.8745061494
 20
18.462056871
 11
24.4689804104
 21
18.2279264764
  0
LINE
  5
35A
100
AcDbEntity
  8
0
100
AcDbLine
 62
7
  6
CONTINUOUS
 10
24.3841275966
 20
18.1789366815
 11
23.978955411
 21
17.9450104111
  0
LINE
  5
35B
100
AcDbEntity
  8
0
100
AcDbLine
 62
7
  6
CONTINUOUS
 10
23.8941025973
 20
17.8960206162
 11
23.4885768583
 21
17.6618902217
  0
LINE
  5
35C
100
AcDbEntity
  8
0
100
AcDbLine
 62
7
  6
CONTINUOUS
 10
28.29478165
 20
20.3657186494
 11
27.6110093926
 21
19.9709425525
  0
LINE
  5
35D
100
AcDbEntity
  8
0
100
AcDbLine
 62
7
  6
CONTINUOUS
 10
22.6379274005
 20
17.0997323257
 11
21.9541551431
 21
16.7049562288
  0
LINE
  5
35E
100
AcDbEntity
  8
0
100
AcDbLine
 62
7
  6
CONTINUOUS
 10
27.6110093926
 20
19.9709425525
 11
29.1454311078
 21
19.0850437622
  0
LINE
  5
35F
100
AcDbEntity
  8
0
100
AcDbLine
 62
7
  6
CONTINUOUS
 10
27.6110093926
 20
18.8686721683
 11
27.6110093926
 21
19.9709425525
  0
LINE
  5
360
100
AcDbEntity
  8
0
100
AcDbLine
 62
7
  6
CONTINUOUS
 10
27.7595018166
 20
21.7280431947
 11
27.7595018166
 21
20.6747626053
  0
LINE
  5
361
100
AcDbEntity
  8
0
100
AcDbLine
 62
7
  6
CONTINUOUS
 10
25.4337271082
 20
18.4920330761
 11
25.6181814731
 21
18.5985278532
  0
LINE
  5
362
100
AcDbEntity
  8
0
100
AcDbLine
 62
9
  6
CONTINUOUS
 10
25.4437271082
 20
18.4910424996
 11
25.6181814731
 21
18.5917637741
  0
LINE
  5
363
100
AcDbEntity
  8
0
100
AcDbLine
 62
7
  6
CONTINUOUS
 10
28.7399053687
 20
20.2067059403
 11
28.655052555
 21
20.1577161454
  0
LINE
  5
364
100
AcDbEntity
  8
0
100
AcDbLine
 62
7
  6
CONTINUOUS
 10
23.0830511193
 20
16.9407196166
 11
22.9981983055
 21
16.8917298217
  0
LINE
  5
365
100
AcDbEntity
  8
0
100
AcDbLine
 62
9
  6
CONTINUOUS
 10
27.8938521051
 20
17.639844814
 11
27.8938521051
 21
17.3295761132
  0
LINE
  5
366
100
AcDbEntity
  8
0
100
AcDbLine
 62
7
  6
CONTINUOUS
 10
27.8997099694
 20
17.6480097798
 11
27.8997099694
 21
17.337741079
  0
LINE
  5
367
100
AcDbEntity
  8
0
100
AcDbLine
 62
7
  6
CONTINUOUS
 10
28.1650275556
 20
21.4939128001
 11
28.1650275556
 21
20.4406322107
  0
LINE
  5
368
100
AcDbEntity
  8
0
100
AcDbLine
 62
7
  6
CONTINUOUS
 10
28.2498803694
 20
22.0111633841
 11
28.2498803694
 21
21.9131837944
  0
LINE
  5
369
100
AcDbEntity
  8
0
100
AcDbLine
 62
7
  6
CONTINUOUS
 10
28.2498803694
 20
21.4449230052
 11
28.2498803694
 21
20.3916424159
  0
LINE
  5
36A
100
AcDbEntity
  8
0
100
AcDbLine
 62
7
  6
CONTINUOUS
 10
25.6181814731
 20
17.965743003
 11
24.8745061494
 21
17.5363818547
  0
LINE
  5
36B
100
AcDbEntity
  8
0
100
AcDbLine
 62
9
  6
CONTINUOUS
 10
25.6181814731
 20
17.9589789239
 11
24.8745061494
 21
17.5296177756
  0
LINE
  5
36C
100
AcDbEntity
  8
0
100
AcDbLine
 62
7
  6
CONTINUOUS
 10
30.3351366853
 20
20.5614727914
 11
30.1258346599
 21
20.4406322107
  0
LINE
  5
36D
100
AcDbEntity
  8
0
100
AcDbLine
 62
7
  6
CONTINUOUS
 10
30.0409818461
 20
20.3916424159
 11
29.6358096605
 21
20.1577161454
  0
LINE
  5
36E
100
AcDbEntity
  8
0
100
AcDbLine
 62
7
  6
CONTINUOUS
 10
29.5509568468
 20
20.1087263506
 11
29.1454311078
 21
19.874595956
  0
LINE
  5
36F
100
AcDbEntity
  8
0
100
AcDbLine
 62
7
  6
CONTINUOUS
 10
24.8745061494
 20
17.4087762816
 11
24.4689804104
 21
17.174645887
  0
LINE
  5
370
100
AcDbEntity
  8
0
100
AcDbLine
 62
7
  6
CONTINUOUS
 10
24.3841275966
 20
17.1256560921
 11
23.978955411
 21
16.8917298217
  0
LINE
  5
371
100
AcDbEntity
  8
0
100
AcDbLine
 62
7
  6
CONTINUOUS
 10
23.8941025973
 20
16.8427400268
 11
23.4885768583
 21
16.6086096323
  0
LINE
  5
372
100
AcDbEntity
  8
0
100
AcDbLine
 62
7
  6
CONTINUOUS
 10
29.1454311078
 20
19.874595956
 11
28.7399053687
 21
20.1087263506
  0
LINE
  5
373
100
AcDbEntity
  8
0
100
AcDbLine
 62
7
  6
CONTINUOUS
 10
28.655052555
 20
20.1577161454
 11
28.2498803694
 21
20.3916424159
  0
LINE
  5
374
100
AcDbEntity
  8
0
100
AcDbLine
 62
7
  6
CONTINUOUS
 10
28.1650275556
 20
20.4406322107
 11
27.7595018166
 21
20.6747626053
  0
LINE
  5
375
100
AcDbEntity
  8
0
100
AcDbLine
 62
7
  6
CONTINUOUS
 10
30.3970101105
 20
19.2891679075
 11
30.7222792298
 21
19.1013736938
  0
LINE
  5
376
100
AcDbEntity
  8
0
100
AcDbLine
 62
7
  6
CONTINUOUS
 10
28.5705532947
 20
21.630063605
 11
28.5705532947
 21
21.7280431947
  0
LINE
  5
377
100
AcDbEntity
  8
0
100
AcDbLine
 62
7
  6
CONTINUOUS
 10
28.655052555
 20
21.2109967348
 11
28.655052555
 21
20.1577161454
  0
LINE
  5
378
100
AcDbEntity
  8
0
100
AcDbLine
 62
7
  6
CONTINUOUS
 10
28.6554061084
 20
21.6790533998
 11
28.6554061084
 21
21.7770329895
  0
LINE
  5
379
100
AcDbEntity
  8
0
100
AcDbLine
 62
7
  6
CONTINUOUS
 10
28.7054311078
 20
19.9709425525
 11
28.7054311078
 21
20.1342418687
  0
LINE
  5
37A
100
AcDbEntity
  8
0
100
AcDbLine
 62
7
  6
CONTINUOUS
 10
28.7399053687
 20
22.2940794494
 11
28.7399053687
 21
22.1960998597
  0
LINE
  5
37B
100
AcDbEntity
  8
0
100
AcDbLine
 62
7
  6
CONTINUOUS
 10
28.7399053687
 20
21.16200694
 11
28.7399053687
 21
20.1087263506
  0
LINE
  5
37C
100
AcDbEntity
  8
0
100
AcDbLine
 62
7
  6
CONTINUOUS
 10
28.7402589221
 20
21.7280431947
 11
28.7402589221
 21
21.630063605
  0
LINE
  5
37D
100
AcDbEntity
  8
0
100
AcDbLine
 62
7
  6
CONTINUOUS
 10
23.4885768583
 20
15.8190574385
 11
25.0229985734
 21
16.7049562288
  0
LINE
  5
37E
100
AcDbEntity
  8
0
100
AcDbLine
 62
7
  6
CONTINUOUS
 10
29.1454311078
 20
19.0850437622
 11
30.3911522461
 21
19.8042611968
  0
LINE
  5
37F
100
AcDbEntity
  8
0
100
AcDbLine
 62
7
  6
CONTINUOUS
 10
27.0099686286
 20
17.7582368182
 11
25.977592728
 21
17.1621943141
  0
LINE
  5
380
100
AcDbEntity
  8
0
100
AcDbLine
 62
7
  6
CONTINUOUS
 10
29.6358096605
 20
20.1577161454
 11
29.5509568468
 21
20.2067059403
  0
LINE
  5
381
100
AcDbEntity
  8
0
100
AcDbLine
 62
7
  6
CONTINUOUS
 10
30.3811966007
 20
20.1433718028
 11
29.9960805655
 21
20.3657186494
  0
LINE
  5
382
100
AcDbEntity
  8
0
100
AcDbLine
 62
7
  6
CONTINUOUS
 10
29.060578294
 20
22.01095926
 11
29.060578294
 21
21.9129796703
  0
LINE
  5
383
100
AcDbEntity
  8
0
100
AcDbLine
 62
7
  6
CONTINUOUS
 10
29.060578294
 20
21.3471475397
 11
29.060578294
 21
21.4451271294
  0
LINE
  5
384
100
AcDbEntity
  8
0
100
AcDbLine
 62
7
  6
CONTINUOUS
 10
29.1454311078
 20
21.4941169242
 11
29.1454311078
 21
21.3961373345
  0
LINE
  5
385
100
AcDbEntity
  8
0
100
AcDbLine
 62
7
  6
CONTINUOUS
 10
29.1454311078
 20
20.9278765454
 11
29.1454311078
 21
19.874595956
  0
LINE
  5
386
100
AcDbEntity
  8
0
100
AcDbLine
 62
7
  6
CONTINUOUS
 10
29.1454311078
 20
19.0850437622
 11
29.1454311078
 21
17.982773378
  0
LINE
  5
387
100
AcDbEntity
  8
0
100
AcDbLine
 62
7
  6
CONTINUOUS
 10
29.1454311078
 20
21.9619694651
 11
29.1454311078
 21
22.0599490548
  0
LINE
  5
388
100
AcDbEntity
  8
0
100
AcDbLine
 62
7
  6
CONTINUOUS
 10
29.2302839215
 20
21.4451271294
 11
29.2302839215
 21
21.3471475397
  0
LINE
  5
389
100
AcDbEntity
  8
0
100
AcDbLine
 62
7
  6
CONTINUOUS
 10
29.2302839215
 20
21.9129796703
 11
29.2302839215
 21
22.01095926
  0
LINE
  5
38A
100
AcDbEntity
  8
0
100
AcDbLine
 62
9
  6
CONTINUOUS
 10
30.7505635011
 20
19.7953957876
 11
31.7829394016
 21
20.3914382917
  0
LINE
  5
38B
100
AcDbEntity
  8
0
100
AcDbLine
 62
7
  6
CONTINUOUS
 10
29.1454311078
 20
20.9278765454
 11
28.7399053687
 21
21.16200694
  0
LINE
  5
38C
100
AcDbEntity
  8
0
100
AcDbLine
 62
7
  6
CONTINUOUS
 10
28.655052555
 20
21.2109967348
 11
28.2498803694
 21
21.4449230052
  0
LINE
  5
38D
100
AcDbEntity
  8
0
100
AcDbLine
 62
7
  6
CONTINUOUS
 10
28.1650275556
 20
21.4939128001
 11
27.7595018166
 21
21.7280431947
  0
LINE
  5
38E
100
AcDbEntity
  8
0
100
AcDbLine
 62
7
  6
CONTINUOUS
 10
30.1258346599
 20
20.4406322107
 11
30.0409818461
 21
20.4896220056
  0
LINE
  5
38F
100
AcDbEntity
  8
0
100
AcDbLine
 62
7
  6
CONTINUOUS
 10
28.1650275556
 20
21.9621735893
 11
28.5705532947
 21
21.7280431947
  0
LINE
  5
390
100
AcDbEntity
  8
0
100
AcDbLine
 62
7
  6
CONTINUOUS
 10
28.6554061084
 20
21.6790533998
 11
29.060578294
 21
21.4451271294
  0
LINE
  5
391
100
AcDbEntity
  8
0
100
AcDbLine
 62
7
  6
CONTINUOUS
 10
29.1454311078
 20
21.3961373345
 11
29.5509568468
 21
21.16200694
  0
LINE
  5
392
100
AcDbEntity
  8
0
100
AcDbLine
 62
7
  6
CONTINUOUS
 10
29.5506032934
 20
21.630063605
 11
29.5506032934
 21
21.7280431947
  0
LINE
  5
393
100
AcDbEntity
  8
0
100
AcDbLine
 62
7
  6
CONTINUOUS
 10
29.5509568468
 20
22.2940794494
 11
29.5509568468
 21
22.1960998597
  0
LINE
  5
394
100
AcDbEntity
  8
0
100
AcDbLine
 62
7
  6
CONTINUOUS
 10
29.5509568468
 20
21.16200694
 11
29.5509568468
 21
20.1087263506
  0
LINE
  5
395
100
AcDbEntity
  8
0
100
AcDbLine
 62
7
  6
CONTINUOUS
 10
29.5854311078
 20
19.9709425525
 11
29.5854311078
 21
20.1342418687
  0
LINE
  5
396
100
AcDbEntity
  8
0
100
AcDbLine
 62
7
  6
CONTINUOUS
 10
29.6354561071
 20
21.7770329895
 11
29.6354561071
 21
21.6790533998
  0
LINE
  5
397
100
AcDbEntity
  8
0
100
AcDbLine
 62
7
  6
CONTINUOUS
 10
29.6358096605
 20
21.2109967348
 11
29.6358096605
 21
20.1577161454
  0
LINE
  5
398
100
AcDbEntity
  8
0
100
AcDbLine
 62
7
  6
CONTINUOUS
 10
29.7203089209
 20
21.7280431947
 11
29.7203089209
 21
21.630063605
  0
LINE
  5
399
100
AcDbEntity
  8
0
100
AcDbLine
 62
9
  6
CONTINUOUS
 10
26.1402272877
 20
16.6600489169
 11
27.8797099694
 21
17.6643397114
  0
LINE
  5
39A
100
AcDbEntity
  8
0
100
AcDbLine
 62
9
  6
CONTINUOUS
 10
27.8938521051
 20
17.639844814
 11
26.1543694233
 21
16.6355540194
  0
LINE
  5
39B
100
AcDbEntity
  8
0
100
AcDbLine
 62
7
  6
CONTINUOUS
 10
31.7829394016
 20
19.6974161979
 11
30.7505635011
 21
19.1013736938
  0
LINE
  5
39C
100
AcDbEntity
  8
0
100
AcDbLine
 62
7
  6
CONTINUOUS
 10
27.8938521051
 20
17.3295761132
 11
26.1543694233
 21
16.3252853187
  0
LINE
  5
39D
100
AcDbEntity
  8
0
100
AcDbLine
 62
7
  6
CONTINUOUS
 10
23.4885768583
 20
14.7167870543
 11
25.0229985734
 21
15.6026858446
  0
LINE
  5
39E
100
AcDbEntity
  8
0
100
AcDbLine
 62
7
  6
CONTINUOUS
 10
29.1454311078
 20
17.982773378
 11
30.6798528229
 21
18.8686721683
  0
LINE
  5
39F
100
AcDbEntity
  8
0
100
AcDbLine
 62
7
  6
CONTINUOUS
 10
29.6358096605
 20
21.2109967348
 11
29.2302839215
 21
21.4451271294
  0
LINE
  5
3A0
100
AcDbEntity
  8
0
100
AcDbLine
 62
7
  6
CONTINUOUS
 10
29.1454311078
 20
21.4941169242
 11
28.7402589221
 21
21.7280431947
  0
LINE
  5
3A1
100
AcDbEntity
  8
0
100
AcDbLine
 62
7
  6
CONTINUOUS
 10
28.6554061084
 20
21.7770329895
 11
28.2498803694
 21
22.0111633841
  0
LINE
  5
3A2
100
AcDbEntity
  8
0
100
AcDbLine
 62
7
  6
CONTINUOUS
 10
28.655052555
 20
22.2450896546
 11
29.060578294
 21
22.01095926
  0
LINE
  5
3A3
100
AcDbEntity
  8
0
100
AcDbLine
 62
7
  6
CONTINUOUS
 10
29.1454311078
 20
21.9619694651
 11
29.5506032934
 21
21.7280431947
  0
LINE
  5
3A4
100
AcDbEntity
  8
0
100
AcDbLine
 62
7
  6
CONTINUOUS
 10
29.6354561071
 20
21.6790533998
 11
30.0409818461
 21
21.4449230052
  0
LINE
  5
3A5
100
AcDbEntity
  8
0
100
AcDbLine
 62
7
  6
CONTINUOUS
 10
30.0409818461
 20
21.4449230052
 11
30.0409818461
 21
20.3916424159
  0
LINE
  5
3A6
100
AcDbEntity
  8
0
100
AcDbLine
 62
7
  6
CONTINUOUS
 10
30.1258346599
 20
20.4406322107
 11
30.1258346599
 21
21.3495094321
  0
LINE
  5
3A7
100
AcDbEntity
  8
0
100
AcDbLine
 62
7
  6
CONTINUOUS
 10
30.049335934
 20
21.5380793601
 11
29.7203089209
 21
21.7280431947
  0
LINE
  5
3A8
100
AcDbEntity
  8
0
100
AcDbLine
 62
7
  6
CONTINUOUS
 10
29.6354561071
 20
21.7770329895
 11
29.2302839215
 21
22.01095926
  0
LINE
  5
3A9
100
AcDbEntity
  8
0
100
AcDbLine
 62
7
  6
CONTINUOUS
 10
29.1454311078
 20
22.0599490548
 11
28.7399053687
 21
22.2940794494
  0
LINE
  5
3AA
100
AcDbEntity
  8
0
100
AcDbLine
 62
7
  6
CONTINUOUS
 10
29.1454311078
 20
22.528209844
 11
29.5509568468
 21
22.2940794494
  0
LINE
  5
3AB
100
AcDbEntity
  8
0
100
AcDbLine
 62
7
  6
CONTINUOUS
 10
29.6358096605
 20
22.2450896546
 11
29.7317478107
 21
22.1896997377
  0
LINE
  5
3AC
100
AcDbEntity
  8
0
100
AcDbLine
 62
7
  6
CONTINUOUS
 10
30.3911522461
 20
19.2973328733
 11
30.3911522461
 21
19.9913549671
  0
LINE
  5
3AD
100
AcDbEntity
  8
0
100
AcDbLine
 62
9
  6
CONTINUOUS
 10
30.3970101107
 20
19.9831900011
 11
30.3970101105
 21
19.2891679075
  0
LINE
  5
3AE
100
AcDbEntity
  8
0
100
AcDbLine
 62
7
  6
CONTINUOUS
 10
30.6798528229
 20
18.8686721683
 11
30.6798528229
 21
19.1258685913
  0
LINE
  5
3AF
100
AcDbEntity
  8
0
100
AcDbLine
 62
9
  6
CONTINUOUS
 10
30.7222792303
 20
19.1013736936
 11
30.7222792312
 21
19.7953957868
  0
LINE
  5
3B0
100
AcDbEntity
  8
0
100
AcDbLine
 62
9
  6
CONTINUOUS
 10
30.7505635011
 20
19.1013736938
 11
30.7505635011
 21
19.7953957876
  0
LINE
  5
3B1
100
AcDbEntity
  8
0
100
AcDbLine
 62
9
  6
CONTINUOUS
 10
31.7829394016
 20
20.3914382917
 11
31.7829394016
 21
19.6974161979
  0
LINE
  5
3B2
100
AcDbEntity
  8
0
100
AcDbLine
 62
7
  6
CONTINUOUS
 10
31.788797266
 20
19.7055811637
 11
31.788797266
 21
20.3996032575
  0
ARC
  5
3B3
100
AcDbEntity
  8
0
100
AcDbCircle
 62
7
  6
CONTINUOUS
 10
12.1181113956
 20
13.3231818038
 40
0.02
100
AcDbArc
 50
90.0
 51
179.9999944373
  0
ARC
  5
3B4
100
AcDbEntity
  8
0
100
AcDbCircle
 62
7
  6
CONTINUOUS
 10
13.5781113956
 20
13.3231818038
 40
0.02
100
AcDbArc
 50
0.0000089183
 51
90.0
  0
ARC
  5
3B5
100
AcDbEntity
  8
0
100
AcDbCircle
 62
7
  6
CONTINUOUS
 10
14.0781113956
 20
3.0981818038
 40
0.02
100
AcDbArc
 50
0.0
 51
90.0
  0
ARC
  5
3B6
100
AcDbEntity
  8
0
100
AcDbCircle
 62
7
  6
CONTINUOUS
 10
11.6181113956
 20
3.0981818038
 40
0.02
100
AcDbArc
 50
90.0
 51
180.0
  0
ARC
  5
3B7
100
AcDbEntity
  8
0
100
AcDbCircle
 62
7
  6
CONTINUOUS
 10
27.6960383789
 20
9.7181818038
 40
3.625
100
AcDbArc
 50
0.0
 51
180.0
  0
ARC
  5
3B8
100
AcDbEntity
  8
0
100
AcDbCircle
 62
9
  6
CONTINUOUS
 10
27.6960383789
 20
9.7181818038
 40
3.6050000031
100
AcDbArc
 50
0.0
 51
180.0
  0
ARC
  5
3B9
100
AcDbEntity
  8
0
100
AcDbCircle
 62
9
  6
CONTINUOUS
 10
27.6960383789
 20
9.7181818038
 40
3.144999991
100
AcDbArc
 50
0.0
 51
180.0
  0
ARC
  5
3BA
100
AcDbEntity
  8
0
100
AcDbCircle
 62
7
  6
CONTINUOUS
 10
27.6960383789
 20
9.7181818038
 40
3.125
100
AcDbArc
 50
0.0
 51
180.0
  0
CIRCLE
  5
3BB
100
AcDbEntity
  8
0
100
AcDbCircle
 62
7
  6
CONTINUOUS
 10
31.0710383789
 20
4.5431818038
 40
0.082
  0
ARC
  5
3BC
100
AcDbEntity
  8
0
100
AcDbCircle
 62
7
  6
CONTINUOUS
 10
12.1181113956
 20
16.5212026901
 40
0.02
100
AcDbArc
 50
179.9999999993
 51
270.0
  0
ARC
  5
3BD
100
AcDbEntity
  8
0
100
AcDbCircle
 62
7
  6
CONTINUOUS
 10
12.1181113956
 20
23.7312026901
 40
0.02
100
AcDbArc
 50
90.0
 51
180.0000000007
  0
ARC
  5
3BE
100
AcDbEntity
  8
0
100
AcDbCircle
 62
7
  6
CONTINUOUS
 10
11.6181113956
 20
24.4812026901
 40
0.02
100
AcDbArc
 50
90.0
 51
180.0
  0
ARC
  5
3BF
100
AcDbEntity
  8
0
100
AcDbCircle
 62
7
  6
CONTINUOUS
 10
11.6181113956
 20
22.5212026901
 40
0.02
100
AcDbArc
 50
180.0
 51
270.0
  0
ARC
  5
3C0
100
AcDbEntity
  8
0
100
AcDbCircle
 62
7
  6
CONTINUOUS
 10
12.5681113956
 20
23.8962026901
 40
0.02
100
AcDbArc
 50
180.0
 51
270.0
  0
ARC
  5
3C1
100
AcDbEntity
  8
0
100
AcDbCircle
 62
7
  6
CONTINUOUS
 10
12.5681113956
 20
24.4562026901
 40
0.02
100
AcDbArc
 50
90.0
 51
180.0
  0
ARC
  5
3C2
100
AcDbEntity
  8
0
100
AcDbCircle
 62
7
  6
CONTINUOUS
 10
13.5781113956
 20
16.5212026901
 40
0.02
100
AcDbArc
 50
270.0
 51
360.0
  0
ARC
  5
3C3
100
AcDbEntity
  8
0
100
AcDbCircle
 62
7
  6
CONTINUOUS
 10
13.1281113956
 20
23.8962026901
 40
0.02
100
AcDbArc
 50
270.0
 51
360.0
  0
ARC
  5
3C4
100
AcDbEntity
  8
0
100
AcDbCircle
 62
7
  6
CONTINUOUS
 10
13.5781113956
 20
23.7312026901
 40
0.02
100
AcDbArc
 50
0.0
 51
90.0
  0
ARC
  5
3C5
100
AcDbEntity
  8
0
100
AcDbCircle
 62
7
  6
CONTINUOUS
 10
14.0781113956
 20
24.4812026901
 40
0.02
100
AcDbArc
 50
0.0
 51
90.0
  0
ARC
  5
3C6
100
AcDbEntity
  8
0
100
AcDbCircle
 62
7
  6
CONTINUOUS
 10
14.0781113956
 20
22.5212026901
 40
0.02
100
AcDbArc
 50
270.0
 51
360.0
  0
ARC
  5
3C7
100
AcDbEntity
  8
0
100
AcDbCircle
 62
7
  6
CONTINUOUS
 10
13.1281113956
 20
24.4562026901
 40
0.02
100
AcDbArc
 50
0.0
 51
90.0
  0
ARC
  5
3C8
100
AcDbEntity
  8
0
100
AcDbCircle
 62
9
  6
CONTINUOUS
 10
27.395790404
 20
19.981678423
 40
3.0012200873
100
AcDbArc
 50
0.0288572794
 51
0.1854301921
  0
ARC
  5
3C9
100
AcDbEntity
  8
0
100
AcDbCircle
 62
9
  6
CONTINUOUS
 10
29.9371965369
 20
23.1471177699
 40
2.9272279084
100
AcDbArc
 50
179.8262188088
 51
180.0000688505
  0
ARC
  5
3CA
100
AcDbEntity
  8
0
100
AcDbCircle
 62
9
  6
CONTINUOUS
 10
27.9453424078
 20
22.8427960619
 40
2.3512951281
100
AcDbArc
 50
72.3635047148
 51
73.3728286115
  0
ARC
  5
3CB
100
AcDbEntity
  8
0
100
AcDbCircle
 62
9
  6
CONTINUOUS
 10
28.061194852
 20
23.3777753153
 40
1.8031523617
100
AcDbArc
 50
82.2552910883
 51
85.4778950064
  0
ARC
  5
3CC
100
AcDbEntity
  8
0
100
AcDbCircle
 62
9
  6
CONTINUOUS
 10
28.0660453105
 20
23.7445214499
 40
1.4357468304
100
AcDbArc
 50
93.9094534998
 51
99.2887113732
  0
ARC
  5
3CD
100
AcDbEntity
  8
0
100
AcDbCircle
 62
9
  6
CONTINUOUS
 10
28.0195491306
 20
23.948278831
 40
1.226250492
100
AcDbArc
 50
107.2549707731
 51
119.959128165
  0
ARC
  5
3CE
100
AcDbEntity
  8
0
100
AcDbCircle
 62
9
  6
CONTINUOUS
 10
25.460845283
 20
18.4652860652
 40
0.0310617081
100
AcDbArc
 50
137.0725821989
 51
141.1460844559
  0
ARC
  5
3CF
100
AcDbEntity
  8
0
100
AcDbCircle
 62
9
  6
CONTINUOUS
 10
27.8626681095
 20
17.6386508573
 40
0.0309599802
100
AcDbArc
 50
39.032590723
 51
43.9184291449
  0
ARC
  5
3D0
100
AcDbEntity
  8
0
100
AcDbCircle
 62
7
  6
CONTINUOUS
 10
25.4437271082
 20
18.474712568
 40
0.02
100
AcDbArc
 50
121.5197088336
 51
178.4805038184
  0
ARC
  5
3D1
100
AcDbEntity
  8
0
100
AcDbCircle
 62
7
  6
CONTINUOUS
 10
25.443660268
 20
18.30322865
 40
0.0199332661
100
AcDbArc
 50
180.0086262236
 51
207.4205491698
  0
ARC
  5
3D2
100
AcDbEntity
  8
0
100
AcDbCircle
 62
7
  6
CONTINUOUS
 10
27.8797841115
 20
17.6480296321
 40
0.0199259644
100
AcDbArc
 50
0.0081488394
 51
30.3131267277
  0
SPLINE
  5
3D3
100
AcDbEntity
  8
0
100
AcDbSpline
 62
7
  6
CONTINUOUS
 70
0
 71
3
 72
13
 73
9
 74
0
 42
0.0000001
 43
0.0000001
 44
0.0000000001
 40
0.0
 40
0.0
 40
0.0
 40
0.0
 40
0.1480320286
 40
0.3097312549
 40
0.4999906771
 40
0.6902361406
 40
0.8519332966
 40
1.0
 40
1.0
 40
1.0
 40
1.0
 10
17.1981113956
 20
4.6251818038
 30
0.0
 10
17.1962473841
 20
4.6172320453
 30
0.0
 10
17.1928617697
 20
4.600472535
 30
0.0
 10
17.1892735218
 20
4.5731032024
 30
0.0
 10
17.1878828397
 20
4.5431841244
 30
0.0
 10
17.1892748986
 20
4.5132653563
 30
0.0
 10
17.192860782
 20
4.4858946795
 30
0.0
 10
17.1962462828
 20
4.4691333352
 30
0.0
 10
17.1981113956
 20
4.4611818038
 30
0.0
  0
SPLINE
  5
3D4
100
AcDbEntity
  8
0
100
AcDbSpline
 62
7
  6
CONTINUOUS
 70
0
 71
3
 72
13
 73
9
 74
0
 42
0.0000001
 43
0.0000001
 44
0.0000000001
 40
0.0
 40
0.0
 40
0.0
 40
0.0
 40
0.1480560382
 40
0.3097550457
 40
0.5000072763
 40
0.6902305955
 40
0.8519167604
 40
1.0
 40
1.0
 40
1.0
 40
1.0
 10
8.4981113956
 20
4.6251818038
 30
0.0
 10
8.4999753017
 20
4.6172306217
 30
0.0
 10
8.5033587616
 20
4.6004695653
 30
0.0
 10
8.506943598
 20
4.5730991909
 30
0.0
 10
8.5083384942
 20
4.5431821824
 30
0.0
 10
8.5069434873
 20
4.5132659234
 30
0.0
 10
8.5033593828
 20
4.4858962634
 30
0.0
 10
8.4999758291
 20
4.4691344157
 30
0.0
 10
8.4981113956
 20
4.4611818038
 30
0.0
  0
SPLINE
  5
3D5
100
AcDbEntity
  8
0
100
AcDbSpline
 62
7
  6
CONTINUOUS
 70
0
 71
3
 72
9
 73
5
 74
0
 42
0.0000001
 43
0.0000001
 44
0.0000000001
 40
0.0
 40
0.0
 40
0.0
 40
0.0
 40
0.5068968392
 40
1.0
 40
1.0
 40
1.0
 40
1.0
 10
29.5727123266
 20
20.1948743138
 30
0.0
 10
29.5768309333
 20
20.1851921582
 30
0.0
 10
29.5832150805
 20
20.1652856185
 30
0.0
 10
29.5854290067
 20
20.1444748277
 30
0.0
 10
29.585429608
 20
20.1342394032
 30
0.0
  0
SPLINE
  5
3D6
100
AcDbEntity
  8
0
100
AcDbSpline
 62
7
  6
CONTINUOUS
 70
0
 71
3
 72
9
 73
5
 74
0
 42
0.0000001
 43
0.0000001
 44
0.0000000001
 40
0.0
 40
0.0
 40
0.0
 40
0.0
 40
0.2493265213
 40
1.0
 40
1.0
 40
1.0
 40
1.0
 10
25.4337271082
 20
18.2859277779
 30
0.0
 10
25.4329125839
 20
18.2863980438
 30
0.0
 10
25.4297882684
 20
18.2885214184
 30
0.0
 10
25.4272717857
 20
18.2915360373
 30
0.0
 10
25.4259664988
 20
18.2940490188
 30
0.0
  0
SPLINE
  5
3D7
100
AcDbEntity
  8
0
100
AcDbSpline
 62
7
  6
CONTINUOUS
 70
0
 71
3
 72
18
 73
14
 74
0
 42
0.0000001
 43
0.0000001
 44
0.0000000001
 40
0.0
 40
0.0
 40
0.0
 40
0.0
 40
0.1479812682
 40
0.2884321432
 40
0.4213528939
 40
0.5471638644
 40
0.6666012754
 40
0.7243065545
 40
0.7808740782
 40
0.8365051525
 40
0.8914195717
 40
0.9458422523
 40
1.0
 40
1.0
 40
1.0
 40
1.0
 10
25.6181814731
 20
22.7470309277
 30
0.0
 10
25.6181814731
 20
22.8415914715
 30
0.0
 10
25.6258164507
 20
23.026028285
 30
0.0
 10
25.662175846
 20
23.2932347407
 30
0.0
 10
25.7229793963
 20
23.5415093862
 30
0.0
 10
25.8077719582
 20
23.7684337695
 30
0.0
 10
25.8990759537
 20
23.939921446
 30
0.0
 10
25.9834263883
 20
24.0633083277
 30
0.0
 10
26.0514066966
 20
24.1481039868
 30
0.0
 10
26.1246455302
 20
24.2259731271
 30
0.0
 10
26.2029842407
 20
24.2966921239
 30
0.0
 10
26.2861935847
 20
24.3600595324
 30
0.0
 10
26.3448308879
 20
24.397334435
 30
0.0
 10
26.3748014193
 20
24.4146379293
 30
0.0
  0
SPLINE
  5
3D8
100
AcDbEntity
  8
0
100
AcDbSpline
 62
7
  6
CONTINUOUS
 70
0
 71
3
 72
11
 73
7
 74
0
 42
0.0000001
 43
0.0000001
 44
0.0000000001
 40
0.0
 40
0.0
 40
0.0
 40
0.0
 40
0.2177350471
 40
0.451759849
 40
0.7118788704
 40
1.0
 40
1.0
 40
1.0
 40
1.0
 10
30.3911504002
 20
19.2973329521
 30
0.0
 10
30.3911503908
 20
19.2965715223
 30
0.0
 10
30.3914306999
 20
19.2949800519
 30
0.0
 10
30.3926499302
 20
19.2927698272
 30
0.0
 10
30.3945519661
 20
19.2907722874
 30
0.0
 10
30.3961375264
 20
19.2896716941
 30
0.0
 10
30.3970101105
 20
19.2891679075
 30
0.0
  0
SPLINE
  5
3D9
100
AcDbEntity
  8
0
100
AcDbSpline
 62
7
  6
CONTINUOUS
 70
0
 71
3
 72
32
 73
28
 74
0
 42
0.0000001
 43
0.0000001
 44
0.0000000001
 40
0.0
 40
0.0
 40
0.0
 40
0.0
 40
0.0210909823
 40
0.0424400259
 40
0.0642479147
 40
0.0867129797
 40
0.1100122495
 40
0.1342799203
 40
0.1596126795
 40
0.1860745588
 40
0.213698972
 40
0.2424922808
 40
0.2724349115
 40
0.3034876501
 40
0.3686472998
 40
0.4373531218
 40
0.5087709917
 40
0.5819384831
 40
0.655815882
 40
0.7293328734
 40
0.8014352978
 40
0.8366516443
 40
0.8711481144
 40
0.9048191519
 40
0.9375763098
 40
0.9693342028
 40
1.0
 40
1.0
 40
1.0
 40
1.0
 10
26.6248014193
 20
23.9816252274
 30
0.0
 10
26.6627577113
 20
24.0035393028
 30
0.0
 10
26.7420662978
 20
24.042757845
 30
0.0
 10
26.8685712843
 20
24.0864619164
 30
0.0
 10
27.0022791748
 20
24.1149014878
 30
0.0
 10
27.142391131
 20
24.1279380622
 30
0.0
 10
27.2881703109
 20
24.1255051368
 30
0.0
 10
27.4388450959
 20
24.1076622261
 30
0.0
 10
27.5935985321
 20
24.0744734131
 30
0.0
 10
27.75158925
 20
24.0261291133
 30
0.0
 10
27.9119624292
 20
23.9628891669
 30
0.0
 10
28.0738415113
 20
23.8850879337
 30
0.0
 10
28.2363576645
 20
23.7931537381
 30
0.0
 10
28.4561972883
 20
23.6500800097
 30
0.0
 10
28.7265078135
 20
23.438183321
 30
0.0
 10
29.0340824297
 20
23.141660135
 30
0.0
 10
29.323476247
 20
22.8051386432
 30
0.0
 10
29.5884620963
 20
22.4358359775
 30
0.0
 10
29.8233775732
 20
22.0416337161
 30
0.0
 10
30.0231767134
 20
21.6310006938
 30
0.0
 10
30.1579434143
 20
21.2796240128
 30
0.0
 10
30.2442227585
 20
20.9977418665
 30
0.0
 10
30.2972814474
 20
20.7894692275
 30
0.0
 10
30.3388869908
 20
20.5838193314
 30
0.0
 10
30.3688353251
 20
20.3818911783
 30
0.0
 10
30.3869343427
 20
20.1848285306
 30
0.0
 10
30.3911522461
 20
20.0550800779
 30
0.0
 10
30.3911522461
 20
19.9913549671
 30
0.0
  0
SPLINE
  5
3DA
100
AcDbEntity
  8
0
100
AcDbSpline
 62
7
  6
CONTINUOUS
 70
0
 71
3
 72
11
 73
7
 74
0
 42
0.0000001
 43
0.0000001
 44
0.0000000001
 40
0.0
 40
0.0
 40
0.0
 40
0.0
 40
0.2742605563
 40
0.5321324885
 40
0.7736441034
 40
1.0
 40
1.0
 40
1.0
 40
1.0
 10
27.015826493
 20
23.1552792181
 30
0.0
 10
27.015826493
 20
23.2469068711
 30
0.0
 10
27.0241064001
 20
23.4248459382
 30
0.0
 10
27.0638239833
 20
23.6808061456
 30
0.0
 10
27.1300580799
 20
23.9147117866
 30
0.0
 10
27.1933701445
 20
24.0583742416
 30
0.0
 10
27.2293527827
 20
24.1248882804
 30
0.0
  0
SPLINE
  5
3DB
100
AcDbEntity
  8
0
100
AcDbSpline
 62
7
  6
CONTINUOUS
 70
0
 71
3
 72
39
 73
35
 74
0
 42
0.0000001
 43
0.0000001
 44
0.0000000001
 40
0.0
 40
0.0
 40
0.0
 40
0.0
 40
0.021512074
 40
0.0432518212
 40
0.0654175959
 40
0.0881995682
 40
0.1117626055
 40
0.136237586
 40
0.161723739
 40
0.1882881262
 40
0.2159698407
 40
0.2447787873
 40
0.2747025433
 40
0.3057051443
 40
0.3377338091
 40
0.370717429
 40
0.4045726198
 40
0.4392023252
 40
0.4745008821
 40
0.5103530499
 40
0.5466380266
 40
0.5832291499
 40
0.6199968734
 40
0.6568093592
 40
0.6935343465
 40
0.7300405826
 40
0.7661989552
 40
0.8018854387
 40
0.8369803397
 40
0.8713704188
 40
0.9049512033
 40
0.9376373364
 40
0.9693497552
 40
1.0
 40
1.0
 40
1.0
 40
1.0
 10
27.4071773198
 20
25.0106804334
 30
0.0
 10
27.4521179368
 20
25.0366269107
 30
0.0
 10
27.5459274746
 20
25.0830502475
 30
0.0
 10
27.6954159563
 20
25.1348054421
 30
0.0
 10
27.853111674
 20
25.1685158833
 30
0.0
 10
28.0179935358
 20
25.1840943865
 30
0.0
 10
28.1891266274
 20
25.1815118483
 30
0.0
 10
28.3655678307
 20
25.1609159881
 30
0.0
 10
28.5463674554
 20
25.1224493916
 30
0.0
 10
28.7305874473
 20
25.0664213941
 30
0.0
 10
28.9172604032
 20
24.9931402757
 30
0.0
 10
29.1054347788
 20
24.903062534
 30
0.0
 10
29.2941144352
 20
24.7966559332
 30
0.0
 10
29.4823332262
 20
24.674531898
 30
0.0
 10
29.6690817013
 20
24.5373222335
 30
0.0
 10
29.8533958948
 20
24.3857921515
 30
0.0
 10
30.0342754561
 20
24.2207309888
 30
0.0
 10
30.2107810194
 20
24.0430487002
 30
0.0
 10
30.3819460663
 20
23.8536782016
 30
0.0
 10
30.5468789012
 20
23.6536579852
 30
0.0
 10
30.7046700282
 20
23.4440447339
 30
0.0
 10
30.8544973425
 20
23.2259846563
 30
0.0
 10
30.99552954
 20
23.0006345309
 30
0.0
 10
31.1270338308
 20
22.7692235977
 30
0.0
 10
31.2482752761
 20
22.5329825672
 30
0.0
 10
31.3586284595
 20
22.2931977179
 30
0.0
 10
31.4574714989
 20
22.0511447252
 30
0.0
 10
31.5442990066
 20
21.8081350425
 30
0.0
 10
31.6186113393
 20
21.5654638639
 30
0.0
 10
31.6800407208
 20
21.3244482514
 30
0.0
 10
31.728226792
 20
21.0863585251
 30
0.0
 10
31.7629271112
 20
20.8524486538
 30
0.0
 10
31.7839108391
 20
20.6240091974
 30
0.0
 10
31.788797266
 20
20.4735399576
 30
0.0
 10
31.788797266
 20
20.3996032575
 30
0.0
  0
SPLINE
  5
3DC
100
AcDbEntity
  8
0
100
AcDbSpline
 62
7
  6
CONTINUOUS
 70
0
 71
3
 72
9
 73
5
 74
0
 42
0.0000001
 43
0.0000001
 44
0.0000000001
 40
0.0
 40
0.0
 40
0.0
 40
0.0
 40
0.2490465541
 40
1.0
 40
1.0
 40
1.0
 40
1.0
 10
27.8897099694
 20
17.6653302879
 30
0.0
 10
27.890452656
 20
17.6649014976
 30
0.0
 10
27.8933161153
 20
17.6629814252
 30
0.0
 10
27.8956779968
 20
17.6603175586
 30
0.0
 10
27.8969857968
 20
17.6580867729
 30
0.0
  0
SPLINE
  5
3DD
100
AcDbEntity
  8
0
100
AcDbSpline
 62
7
  6
CONTINUOUS
 70
0
 71
3
 72
11
 73
7
 74
0
 42
0.0000001
 43
0.0000001
 44
0.0000000001
 40
0.0
 40
0.0
 40
0.0
 40
0.0
 40
0.2177350471
 40
0.451759849
 40
0.7118788704
 40
1.0
 40
1.0
 40
1.0
 40
1.0
 10
24.7342961507
 20
17.1336170126
 30
0.0
 10
24.7342961413
 20
17.1328555828
 30
0.0
 10
24.7345764504
 20
17.1312641124
 30
0.0
 10
24.7357956807
 20
17.1290538878
 30
0.0
 10
24.7376977166
 20
17.1270563479
 30
0.0
 10
24.7392832769
 20
17.1259557546
 30
0.0
 10
24.740155861
 20
17.125451968
 30
0.0
  0
SPLINE
  5
3DE
100
AcDbEntity
  8
0
100
AcDbSpline
 62
7
  6
CONTINUOUS
 70
0
 71
3
 72
9
 73
5
 74
0
 42
0.0000001
 43
0.0000001
 44
0.0000000001
 40
0.0
 40
0.0
 40
0.0
 40
0.0
 40
0.4930903441
 40
1.0
 40
1.0
 40
1.0
 40
1.0
 10
23.048578358
 20
16.8682580105
 30
0.0
 10
23.0485777569
 20
16.878490392
 30
0.0
 10
23.0507885978
 20
16.8992959441
 30
0.0
 10
23.0571720851
 20
16.9191970245
 30
0.0
 10
23.0612907126
 20
16.9288763579
 30
0.0
  0
SPLINE
  5
3DF
100
AcDbEntity
  8
0
100
AcDbSpline
 62
7
  6
CONTINUOUS
 70
0
 71
3
 72
9
 73
5
 74
0
 42
0.0000001
 43
0.0000001
 44
0.0000000001
 40
0.0
 40
0.0
 40
0.0
 40
0.0
 40
0.5068968392
 40
1.0
 40
1.0
 40
1.0
 40
1.0
 10
23.9158580771
 20
16.9288879901
 30
0.0
 10
23.9199766838
 20
16.9192058345
 30
0.0
 10
23.926360831
 20
16.8992992948
 30
0.0
 10
23.9285747572
 20
16.878488504
 30
0.0
 10
23.9285753585
 20
16.8682530795
 30
0.0
  0
SPLINE
  5
3E0
100
AcDbEntity
  8
0
100
AcDbSpline
 62
7
  6
CONTINUOUS
 70
0
 71
3
 72
9
 73
5
 74
0
 42
0.0000001
 43
0.0000001
 44
0.0000000001
 40
0.0
 40
0.0
 40
0.0
 40
0.0
 40
0.4930903441
 40
1.0
 40
1.0
 40
1.0
 40
1.0
 10
28.7054326075
 20
20.1342443342
 30
0.0
 10
28.7054320064
 20
20.1444767157
 30
0.0
 10
28.7076428473
 20
20.1652822678
 30
0.0
 10
28.7140263346
 20
20.1851833482
 30
0.0
 10
28.7181449621
 20
20.1948626816
 30
0.0
  0
SPLINE
  5
3E1
100
AcDbEntity
  8
0
100
AcDbSpline
 62
7
  6
CONTINUOUS
 70
0
 71
3
 72
11
 73
7
 74
0
 42
0.0000001
 43
0.0000001
 44
0.0000000001
 40
0.0
 40
0.0
 40
0.0
 40
0.0
 40
0.2881219045
 40
0.5482405344
 40
0.7822643261
 40
1.0
 40
1.0
 40
1.0
 40
1.0
 10
31.7829394016
 20
19.6974161979
 30
0.0
 10
31.7838119757
 20
19.6979199788
 30
0.0
 10
31.7853975182
 20
19.6990205491
 30
0.0
 10
31.7872995496
 20
19.7010180389
 30
0.0
 10
31.7885187648
 20
19.7032282263
 30
0.0
 10
31.7887991024
 20
19.7048196637
 30
0.0
 10
31.7887991118
 20
19.7055810849
 30
0.0
  0
SPLINE
  5
3E2
100
AcDbEntity
  8
0
100
AcDbSpline
 62
7
  6
CONTINUOUS
 70
0
 71
3
 72
11
 73
7
 74
0
 42
0.0000001
 43
0.0000001
 44
0.0000000001
 40
0.0
 40
0.0
 40
0.0
 40
0.0
 40
0.2370456093
 40
0.4999981632
 40
0.7629525084
 40
1.0
 40
1.0
 40
1.0
 40
1.0
 10
30.7222792298
 20
19.1013736938
 30
0.0
 10
30.7242852178
 20
19.1002155361
 30
0.0
 10
30.7289563373
 20
19.0985332096
 30
0.0
 10
30.7364213279
 20
19.0977052192
 30
0.0
 10
30.7438863325
 20
19.0985332144
 30
0.0
 10
30.7485574971
 20
19.1002155269
 30
0.0
 10
30.7505635011
 20
19.1013736938
 30
0.0
  0
SPLINE
  5
3E3
100
AcDbEntity
  8
0
100
AcDbSpline
 62
7
  6
CONTINUOUS
 70
0
 71
3
 72
11
 73
7
 74
0
 42
0.0000001
 43
0.0000001
 44
0.0000000001
 40
0.0
 40
0.0
 40
0.0
 40
0.0
 40
0.2881219045
 40
0.5482405344
 40
0.7822643261
 40
1.0
 40
1.0
 40
1.0
 40
1.0
 10
27.8938521051
 20
17.3295761132
 30
0.0
 10
27.8947246791
 20
17.3300798941
 30
0.0
 10
27.8963102217
 20
17.3311804644
 30
0.0
 10
27.898212253
 20
17.3331779542
 30
0.0
 10
27.8994314683
 20
17.3353881416
 30
0.0
 10
27.8997118058
 20
17.336979579
 30
0.0
 10
27.8997118153
 20
17.3377410002
 30
0.0
  0
SPLINE
  5
3E4
100
AcDbEntity
  8
0
100
AcDbSpline
 62
7
  6
CONTINUOUS
 70
0
 71
3
 72
11
 73
7
 74
0
 42
0.0000001
 43
0.0000001
 44
0.0000000001
 40
0.0
 40
0.0
 40
0.0
 40
0.0
 40
0.2370456093
 40
0.4999981632
 40
0.7629525084
 40
1.0
 40
1.0
 40
1.0
 40
1.0
 10
26.1260851521
 20
16.3252853187
 30
0.0
 10
26.1280911401
 20
16.324127161
 30
0.0
 10
26.1327622596
 20
16.3224448345
 30
0.0
 10
26.1402272501
 20
16.321616844
 30
0.0
 10
26.1476922548
 20
16.3224448392
 30
0.0
 10
26.1523634194
 20
16.3241271518
 30
0.0
 10
26.1543694233
 20
16.3252853187
 30
0.0
  0
SPLINE
  5
3E5
100
AcDbEntity
  8
0
100
AcDbSpline
 62
7
  6
CONTINUOUS
 70
0
 71
3
 72
11
 73
7
 74
0
 42
0.0000001
 43
0.0000001
 44
0.0000000001
 40
0.0
 40
0.0
 40
0.0
 40
0.0
 40
0.2778630045
 40
0.5367863624
 40
0.776694898
 40
1.0
 40
1.0
 40
1.0
 40
1.0
 10
23.1774498745
 20
16.6886262972
 30
0.0
 10
23.164319216
 20
16.6962072864
 30
0.0
 10
23.1397286392
 20
16.7122699037
 30
0.0
 10
23.1074089004
 20
16.7398958732
 30
0.0
 10
23.0815542296
 20
16.7698476861
 30
0.0
 10
23.0685466905
 20
16.7917288237
 30
0.0
 10
23.0634385662
 20
16.8027913778
 30
0.0
  0
SPLINE
  5
3E6
100
AcDbEntity
  8
0
100
AcDbSpline
 62
7
  6
CONTINUOUS
 70
0
 71
3
 72
9
 73
5
 74
0
 42
0.0000001
 43
0.0000001
 44
0.0000000001
 40
0.0
 40
0.0
 40
0.0
 40
0.0
 40
0.5079992821
 40
1.0
 40
1.0
 40
1.0
 40
1.0
 10
23.0634385662
 20
16.8027913778
 30
0.0
 10
23.0586447725
 20
16.813173193
 30
0.0
 10
23.0511822244
 20
16.8346055929
 30
0.0
 10
23.0485790086
 20
16.8571829956
 30
0.0
 10
23.048578358
 20
16.8682580105
 30
0.0
  0
SPLINE
  5
3E7
100
AcDbEntity
  8
0
100
AcDbSpline
 62
7
  6
CONTINUOUS
 70
0
 71
3
 72
23
 73
19
 74
0
 42
0.0000001
 43
0.0000001
 44
0.0000000001
 40
0.0
 40
0.0
 40
0.0
 40
0.0
 40
0.0623527706
 40
0.1287521185
 40
0.1983592628
 40
0.2703350867
 40
0.3437259769
 40
0.417467801
 40
0.4905010801
 40
0.5617961362
 40
0.6304058451
 40
0.6955025596
 40
0.7564602857
 40
0.8129078828
 40
0.8648167079
 40
0.9126029463
 40
0.9571841265
 40
1.0
 40
1.0
 40
1.0
 40
1.0
 10
23.1774498745
 20
16.525326981
 30
0.0
 10
23.1932473945
 20
16.5162062786
 30
0.0
 10
23.2271316858
 20
16.4995147223
 30
0.0
 10
23.2817738441
 20
16.479692042
 30
0.0
 10
23.3408417641
 20
16.4647036932
 30
0.0
 10
23.4030375778
 20
16.4548451677
 30
0.0
 10
23.4670563804
 20
16.450315693
 30
0.0
 10
23.5315365471
 20
16.4512251867
 30
0.0
 10
23.5950998033
 20
16.4575391433
 30
0.0
 10
23.6563903516
 20
16.4691469357
 30
0.0
 10
23.7141126365
 20
16.4857712377
 30
0.0
 10
23.7670375417
 20
16.5070984903
 30
0.0
 10
23.8140615329
 20
16.5326669066
 30
0.0
 10
23.854195332
 20
16.5619890568
 30
0.0
 10
23.88658148
 20
16.5945123764
 30
0.0
 10
23.910489
 20
16.629652076
 30
0.0
 10
23.9252103663
 20
16.6667291133
 30
0.0
 10
23.9285742888
 20
16.6924040609
 30
0.0
 10
23.9285748366
 20
16.7049299145
 30
0.0
  0
SPLINE
  5
3E8
100
AcDbEntity
  8
0
100
AcDbSpline
 62
9
  6
CONTINUOUS
 70
0
 71
3
 72
11
 73
7
 74
0
 42
0.0000001
 43
0.0000001
 44
0.0000000001
 40
0.0
 40
0.0
 40
0.0
 40
0.0
 40
0.2177824866
 40
0.4518710163
 40
0.7119824098
 40
1.0
 40
1.0
 40
1.0
 40
1.0
 10
27.8997121078
 20
17.6479851893
 30
0.0
 10
27.8997093453
 20
17.647225325
 30
0.0
 10
27.8994249118
 20
17.6456381594
 30
0.0
 10
27.8982040806
 20
17.6434351756
 30
0.0
 10
27.8963043512
 20
17.6414445233
 30
0.0
 10
27.8947223982
 20
17.640347278
 30
0.0
 10
27.8938521051
 20
17.639844814
 30
0.0
  0
SPLINE
  5
3E9
100
AcDbEntity
  8
0
100
AcDbSpline
 62
9
  6
CONTINUOUS
 70
0
 71
3
 72
11
 73
7
 74
0
 42
0.0000001
 43
0.0000001
 44
0.0000000001
 40
0.0
 40
0.0
 40
0.0
 40
0.0
 40
0.2177670053
 40
0.4517776554
 40
0.7118830878
 40
1.0
 40
1.0
 40
1.0
 40
1.0
 10
27.8897112541
 20
17.665332513
 30
0.0
 10
27.8890516995
 20
17.6657133071
 30
0.0
 10
27.8875332136
 20
17.6662665007
 30
0.0
 10
27.8850092578
 20
17.6663158104
 30
0.0
 10
27.8823284167
 20
17.6656666005
 30
0.0
 10
27.880582594
 20
17.6648435214
 30
0.0
 10
27.8797099694
 20
17.6643397114
 30
0.0
  0
SPLINE
  5
3EA
100
AcDbEntity
  8
0
100
AcDbSpline
 62
9
  6
CONTINUOUS
 70
0
 71
3
 72
11
 73
7
 74
0
 42
0.0000001
 43
0.0000001
 44
0.0000000001
 40
0.0
 40
0.0
 40
0.0
 40
0.0
 40
0.2177670053
 40
0.4517776556
 40
0.711883088
 40
1.0
 40
1.0
 40
1.0
 40
1.0
 10
30.3911496767
 20
19.991354967
 30
0.0
 10
30.3911496767
 20
19.9905933789
 30
0.0
 10
30.39142984
 20
19.9890017348
 30
0.0
 10
30.3926491144
 20
19.98679127
 30
0.0
 10
30.3945517672
 20
19.9847941985
 30
0.0
 10
30.3961374859
 20
19.9836938113
 30
0.0
 10
30.3970101105
 20
19.9831900012
 30
0.0
  0
SPLINE
  5
3EB
100
AcDbEntity
  8
0
100
AcDbSpline
 62
7
  6
CONTINUOUS
 70
0
 71
3
 72
9
 73
5
 74
0
 42
0.0000001
 43
0.0000001
 44
0.0000000001
 40
0.0
 40
0.0
 40
0.0
 40
0.0
 40
0.4919950035
 40
1.0
 40
1.0
 40
1.0
 40
1.0
 10
29.585429608
 20
20.1342394032
 30
0.0
 10
29.5854302578
 20
20.1231783275
 30
0.0
 10
29.5828355019
 20
20.1006286929
 30
0.0
 10
29.5753873268
 20
20.0792212226
 30
0.0
 10
29.5706021137
 20
20.0688510109
 30
0.0
  0
SPLINE
  5
3EC
100
AcDbEntity
  8
0
100
AcDbSpline
 62
7
  6
CONTINUOUS
 70
0
 71
3
 72
15
 73
11
 74
0
 42
0.0000001
 43
0.0000001
 44
0.0000000001
 40
0.0
 40
0.0
 40
0.0
 40
0.0
 40
0.0947532425
 40
0.1983354235
 40
0.3118545316
 40
0.4352526845
 40
0.5675764473
 40
0.7072389855
 40
0.852162847
 40
1.0
 40
1.0
 40
1.0
 40
1.0
 10
29.5706021137
 20
20.0688510109
 30
0.0
 10
29.5643016345
 20
20.0551970103
 30
0.0
 10
29.5474027039
 20
20.0282549797
 30
0.0
 10
29.51281499
 20
19.992479106
 30
0.0
 10
29.4689835973
 20
19.9604862221
 30
0.0
 10
29.4170317911
 20
19.9330129641
 30
0.0
 10
29.3582500058
 20
19.9106618325
 30
0.0
 10
29.2940931661
 20
19.894001176
 30
0.0
 10
29.2261839562
 20
19.8834234652
 30
0.0
 10
29.1797272158
 20
19.8806202849
 30
0.0
 10
29.1562675216
 20
19.8802859098
 30
0.0
  0
SPLINE
  5
3ED
100
AcDbEntity
  8
0
100
AcDbSpline
 62
7
  6
CONTINUOUS
 70
0
 71
3
 72
12
 73
8
 74
0
 42
0.0000001
 43
0.0000001
 44
0.0000000001
 40
0.0
 40
0.0
 40
0.0
 40
0.0
 40
0.2662149654
 40
0.5252022277
 40
0.771426779
 40
0.8882488356
 40
1.0
 40
1.0
 40
1.0
 40
1.0
 10
29.1338207485
 20
19.880298269
 30
0.0
 10
29.1061707918
 20
19.8807224332
 30
0.0
 10
29.0516147614
 20
19.8845119899
 30
0.0
 10
28.972635284
 20
19.8989803294
 30
0.0
 10
28.9107515965
 20
19.9182647669
 30
0.0
 10
28.8654287658
 20
19.9378022719
 30
0.0
 10
28.8443571262
 20
19.9488085174
 30
0.0
 10
28.834304124
 20
19.9546126209
 30
0.0
  0
SPLINE
  5
3EE
100
AcDbEntity
  8
0
100
AcDbSpline
 62
7
  6
CONTINUOUS
 70
0
 71
3
 72
15
 73
11
 74
0
 42
0.0000001
 43
0.0000001
 44
0.0000000001
 40
0.0
 40
0.0
 40
0.0
 40
0.0
 40
0.1080198438
 40
0.2180702008
 40
0.3319840788
 40
0.4513190231
 40
0.5772529451
 40
0.7106052448
 40
0.8516019961
 40
1.0
 40
1.0
 40
1.0
 40
1.0
 10
28.7054331294
 20
19.9709688668
 30
0.0
 10
28.7054327651
 20
19.9626376223
 30
0.0
 10
28.7068857631
 20
19.9457853317
 30
0.0
 10
28.713333562
 20
19.9208937117
 30
0.0
 10
28.7239814167
 20
19.8965369793
 30
0.0
 10
28.7387063853
 20
19.8729677817
 30
0.0
 10
28.7573311529
 20
19.8503786429
 30
0.0
 10
28.779689568
 20
19.8289966972
 30
0.0
 10
28.8055150733
 20
19.8090107394
 30
0.0
 10
28.8243920388
 20
19.7970360498
 30
0.0
 10
28.834304124
 20
19.7913133047
 30
0.0
  0
SPLINE
  5
3EF
100
AcDbEntity
  8
0
100
AcDbSpline
 62
9
  6
CONTINUOUS
 70
0
 71
3
 72
17
 73
13
 74
0
 42
0.0000001
 43
0.0000001
 44
0.0000000001
 40
0.0
 40
0.0
 40
0.0
 40
0.0
 40
0.0539157245
 40
0.1080899133
 40
0.1627737461
 40
0.2182083744
 40
0.3321227011
 40
0.4514613064
 40
0.577351572
 40
0.7105434924
 40
0.8514544645
 40
1.0
 40
1.0
 40
1.0
 40
1.0
 10
26.6248014178
 20
23.9816252299
 30
0.0
 10
26.599222102
 20
23.9668569642
 30
0.0
 10
26.5491790797
 20
23.935043555
 30
0.0
 10
26.4781657863
 20
23.8809472227
 30
0.0
 10
26.4112863829
 20
23.8205554283
 30
0.0
 10
26.3271358938
 20
23.7310575106
 30
0.0
 10
26.2329465241
 20
23.6031705472
 30
0.0
 10
26.1402896063
 20
23.4289163463
 30
0.0
 10
26.0675645644
 20
23.2342089543
 30
0.0
 10
26.0153859952
 20
23.0209204995
 30
0.0
 10
25.9841610358
 20
22.7911297494
 30
0.0
 10
25.977592728
 20
22.6324489497
 30
0.0
 10
25.977592728
 20
22.5510717483
 30
0.0
  0
SPLINE
  5
3F0
100
AcDbEntity
  8
0
100
AcDbSpline
 62
9
  6
CONTINUOUS
 70
0
 71
3
 72
11
 73
7
 74
0
 42
0.0000001
 43
0.0000001
 44
0.0000000001
 40
0.0
 40
0.0
 40
0.0
 40
0.0
 40
0.2269868572
 40
0.4686609094
 40
0.7262962575
 40
1.0
 40
1.0
 40
1.0
 40
1.0
 10
27.2272103405
 20
24.1249462201
 30
0.0
 10
27.1908521145
 20
24.058378659
 30
0.0
 10
27.1268471064
 20
23.9146943837
 30
0.0
 10
27.0596688392
 20
23.6808094682
 30
0.0
 10
27.0190894199
 20
23.4251413588
 30
0.0
 10
27.010259607
 20
23.2474562141
 30
0.0
 10
27.009982093
 20
23.1559961965
 30
0.0
  0
SPLINE
  5
3F1
100
AcDbEntity
  8
0
100
AcDbSpline
 62
9
  6
CONTINUOUS
 70
0
 71
3
 72
9
 73
5
 74
0
 42
0.0000001
 43
0.0000001
 44
0.0000000001
 40
0.0
 40
0.0
 40
0.0
 40
0.0
 40
0.2447947993
 40
1.0
 40
1.0
 40
1.0
 40
1.0
 10
25.423724933
 20
18.3032433888
 30
0.0
 10
25.4237251441
 20
18.3029726733
 30
0.0
 10
25.4237925075
 20
18.3018670849
 30
0.0
 10
25.424138918
 20
18.3007846657
 30
0.0
 10
25.4245156042
 20
18.3000392661
 30
0.0
  0
SPLINE
  5
3F2
100
AcDbEntity
  8
0
100
AcDbSpline
 62
9
  6
CONTINUOUS
 70
0
 71
3
 72
9
 73
5
 74
0
 42
0.0000001
 43
0.0000001
 44
0.0000000001
 40
0.0
 40
0.0
 40
0.0
 40
0.0
 40
0.2263667214
 40
1.0
 40
1.0
 40
1.0
 40
1.0
 10
25.4245156042
 20
18.3000392661
 30
0.0
 10
25.4247588528
 20
18.2995579172
 30
0.0
 10
25.4260459863
 20
18.2975384098
 30
0.0
 10
25.4279887252
 20
18.296004914
 30
0.0
 10
25.4295849726
 20
18.2950833202
 30
0.0
  0
SPLINE
  5
3F3
100
AcDbEntity
  8
0
100
AcDbSpline
 62
9
  6
CONTINUOUS
 70
0
 71
3
 72
11
 73
7
 74
0
 42
0.0000001
 43
0.0000001
 44
0.0000000001
 40
0.0
 40
0.0
 40
0.0
 40
0.0
 40
0.2177670053
 40
0.4517776561
 40
0.7118830888
 40
1.0
 40
1.0
 40
1.0
 40
1.0
 10
27.0158290624
 20
23.1552792178
 30
0.0
 10
27.0158290623
 20
23.1545176298
 30
0.0
 10
27.015548899
 20
23.1529259857
 30
0.0
 10
27.0143296246
 20
23.150715521
 30
0.0
 10
27.0124269718
 20
23.1487184495
 30
0.0
 10
27.0108412531
 20
23.1476180623
 30
0.0
 10
27.0099686286
 20
23.1471142523
 30
0.0
  0
SPLINE
  5
3F4
100
AcDbEntity
  8
0
100
AcDbSpline
 62
9
  6
CONTINUOUS
 70
0
 71
3
 72
9
 73
5
 74
0
 42
0.0000001
 43
0.0000001
 44
0.0000000001
 40
0.0
 40
0.0
 40
0.0
 40
0.0
 40
0.2453056231
 40
1.0
 40
1.0
 40
1.0
 40
1.0
 10
25.4337302617
 20
18.4920374085
 30
0.0
 10
25.4339525966
 20
18.4921655426
 30
0.0
 10
25.4348885213
 20
18.4926360467
 30
0.0
 10
25.4359325576
 20
18.4928809174
 30
0.0
 10
25.4367196311
 20
18.4929426128
 30
0.0
  0
SPLINE
  5
3F5
100
AcDbEntity
  8
0
100
AcDbSpline
 62
9
  6
CONTINUOUS
 70
0
 71
3
 72
9
 73
5
 74
0
 42
0.0000001
 43
0.0000001
 44
0.0000000001
 40
0.0
 40
0.0
 40
0.0
 40
0.0
 40
0.2257499235
 40
1.0
 40
1.0
 40
1.0
 40
1.0
 10
25.4367196311
 20
18.4929426128
 30
0.0
 10
25.4372691412
 20
18.4929856866
 30
0.0
 10
25.4397238921
 20
18.4929213246
 30
0.0
 10
25.4420899521
 20
18.4919877122
 30
0.0
 10
25.4437271082
 20
18.4910424996
 30
0.0
  0
SPLINE
  5
3F6
100
AcDbEntity
  8
0
100
AcDbSpline
 62
7
  6
CONTINUOUS
 70
0
 71
3
 72
23
 73
19
 74
0
 42
0.0000001
 43
0.0000001
 44
0.0000000001
 40
0.0
 40
0.0
 40
0.0
 40
0.0
 40
0.0623527706
 40
0.1287521185
 40
0.1983592628
 40
0.2703350867
 40
0.3437259769
 40
0.417467801
 40
0.4905010801
 40
0.5617961362
 40
0.6304058451
 40
0.6955025596
 40
0.7564602857
 40
0.8129078828
 40
0.8648167079
 40
0.9126029463
 40
0.9571841265
 40
1.0
 40
1.0
 40
1.0
 40
1.0
 10
28.834304124
 20
19.7913133047
 30
0.0
 10
28.850101644
 20
19.7821926023
 30
0.0
 10
28.8839859353
 20
19.765501046
 30
0.0
 10
28.9386280936
 20
19.7456783657
 30
0.0
 10
28.9976960136
 20
19.7306900169
 30
0.0
 10
29.0598918273
 20
19.7208314914
 30
0.0
 10
29.1239106299
 20
19.7163020167
 30
0.0
 10
29.1883907966
 20
19.7172115104
 30
0.0
 10
29.2519540528
 20
19.723525467
 30
0.0
 10
29.3132446011
 20
19.7351332594
 30
0.0
 10
29.370966886
 20
19.7517575614
 30
0.0
 10
29.4238917912
 20
19.773084814
 30
0.0
 10
29.4709157824
 20
19.7986532303
 30
0.0
 10
29.5110495815
 20
19.8279753805
 30
0.0
 10
29.5434357295
 20
19.8604987001
 30
0.0
 10
29.5673432494
 20
19.8956383997
 30
0.0
 10
29.5820646158
 20
19.932715437
 30
0.0
 10
29.5854285383
 20
19.9583903846
 30
0.0
 10
29.5854290861
 20
19.9709162383
 30
0.0
  0
SPLINE
  5
3F7
100
AcDbEntity
  8
0
100
AcDbSpline
 62
9
  6
CONTINUOUS
 70
0
 71
3
 72
11
 73
7
 74
0
 42
0.0000001
 43
0.0000001
 44
0.0000000001
 40
0.0
 40
0.0
 40
0.0
 40
0.0
 40
0.2370200272
 40
0.5
 40
0.7629799728
 40
1.0
 40
1.0
 40
1.0
 40
1.0
 10
30.7505635011
 20
19.7953957876
 30
0.0
 10
30.7485577011
 20
19.7942377385
 30
0.0
 10
30.7438868749
 20
19.7925543232
 30
0.0
 10
30.7364213654
 20
19.7917271635
 30
0.0
 10
30.728955856
 20
19.7925543232
 30
0.0
 10
30.7242850297
 20
19.7942377385
 30
0.0
 10
30.7222792298
 20
19.7953957876
 30
0.0
  0
SPLINE
  5
3F8
100
AcDbEntity
  8
0
100
AcDbSpline
 62
9
  6
CONTINUOUS
 70
0
 71
3
 72
11
 73
7
 74
0
 42
0.0000001
 43
0.0000001
 44
0.0000000001
 40
0.0
 40
0.0
 40
0.0
 40
0.0
 40
0.2881169122
 40
0.5482223446
 40
0.7822329947
 40
1.0
 40
1.0
 40
1.0
 40
1.0
 10
25.6240393374
 20
22.7388659619
 30
0.0
 10
25.6231667129
 20
22.7393697719
 30
0.0
 10
25.6215809942
 20
22.7404701591
 30
0.0
 10
25.6196783413
 20
22.7424672307
 30
0.0
 10
25.6184590669
 20
22.7446776955
 30
0.0
 10
25.6181789037
 20
22.7462693396
 30
0.0
 10
25.6181789037
 20
22.7470309277
 30
0.0
  0
SPLINE
  5
3F9
100
AcDbEntity
  8
0
100
AcDbSpline
 62
9
  6
CONTINUOUS
 70
0
 71
3
 72
11
 73
7
 74
0
 42
0.0000001
 43
0.0000001
 44
0.0000000001
 40
0.0
 40
0.0
 40
0.0
 40
0.0
 40
0.2370200277
 40
0.500000001
 40
0.7629799738
 40
1.0
 40
1.0
 40
1.0
 40
1.0
 10
25.977592728
 20
22.5510717483
 30
0.0
 10
25.9755869281
 20
22.5499136991
 30
0.0
 10
25.9709161018
 20
22.5482302838
 30
0.0
 10
25.9634505922
 20
22.5474031241
 30
0.0
 10
25.9559850827
 20
22.5482302839
 30
0.0
 10
25.9513142564
 20
22.5499136992
 30
0.0
 10
25.9493084565
 20
22.5510717484
 30
0.0
  0
SPLINE
  5
3FA
100
AcDbEntity
  8
0
100
AcDbSpline
 62
9
  6
CONTINUOUS
 70
0
 71
3
 72
11
 73
7
 74
0
 42
0.0000001
 43
0.0000001
 44
0.0000000001
 40
0.0
 40
0.0
 40
0.0
 40
0.0
 40
0.2881169119
 40
0.5482223444
 40
0.7822329947
 40
1.0
 40
1.0
 40
1.0
 40
1.0
 10
31.7829394016
 20
20.3914382917
 30
0.0
 10
31.7838120261
 20
20.3919421017
 30
0.0
 10
31.7853977449
 20
20.3930424889
 30
0.0
 10
31.7873003977
 20
20.3950395605
 30
0.0
 10
31.7885196721
 20
20.3972500252
 30
0.0
 10
31.7887998354
 20
20.3988416693
 30
0.0
 10
31.7887998354
 20
20.3996032574
 30
0.0
  0
LINE
  5
3FB
100
AcDbEntity
  8
0
100
AcDbLine
 62
9
  6
CONTINUOUS
 10
31.7829394016
 20
20.3914382917
 11
31.782931165
 21
20.3989328817
  0
SPLINE
  5
3FC
100
AcDbEntity
  8
0
100
AcDbSpline
 62
9
  6
CONTINUOUS
 70
0
 71
3
 72
23
 73
19
 74
0
 42
0.0000001
 43
0.0000001
 44
0.0000000001
 40
0.0
 40
0.0
 40
0.0
 40
0.0
 40
0.0573206641
 40
0.117525613
 40
0.1802538907
 40
0.2451051589
 40
0.3115962104
 40
0.3792050822
 40
0.4473806727
 40
0.5155565902
 40
0.5831665987
 40
0.6496589281
 40
0.714511249
 40
0.7772455067
 40
0.8374445197
 40
0.8947719797
 40
0.9489933498
 40
1.0
 40
1.0
 40
1.0
 40
1.0
 10
31.782931165
 20
20.3989328817
 30
0.0
 10
31.7826820043
 20
20.51236858
 30
0.0
 10
31.7706650334
 20
20.7450261882
 30
0.0
 10
31.7215025591
 20
21.098720096
 30
0.0
 10
31.6413178298
 20
21.4619616342
 30
0.0
 10
31.5311548211
 20
21.8302196504
 30
0.0
 10
31.3923440505
 20
22.1989800205
 30
0.0
 10
31.2266177488
 20
22.5636750367
 30
0.0
 10
31.0360302179
 20
22.9197945206
 30
0.0
 10
30.8229384998
 20
23.2629249622
 30
0.0
 10
30.589978759
 20
23.5888115138
 30
0.0
 10
30.340039828
 20
23.8934225435
 30
0.0
 10
30.0762124861
 20
24.1729922656
 30
0.0
 10
29.801745644
 20
24.4240665019
 30
0.0
 10
29.5200096989
 20
24.6435400428
 30
0.0
 10
29.2344260003
 20
24.8287151564
 30
0.0
 10
28.9485148531
 20
24.9772783945
 30
0.0
 10
28.7539275882
 20
25.0529945081
 30
0.0
 10
28.6577306964
 20
25.0835753249
 30
0.0
  0
SPLINE
  5
3FD
100
AcDbEntity
  8
0
100
AcDbSpline
 62
9
  6
CONTINUOUS
 70
0
 71
3
 72
9
 73
5
 74
0
 42
0.0000001
 43
0.0000001
 44
0.0000000001
 40
0.0
 40
0.0
 40
0.0
 40
0.0
 40
0.257054879
 40
1.0
 40
1.0
 40
1.0
 40
1.0
 10
28.6181485811
 20
25.0957764507
 30
0.0
 10
28.5917466046
 20
25.1036591803
 30
0.0
 10
28.4885048815
 20
25.1324884568
 30
0.0
 10
28.3830979714
 20
25.1537610684
 30
0.0
 10
28.3041866298
 20
25.1644799455
 30
0.0
  0
SPLINE
  5
3FE
100
AcDbEntity
  8
0
100
AcDbSpline
 62
9
  6
CONTINUOUS
 70
0
 71
3
 72
9
 73
5
 74
0
 42
0.0000001
 43
0.0000001
 44
0.0000000001
 40
0.0
 40
0.0
 40
0.0
 40
0.0
 40
0.2549979353
 40
1.0
 40
1.0
 40
1.0
 40
1.0
 10
28.2033620657
 20
25.175314445
 30
0.0
 10
28.1834207813
 20
25.1768819808
 30
0.0
 10
28.1051216625
 20
25.1816768242
 30
0.0
 10
28.02645921
 20
25.1809296345
 30
0.0
 10
27.9681562318
 20
25.1769273593
 30
0.0
  0
SPLINE
  5
3FF
100
AcDbEntity
  8
0
100
AcDbSpline
 62
9
  6
CONTINUOUS
 70
0
 71
3
 72
9
 73
5
 74
0
 42
0.0000001
 43
0.0000001
 44
0.0000000001
 40
0.0
 40
0.0
 40
0.0
 40
0.0
 40
0.2527076723
 40
1.0
 40
1.0
 40
1.0
 40
1.0
 10
27.8343022991
 20
25.1614421032
 30
0.0
 10
27.8190523583
 20
25.1589343569
 30
0.0
 10
27.7588783484
 20
25.1479971136
 30
0.0
 10
27.6994439991
 20
25.1329433073
 30
0.0
 10
27.6558132799
 20
25.1193409558
 30
0.0
  0
SPLINE
  5
400
100
AcDbEntity
  8
0
100
AcDbSpline
 62
7
  6
CONTINUOUS
 70
0
 71
3
 72
11
 73
7
 74
0
 42
0.0000001
 43
0.0000001
 44
0.0000000001
 40
0.0
 40
0.0
 40
0.0
 40
0.0
 40
0.2177350471
 40
0.451759849
 40
0.7118788704
 40
1.0
 40
1.0
 40
1.0
 40
1.0
 10
25.6181796272
 20
17.3581535724
 30
0.0
 10
25.6181796178
 20
17.3573921426
 30
0.0
 10
25.6184599269
 20
17.3558006722
 30
0.0
 10
25.6196791572
 20
17.3535904475
 30
0.0
 10
25.6215811931
 20
17.3515929077
 30
0.0
 10
25.6231667534
 20
17.3504923144
 30
0.0
 10
25.6240393374
 20
17.3499885277
 30
0.0
  0
SPLINE
  5
401
100
AcDbEntity
  8
0
100
AcDbSpline
 62
9
  6
CONTINUOUS
 70
0
 71
3
 72
33
 73
29
 74
0
 42
0.0000001
 43
0.0000001
 44
0.0000000001
 40
0.0
 40
0.0
 40
0.0
 40
0.0
 40
0.0306611679
 40
0.0623829139
 40
0.0950827317
 40
0.1286788958
 40
0.1630833073
 40
0.1981924068
 40
0.2700483678
 40
0.3432967716
 40
0.4169049869
 40
0.4898240895
 40
0.5610362427
 40
0.6296002282
 40
0.6626399751
 40
0.6947260421
 40
0.7257870386
 40
0.7557657991
 40
0.784624378
 40
0.8123450204
 40
0.8389337091
 40
0.8644234986
 40
0.8888760019
 40
0.9123859246
 40
0.9350795555
 40
0.9571171414
 40
0.9786867003
 40
1.0
 40
1.0
 40
1.0
 40
1.0
 10
30.3969947739
 20
19.9913914569
 30
0.0
 10
30.3967881366
 20
20.0552615835
 30
0.0
 10
30.3922375864
 20
20.1852261469
 30
0.0
 10
30.3737656463
 20
20.3825309838
 30
0.0
 10
30.3434849702
 20
20.5845560434
 30
0.0
 10
30.3016101421
 20
20.7901939241
 30
0.0
 10
30.2483707638
 20
20.9983690068
 30
0.0
 10
30.1619786753
 20
21.2799938882
 30
0.0
 10
30.0272621847
 20
21.6309736604
 30
0.0
 10
29.8277632945
 20
22.0411640396
 30
0.0
 10
29.593347577
 20
22.4350455936
 30
0.0
 10
29.3289633544
 20
22.8042873316
 30
0.0
 10
29.0402054615
 20
23.141087339
 30
0.0
 10
28.7811094527
 20
23.3919250237
 30
0.0
 10
28.5665880538
 20
23.5696879133
 30
0.0
 10
28.4055451488
 20
23.6890813689
 30
0.0
 10
28.2432517978
 20
23.7955573632
 30
0.0
 10
28.0805528203
 20
23.8885397885
 30
0.0
 10
27.9183107278
 20
23.9675337832
 30
0.0
 10
27.7573777211
 20
24.0321156175
 30
0.0
 10
27.598593929
 20
24.0819192187
 30
0.0
 10
27.4427962348
 20
24.1166810781
 30
0.0
 10
27.290796926
 20
24.136160672
 30
0.0
 10
27.143405035
 20
24.1402547242
 30
0.0
 10
27.0014154136
 20
24.1288537766
 30
0.0
 10
26.8656021119
 20
24.1020197006
 30
0.0
 10
26.7367727536
 20
24.0598216117
 30
0.0
 10
26.6557731417
 20
24.0214908751
 30
0.0
 10
26.6169331601
 20
23.9999821349
 30
0.0
  0
SPLINE
  5
402
100
AcDbEntity
  8
0
100
AcDbSpline
 62
9
  6
CONTINUOUS
 70
0
 71
3
 72
17
 73
13
 74
0
 42
0.0000001
 43
0.0000001
 44
0.0000000001
 40
0.0
 40
0.0
 40
0.0
 40
0.0
 40
0.0539919883
 40
0.1081952187
 40
0.1628696552
 40
0.2182654254
 40
0.3320483438
 40
0.4512455848
 40
0.5770413885
 40
0.7102224367
 40
0.8512531172
 40
1.0
 40
1.0
 40
1.0
 40
1.0
 10
26.6169331601
 20
23.9999821349
 30
0.0
 10
26.5905983716
 20
23.9853984996
 30
0.0
 10
26.5390618667
 20
23.9538752616
 30
0.0
 10
26.4658701768
 20
23.8999494066
 30
0.0
 10
26.396915806
 20
23.8394943265
 30
0.0
 10
26.3101400965
 20
23.7496188669
 30
0.0
 10
26.2129461276
 20
23.6206388464
 30
0.0
 10
26.1173048613
 20
23.4442164744
 30
0.0
 10
26.0422123469
 20
23.2465875085
 30
0.0
 10
25.988280488
 20
23.0296904555
 30
0.0
 10
25.9561608823
 20
22.7956766448
 30
0.0
 10
25.949397743
 20
22.6340054736
 30
0.0
 10
25.9493084553
 20
22.5510717491
 30
0.0
  0
LINE
  5
403
100
AcDbEntity
  8
0
100
AcDbLine
 62
9
  6
CONTINUOUS
 10
25.6240393372
 20
22.738865962
 11
25.624051416
 21
22.7468971437
  0
SPLINE
  5
404
100
AcDbEntity
  8
0
100
AcDbSpline
 62
9
  6
CONTINUOUS
 70
0
 71
3
 72
17
 73
13
 74
0
 42
0.0000001
 43
0.0000001
 44
0.0000000001
 40
0.0
 40
0.0
 40
0.0
 40
0.0
 40
0.1486129716
 40
0.28951805
 40
0.4226582879
 40
0.548475072
 40
0.6677340814
 40
0.781606295
 40
0.8370462886
 40
0.8917602626
 40
0.9459928152
 40
1.0
 40
1.0
 40
1.0
 40
1.0
 10
25.624051416
 20
22.7468971437
 30
0.0
 10
25.6243042747
 20
22.8411338914
 30
0.0
 10
25.6323867407
 20
23.0248279696
 30
0.0
 10
25.6694416552
 20
23.2907024625
 30
0.0
 10
25.7309624872
 20
23.5372315831
 30
0.0
 10
25.8163903934
 20
23.7620106492
 30
0.0
 10
25.9250459048
 20
23.9628328206
 30
0.0
 10
26.0353153951
 20
24.1098652851
 30
0.0
 10
26.1337496892
 20
24.2124789011
 30
0.0
 10
26.2119408515
 20
24.2816035202
 30
0.0
 10
26.2949286789
 20
24.3433650114
 30
0.0
 10
26.3533722651
 20
24.3795437384
 30
0.0
 10
26.3832353829
 20
24.3963073762
 30
0.0
  0
SPLINE
  5
405
100
AcDbEntity
  8
0
100
AcDbSpline
 62
9
  6
CONTINUOUS
 70
0
 71
3
 72
39
 73
35
 74
0
 42
0.0000001
 43
0.0000001
 44
0.0000000001
 40
0.0
 40
0.0
 40
0.0
 40
0.0
 40
0.0213158834
 40
0.0428795066
 40
0.0649043367
 40
0.0875810919
 40
0.1110714624
 40
0.1355039782
 40
0.1609744458
 40
0.1875459577
 40
0.2152526034
 40
0.2441007155
 40
0.2740735769
 40
0.3051323581
 40
0.3372209678
 40
0.3702662595
 40
0.4041826612
 40
0.4388718105
 40
0.4742268132
 40
0.5101317039
 40
0.5464651609
 40
0.5831001538
 40
0.6199070639
 40
0.6567538673
 40
0.6935084203
 40
0.7300393398
 40
0.7662176822
 40
0.8019191413
 40
0.8370239639
 40
0.8714191873
 40
0.9050001349
 40
0.9376778156
 40
0.9693712493
 40
1.0
 40
1.0
 40
1.0
 40
1.0
 10
26.3832353829
 20
24.3963073762
 30
0.0
 10
26.4277245211
 20
24.421281319
 30
0.0
 10
26.5205337463
 20
24.4658550548
 30
0.0
 10
26.6682803663
 20
24.5150714899
 30
0.0
 10
26.8241036752
 20
24.5466181585
 30
0.0
 10
26.9870840214
 20
24.5603450759
 30
0.0
 10
27.1563206198
 20
24.5562362537
 30
0.0
 10
27.3308942418
 20
24.5343676691
 30
0.0
 10
27.5098731532
 20
24.4948929418
 30
0.0
 10
27.6923152292
 20
24.4380636531
 30
0.0
 10
27.8772566448
 20
24.3641960395
 30
0.0
 10
28.0637284121
 20
24.2737081086
 30
0.0
 10
28.2507396669
 20
24.1670815203
 30
0.0
 10
28.4373070069
 20
24.0449014304
 30
0.0
 10
28.6224298694
 20
23.9078126295
 30
0.0
 10
28.8051322781
 20
23.7565618823
 30
0.0
 10
28.9844266681
 20
23.5919474552
 30
0.0
 10
29.1593677149
 20
23.4148641852
 30
0.0
 10
29.3290039902
 20
23.2262485266
 30
0.0
 10
29.4924426024
 20
23.0271246056
 30
0.0
 10
29.6487898945
 20
22.8185476994
 30
0.0
 10
29.7972257409
 20
22.6016496306
 30
0.0
 10
29.9369338042
 20
22.3775817585
 30
0.0
 10
30.0671849946
 20
22.1475589983
 30
0.0
 10
30.1872574851
 20
21.9128039513
 30
0.0
 10
30.2965316326
 20
21.6745896031
 30
0.0
 10
30.3943962356
 20
21.4341819979
 30
0.0
 10
30.4803495032
 20
21.1928796479
 30
0.0
 10
30.5538998266
 20
20.9519667338
 30
0.0
 10
30.614694794
 20
20.712750633
 30
0.0
 10
30.6623839642
 20
20.4764980137
 30
0.0
 10
30.696703132
 20
20.2444583203
 30
0.0
 10
30.7173975344
 20
20.0179034963
 30
0.0
 10
30.7222387396
 20
19.8687054798
 30
0.0
 10
30.7222792312
 20
19.7953957868
 30
0.0
  0
SPLINE
  5
406
100
AcDbEntity
  8
0
100
AcDbSpline
 62
9
  6
CONTINUOUS
 70
0
 71
3
 72
39
 73
35
 74
0
 42
0.0000001
 43
0.0000001
 44
0.0000000001
 40
0.0
 40
0.0
 40
0.0
 40
0.0
 40
0.021324037
 40
0.0428763149
 40
0.0648734044
 40
0.0875094994
 40
0.1109502029
 40
0.1353277482
 40
0.1607413425
 40
0.1872567415
 40
0.2149103687
 40
0.2437101433
 40
0.2736408139
 40
0.3046644229
 40
0.3367256833
 40
0.3697517654
 40
0.4036573266
 40
0.4383438562
 40
0.4737042146
 40
0.509621912
 40
0.545975031
 40
0.5826357977
 40
0.6194737935
 40
0.6563561638
 40
0.6931498352
 40
0.7297224225
 40
0.7659440012
 40
0.8016895845
 40
0.8368384337
 40
0.8712758414
 40
0.904896269
 40
0.9376128401
 40
0.9693440959
 40
1.0
 40
1.0
 40
1.0
 40
1.0
 10
26.3748027442
 20
24.4146356342
 30
0.0
 10
26.4193396197
 20
24.4403463391
 30
0.0
 10
26.5123076958
 20
24.4863612797
 30
0.0
 10
26.6605394367
 20
24.5375995733
 30
0.0
 10
26.8170207987
 20
24.5709767076
 30
0.0
 10
26.9808183538
 20
24.5863393608
 30
0.0
 10
27.1510202599
 20
24.5836552575
 30
0.0
 10
27.3266954472
 20
24.562999932
 30
0.0
 10
27.5068996831
 20
24.5245181353
 30
0.0
 10
27.6906791201
 20
24.4684626556
 30
0.0
 10
27.8770549991
 20
24.3951441354
 30
0.0
 10
28.0650466887
 20
24.304985757
 30
0.0
 10
28.253646766
 20
24.1984661203
 30
0.0
 10
28.4418606093
 20
24.076178256
 30
0.0
 10
28.628670584
 20
23.9387673627
 30
0.0
 10
28.8130890798
 20
23.7869897457
 30
0.0
 10
28.994111338
 20
23.6216481061
 30
0.0
 10
29.1707797259
 20
23.4436487867
 30
0.0
 10
29.3421257243
 20
23.2539364996
 30
0.0
 10
29.5072440669
 20
23.0535492935
 30
0.0
 10
29.6652245455
 20
22.8435538688
 30
0.0
 10
29.8152353221
 20
22.6250980243
 30
0.0
 10
29.9564448449
 20
22.3993469728
 30
0.0
 10
30.0881135122
 20
22.1675330809
 30
0.0
 10
30.2095060108
 20
21.9308949576
 30
0.0
 10
30.3199928197
 20
21.6907240172
 30
0.0
 10
30.418951285
 20
21.448303209
 30
0.0
 10
30.5058739123
 20
21.2049503384
 30
0.0
 10
30.5802609296
 20
20.9619694401
 30
0.0
 10
30.6417458813
 20
20.720686779
 30
0.0
 10
30.6899665351
 20
20.4823822802
 30
0.0
 10
30.7246855836
 20
20.2483231452
 30
0.0
 10
30.7456747023
 20
20.0198135721
 30
0.0
 10
30.7505635011
 20
19.8693260983
 30
0.0
 10
30.7505635011
 20
19.7953957876
 30
0.0
  0
SPLINE
  5
407
100
AcDbEntity
  8
0
100
AcDbSpline
 62
7
  6
CONTINUOUS
 70
0
 71
3
 72
9
 73
5
 74
0
 42
0.0000001
 43
0.0000001
 44
0.0000000001
 40
0.0
 40
0.0
 40
0.0
 40
0.0
 40
0.4919950035
 40
1.0
 40
1.0
 40
1.0
 40
1.0
 10
23.9285753585
 20
16.8682530795
 30
0.0
 10
23.9285760083
 20
16.8571920038
 30
0.0
 10
23.9259812524
 20
16.8346423692
 30
0.0
 10
23.9185330773
 20
16.8132348989
 30
0.0
 10
23.9137478642
 20
16.8028646872
 30
0.0
  0
SPLINE
  5
408
100
AcDbEntity
  8
0
100
AcDbSpline
 62
7
  6
CONTINUOUS
 70
0
 71
3
 72
15
 73
11
 74
0
 42
0.0000001
 43
0.0000001
 44
0.0000000001
 40
0.0
 40
0.0
 40
0.0
 40
0.0
 40
0.0947532425
 40
0.1983354235
 40
0.3118545316
 40
0.4352526845
 40
0.5675764473
 40
0.7072389855
 40
0.852162847
 40
1.0
 40
1.0
 40
1.0
 40
1.0
 10
23.9137478642
 20
16.8028646872
 30
0.0
 10
23.9074473851
 20
16.7892106866
 30
0.0
 10
23.8905484544
 20
16.762268656
 30
0.0
 10
23.8559607405
 20
16.7264927823
 30
0.0
 10
23.8121293478
 20
16.6944998984
 30
0.0
 10
23.7601775416
 20
16.6670266404
 30
0.0
 10
23.7013957563
 20
16.6446755088
 30
0.0
 10
23.6372389167
 20
16.6280148523
 30
0.0
 10
23.5693297067
 20
16.6174371415
 30
0.0
 10
23.5228729663
 20
16.6146339612
 30
0.0
 10
23.4994132721
 20
16.6142995861
 30
0.0
  0
SPLINE
  5
409
100
AcDbEntity
  8
0
100
AcDbSpline
 62
7
  6
CONTINUOUS
 70
0
 71
3
 72
12
 73
8
 74
0
 42
0.0000001
 43
0.0000001
 44
0.0000000001
 40
0.0
 40
0.0
 40
0.0
 40
0.0
 40
0.2662149654
 40
0.5252022277
 40
0.771426779
 40
0.8882488356
 40
1.0
 40
1.0
 40
1.0
 40
1.0
 10
23.476966499
 20
16.6143119453
 30
0.0
 10
23.4493165423
 20
16.6147361095
 30
0.0
 10
23.3947605119
 20
16.6185256662
 30
0.0
 10
23.3157810345
 20
16.6329940057
 30
0.0
 10
23.253897347
 20
16.6522784432
 30
0.0
 10
23.2085745163
 20
16.6718159481
 30
0.0
 10
23.1875028767
 20
16.6828221937
 30
0.0
 10
23.1774498745
 20
16.6886262972
 30
0.0
  0
SPLINE
  5
40A
100
AcDbEntity
  8
0
100
AcDbSpline
 62
7
  6
CONTINUOUS
 70
0
 71
3
 72
11
 73
7
 74
0
 42
0.0000001
 43
0.0000001
 44
0.0000000001
 40
0.0
 40
0.0
 40
0.0
 40
0.0
 40
0.2778630045
 40
0.5367863624
 40
0.776694898
 40
1.0
 40
1.0
 40
1.0
 40
1.0
 10
28.834304124
 20
19.9546126209
 30
0.0
 10
28.8211734655
 20
19.9621936101
 30
0.0
 10
28.7965828887
 20
19.9782562274
 30
0.0
 10
28.7642631499
 20
20.0058821969
 30
0.0
 10
28.7384084791
 20
20.0358340098
 30
0.0
 10
28.72540094
 20
20.0577151475
 30
0.0
 10
28.7202928157
 20
20.0687777015
 30
0.0
  0
SPLINE
  5
40B
100
AcDbEntity
  8
0
100
AcDbSpline
 62
7
  6
CONTINUOUS
 70
0
 71
3
 72
9
 73
5
 74
0
 42
0.0000001
 43
0.0000001
 44
0.0000000001
 40
0.0
 40
0.0
 40
0.0
 40
0.0
 40
0.5079992821
 40
1.0
 40
1.0
 40
1.0
 40
1.0
 10
28.7202928157
 20
20.0687777015
 30
0.0
 10
28.715499022
 20
20.0791595167
 30
0.0
 10
28.7080364739
 20
20.1005919166
 30
0.0
 10
28.7054332581
 20
20.1231693193
 30
0.0
 10
28.7054326075
 20
20.1342443342
 30
0.0
  0
SPLINE
  5
40C
100
AcDbEntity
  8
0
100
AcDbSpline
 62
7
  6
CONTINUOUS
 70
0
 71
3
 72
15
 73
11
 74
0
 42
0.0000001
 43
0.0000001
 44
0.0000000001
 40
0.0
 40
0.0
 40
0.0
 40
0.0
 40
0.1080198438
 40
0.2180702008
 40
0.3319840788
 40
0.4513190231
 40
0.5772529451
 40
0.7106052448
 40
0.8516019961
 40
1.0
 40
1.0
 40
1.0
 40
1.0
 10
23.04857888
 20
16.7049825431
 30
0.0
 10
23.0485785156
 20
16.6966512986
 30
0.0
 10
23.0500315136
 20
16.679799008
 30
0.0
 10
23.0564793125
 20
16.654907388
 30
0.0
 10
23.0671271672
 20
16.6305506555
 30
0.0
 10
23.0818521358
 20
16.606981458
 30
0.0
 10
23.1004769034
 20
16.5843923192
 30
0.0
 10
23.1228353185
 20
16.5630103735
 30
0.0
 10
23.1486608238
 20
16.5430244157
 30
0.0
 10
23.1675377893
 20
16.5310497261
 30
0.0
 10
23.1774498745
 20
16.525326981
 30
0.0
  0
SPLINE
  5
40D
100
AcDbEntity
  8
0
100
AcDbSpline
 62
9
  6
CONTINUOUS
 70
0
 71
3
 72
10
 73
6
 74
0
 42
0.0000001
 43
0.0000001
 44
0.0000000001
 40
0.0
 40
0.0
 40
0.0
 40
0.0
 40
0.2276770403
 40
0.4783355701
 40
1.0
 40
1.0
 40
1.0
 40
1.0
 10
27.8938521051
 20
17.639844814
 30
0.0
 10
27.8938521051
 20
17.6413582751
 30
0.0
 10
27.8934642053
 20
17.6445414374
 30
0.0
 10
27.8915383286
 20
17.6509208056
 30
0.0
 10
27.8889016835
 20
17.6554549343
 30
0.0
 10
27.8867174466
 20
17.6581482869
 30
0.0
  0
SPLINE
  5
40E
100
AcDbEntity
  8
0
100
AcDbSpline
 62
9
  6
CONTINUOUS
 70
0
 71
3
 72
9
 73
5
 74
0
 42
0.0000001
 43
0.0000001
 44
0.0000000001
 40
0.0
 40
0.0
 40
0.0
 40
0.0
 40
0.2647113174
 40
1.0
 40
1.0
 40
1.0
 40
1.0
 10
27.8849694515
 20
17.6601257385
 30
0.0
 10
27.884556
 20
17.6605545725
 30
0.0
 10
27.8829463995
 20
17.6621261814
 30
0.0
 10
27.881142925
 20
17.6635123941
 30
0.0
 10
27.8797099694
 20
17.6643397114
 30
0.0
  0
SPLINE
  5
40F
100
AcDbEntity
  8
0
100
AcDbSpline
 62
9
  6
CONTINUOUS
 70
0
 71
3
 72
11
 73
7
 74
0
 42
0.0000001
 43
0.0000001
 44
0.0000000001
 40
0.0
 40
0.0
 40
0.0
 40
0.0
 40
0.2370200272
 40
0.5
 40
0.7629799728
 40
1.0
 40
1.0
 40
1.0
 40
1.0
 10
26.1402272877
 20
16.6600489169
 30
0.0
 10
26.1422330876
 20
16.6588908677
 30
0.0
 10
26.1460263812
 20
16.6556875212
 30
0.0
 10
26.1504754772
 20
16.6496357802
 30
0.0
 10
26.1534918906
 20
16.6427568795
 30
0.0
 10
26.1543694233
 20
16.6378701177
 30
0.0
 10
26.1543694233
 20
16.6355540194
 30
0.0
  0
SPLINE
  5
410
100
AcDbEntity
  8
0
100
AcDbSpline
 62
9
  6
CONTINUOUS
 70
0
 71
3
 72
11
 73
7
 74
0
 42
0.0000001
 43
0.0000001
 44
0.0000000001
 40
0.0
 40
0.0
 40
0.0
 40
0.0
 40
0.2370305758
 40
0.5000609289
 40
0.7630333758
 40
1.0
 40
1.0
 40
1.0
 40
1.0
 10
26.1260851521
 20
16.6355540194
 30
0.0
 10
26.1260851521
 20
16.6378702239
 30
0.0
 10
26.1269627247
 20
16.6427576574
 30
0.0
 10
26.1299801901
 20
16.6496366047
 30
0.0
 10
26.1344284691
 20
16.6556888935
 30
0.0
 10
26.138221937
 20
16.6588911271
 30
0.0
 10
26.1402272877
 20
16.6600489169
 30
0.0
  0
SPLINE
  5
411
100
AcDbEntity
  8
0
100
AcDbSpline
 62
9
  6
CONTINUOUS
 70
0
 71
3
 72
11
 73
7
 74
0
 42
0.0000001
 43
0.0000001
 44
0.0000000001
 40
0.0
 40
0.0
 40
0.0
 40
0.0
 40
0.2369658628
 40
0.4999371234
 40
0.7629681484
 40
1.0
 40
1.0
 40
1.0
 40
1.0
 10
26.1543694233
 20
16.6355540194
 30
0.0
 10
26.1523640791
 20
16.6343962334
 30
0.0
 10
26.1476941514
 20
16.6327121108
 30
0.0
 10
26.1402285879
 20
16.6318859216
 30
0.0
 10
26.132762508
 20
16.6327122076
 30
0.0
 10
26.1280910548
 20
16.634395911
 30
0.0
 10
26.1260851521
 20
16.6355540194
 30
0.0
  0
SPLINE
  5
412
100
AcDbEntity
  8
0
100
AcDbSpline
 62
9
  6
CONTINUOUS
 70
0
 71
3
 72
11
 73
7
 74
0
 42
0.0000001
 43
0.0000001
 44
0.0000000001
 40
0.0
 40
0.0
 40
0.0
 40
0.0
 40
0.2881180929
 40
0.5481997965
 40
0.7821891408
 40
1.0
 40
1.0
 40
1.0
 40
1.0
 10
25.4295849726
 20
18.4665476022
 30
0.0
 10
25.4287127512
 20
18.4670511794
 30
0.0
 10
25.4271277044
 20
18.4681507124
 30
0.0
 10
25.4252252602
 20
18.4701460664
 30
0.0
 10
25.4240064611
 20
18.4723554218
 30
0.0
 10
25.4237255406
 20
18.4739461279
 30
0.0
 10
25.423724928
 20
18.474707514
 30
0.0
  0
SPLINE
  5
413
100
AcDbEntity
  8
0
100
AcDbSpline
 62
9
  6
CONTINUOUS
 70
0
 71
3
 72
10
 73
6
 74
0
 42
0.0000001
 43
0.0000001
 44
0.0000000001
 40
0.0
 40
0.0
 40
0.0
 40
0.0
 40
0.2276618839
 40
0.4782320476
 40
1.0
 40
1.0
 40
1.0
 40
1.0
 10
25.4295849726
 20
18.4665476022
 30
0.0
 10
25.4295849726
 20
18.4680533349
 30
0.0
 10
25.4299690124
 20
18.4712197524
 30
0.0
 10
25.4318772124
 20
18.4775692794
 30
0.0
 10
25.4344905679
 20
18.4820852928
 30
0.0
 10
25.4366560404
 20
18.4847722207
 30
0.0
  0
SPLINE
  5
414
100
AcDbEntity
  8
0
100
AcDbSpline
 62
9
  6
CONTINUOUS
 70
0
 71
3
 72
9
 73
5
 74
0
 42
0.0000001
 43
0.0000001
 44
0.0000000001
 40
0.0
 40
0.0
 40
0.0
 40
0.0
 40
0.2652946776
 40
1.0
 40
1.0
 40
1.0
 40
1.0
 10
25.4381013701
 20
18.4864413042
 30
0.0
 10
25.4385400486
 20
18.4869126994
 30
0.0
 10
25.4402491499
 20
18.4886349022
 30
0.0
 10
25.4421827173
 20
18.4901508451
 30
0.0
 10
25.4437271082
 20
18.4910424996
 30
0.0
  0
SPLINE
  5
415
100
AcDbEntity
  8
0
100
AcDbSpline
 62
7
  6
CONTINUOUS
 70
0
 71
3
 72
11
 73
7
 74
0
 42
0.0000001
 43
0.0000001
 44
0.0000000001
 40
0.0
 40
0.0
 40
0.0
 40
0.0
 40
0.2370456093
 40
0.4999981632
 40
0.7629525084
 40
1.0
 40
1.0
 40
1.0
 40
1.0
 10
25.9493084568
 20
17.1621943141
 30
0.0
 10
25.9513144448
 20
17.1610361564
 30
0.0
 10
25.9559855643
 20
17.1593538299
 30
0.0
 10
25.9634505548
 20
17.1585258395
 30
0.0
 10
25.9709155595
 20
17.1593538347
 30
0.0
 10
25.9755867241
 20
17.1610361472
 30
0.0
 10
25.977592728
 20
17.1621943141
 30
0.0
  0
SPLINE
  5
416
100
AcDbEntity
  8
0
100
AcDbSpline
 62
7
  6
CONTINUOUS
 70
0
 71
3
 72
11
 73
7
 74
0
 42
0.0000001
 43
0.0000001
 44
0.0000000001
 40
0.0
 40
0.0
 40
0.0
 40
0.0
 40
0.2881219045
 40
0.5482405344
 40
0.7822643261
 40
1.0
 40
1.0
 40
1.0
 40
1.0
 10
27.0099686286
 20
17.7582368182
 30
0.0
 10
27.0108412027
 20
17.7587405991
 30
0.0
 10
27.0124267452
 20
17.7598411694
 30
0.0
 10
27.0143287765
 20
17.7618386592
 30
0.0
 10
27.0155479918
 20
17.7640488466
 30
0.0
 10
27.0158283294
 20
17.765640284
 30
0.0
 10
27.0158283388
 20
17.7664017052
 30
0.0
  0
SPLINE
  5
417
100
AcDbEntity
  8
0
100
AcDbSpline
 62
9
  6
CONTINUOUS
 70
0
 71
3
 72
11
 73
7
 74
0
 42
0.0000001
 43
0.0000001
 44
0.0000000001
 40
0.0
 40
0.0
 40
0.0
 40
0.0
 40
0.2177670053
 40
0.4517776554
 40
0.7118830878
 40
1.0
 40
1.0
 40
1.0
 40
1.0
 10
25.4337258235
 20
18.2859255527
 30
0.0
 10
25.4330662689
 20
18.2863063468
 30
0.0
 10
25.4318279463
 20
18.2873447973
 30
0.0
 10
25.4305232649
 20
18.2895059523
 30
0.0
 10
25.4297450765
 20
18.2921522338
 30
0.0
 10
25.4295849726
 20
18.2940757001
 30
0.0
 10
25.4295849726
 20
18.2950833202
 30
0.0
  0
ENDSEC
  0
SECTION
  2
OBJECTS
  0
DICTIONARY
  5
C
100
AcDbDictionary
280
0
281
1
  3
ACAD_GROUP
350
D
  3
ACAD_MLINESTYLE
350
17
  3
ACAD_LAYOUT
350
1A
  3
ACAD_PLOTSETTINGS
350
19
  3
ACAD_PLOTSTYLENAME
350
E
  0
DICTIONARY
  5
D
102
{ACAD_REACTORS
330
C
102
}
100
AcDbDictionary
280
0
281
1
  0
ACDBDICTIONARYWDFLT
  5
E
102
{ACAD_REACTORS
330
C
102
}
100
AcDbDictionary
281
1
  3
Normal
350
F
100
AcDbDictionaryWithDefault
340
F
  0
DICTIONARY
  5
17
102
{ACAD_REACTORS
330
C
102
}
100
AcDbDictionary
280
0
281
1
  3
Standard
350
18
  0
DICTIONARY
  5
19
102
{ACAD_REACTORS
330
C
102
}
100
AcDbDictionary
281
1
  0
DICTIONARY
  5
1A
102
{ACAD_REACTORS
330
C
102
}
100
AcDbDictionary
281
1
  3
Model
350
418
  3
Layout1
350
419
  0
ACDBPLACEHOLDER
  5
F
102
{ACAD_REACTORS
330
E
102
}
  0
MLINESTYLE
  5
18
102
{ACAD_REACTORS
330
17
102
}
100
AcDbMlineStyle
  2
STANDARD
 70
0
  3

 62
256
 51
90.0
 52
90.0
 71
2
 49
0.5
 62
256
  6
BYLAYER
 49
-0.5
 62
256
  6
BYLAYER
  0
LAYOUT
  5
418
102
{ACAD_REACTORS
330
1A
102
}
100
AcDbPlotSettings
  1

  2
none_device
  4

  6

 40
0.0
 41
0.0
 42
0.0
 43
0.0
 44
1016.0
 45
711.2
 46
0.0
 47
0.0
 48
0.0
 49
0.0
140
0.0
141
0.0
142
1.0
143
1.0
 70
1024
 72
0
 73
0
 74
0
  7

 75
0
147
1.0
148
0.0
149
0.0
100
AcDbLayout
  1
Model
 70
0
 71
0
 10
0.0
 20
0.0
 11
40.0
 21
28.0
 12
0.0
 22
0.0
 32
0.0
 14
0.0
 24
0.0
 34
0.0
 15
0.0
 25
0.0
 35
0.0
146
0.0
 13
0.0
 23
0.0
 33
0.0
 16
1.0
 26
0.0
 36
0.0
 17
0.0
 27
1.0
 37
0.0
 76
0
330
200
345
0
346
0
  0
LAYOUT
  5
419
102
{ACAD_REACTORS
330
1A
102
}
100
AcDbPlotSettings
  1

  2
none_device
  4

  6

 40
0.0
 41
0.0
 42
0.0
 43
0.0
 44
1016.0
 45
711.2
 46
0.0
 47
0.0
 48
0.0
 49
0.0
140
0.0
141
0.0
142
1.0
143
1.0
 70
0
 72
0
 73
0
 74
0
  7

 75
0
147
1.0
148
0.0
149
0.0
100
AcDbLayout
  1
Layout1
 70
0
 71
1
 10
0.0
 20
0.0
 11
40.0
 21
28.0
 12
0.0
 22
0.0
 32
0.0
 14
0.0
 24
0.0
 34
0.0
 15
0.0
 25
0.0
 35
0.0
146
0.0
 13
0.0
 23
0.0
 33
0.0
 16
1.0
 26
0.0
 36
0.0
 17
0.0
 27
1.0
 37
0.0
 76
0
330
201
345
0
346
0
  0
ENDSEC
  0
EOF
