999
DXF file: 0850nu-xx.dxf
999
Pro/ENGINEER 2015070 by Parametric Technology Corporation
  0
SECTION
  2
HEADER
  9
$ACADVER
  1
AC1021
  9
$DWGCODEPAGE
  3
ANSI_936
  9
$EXTMAX
 10
22.0
 20
17.0
 30
0.0
  9
$EXTMIN
 10
0.0
 20
0.0
 30
0.0
  9
$LIMMIN
 10
0.0
 20
0.0
  9
$LIMMAX
 10
22.0
 20
17.0
  9
$VIEWCTR
 10
11.0
 20
8.5
  9
$VIEWSIZE
 40
17.0
  9
$CLAYER
  8
0
  9
$LTSCALE
 40
1.21
  9
$CELTYPE
  6
BYLAYER
  9
$DIMSCALE
 40
1.0
  9
$DIMASZ
 40
0.125
  9
$DIMEXO
 40
0.0625
  9
$DIMDLI
 40
0.836
  9
$DIMEXE
 40
0.125
  9
$DIMCEN
 40
0.198
  9
$DIMLFAC
 40
1.0
  9
$DIMBLK
  1
_FILLED
  9
$DIMTXT
 40
0.12
  9
$DIMTOL
 70
1
  9
$DIMLIM
 70
0
  9
$DIMTFAC
 40
1.0
  9
$DIMTP
 40
0.001
  9
$DIMTM
 40
0.001
  9
$DIMGAP
 40
0.09
  9
$DIMDSEP
 70
46
  9
$PDMODE
 70
3
  9
$PDSIZE
 40
0.125
  9
$HANDSEED
  5
305
  9
$TILEMODE
 70
1
  9
$MEASUREMENT
 70
0
  9
$INSUNITS
 70
1
  0
ENDSEC
  0
SECTION
  2
CLASSES
  0
CLASS
  1
ACDBDICTIONARYWDFLT
  2
AcDbDictionaryWithDefault
  3
AutoCAD 2000
 90
0
 91
1
280
0
281
0
  0
CLASS
  1
ACDBPLACEHOLDER
  2
AcDbPlaceHolder
  3
AutoCAD 2000
 90
0
 91
1
280
0
281
0
  0
CLASS
  1
LAYOUT
  2
AcDbLayout
  3
AutoCAD 2000
 90
0
 91
0
280
0
281
0
  0
ENDSEC
  0
SECTION
  2
TABLES
  0
TABLE
  2
VPORT
  5
8
100
AcDbSymbolTable
 70
2
  0
VPORT
  5
1F4
100
AcDbSymbolTableRecord
100
AcDbViewportTableRecord
  2
*ACTIVE
 70
0
 10
0.0
 20
0.0
 11
1.0
 21
1.0
 12
11.0
 22
8.5
 13
0.0
 23
0.0
 14
1.0
 24
1.0
 15
0.0
 25
0.0
 16
0.0
 26
0.0
 36
1.0
 17
0.0
 27
0.0
 37
0.0
 40
17.0
 41
1.2941176471
 42
50.0
 43
0.0
 44
0.0
 50
0.0
 51
0.0
 71
0
 72
100
 73
1
 74
1
 75
0
 76
0
 77
0
 78
0
  0
ENDTAB
  0
TABLE
  2
LTYPE
  5
5
100
AcDbSymbolTable
 70
6
  0
LTYPE
  5
14
100
AcDbSymbolTableRecord
100
AcDbLinetypeTableRecord
  2
BYBLOCK
 70
0
  3

 72
65
 73
0
 40
0.0
  0
LTYPE
  5
15
100
AcDbSymbolTableRecord
100
AcDbLinetypeTableRecord
  2
BYLAYER
 70
0
  3

 72
65
 73
0
 40
0.0
  0
LTYPE
  5
16
100
AcDbSymbolTableRecord
100
AcDbLinetypeTableRecord
  2
CONTINUOUS
 70
64
  3
Solid line
 72
65
 73
0
 40
0.0
  0
LTYPE
  5
1F5
100
AcDbSymbolTableRecord
100
AcDbLinetypeTableRecord
  2
CENTER
 70
64
  3
____ _ ____ _ ____ _ ____ _ ____ _ ____ _ ____
 72
65
 73
4
 40
0.6
 49
0.375
 74
0
 49
-0.075
 74
0
 49
0.075
 74
0
 49
-0.075
 74
0
  0
LTYPE
  5
1F6
100
AcDbSymbolTableRecord
100
AcDbLinetypeTableRecord
  2
HIDDEN
 70
64
  3
- - - - - - - - - - - - - - - - - - - -
 72
65
 73
2
 40
0.2
 49
0.1
 74
0
 49
-0.1
 74
0
  0
LTYPE
  5
1F7
100
AcDbSymbolTableRecord
100
AcDbLinetypeTableRecord
  2
PHANTOM
 70
64
  3
_____ _ _ _____ _ _ _____ _ _ _____
 72
65
 73
6
 40
0.8
 49
0.45
 74
0
 49
-0.05
 74
0
 49
0.1
 74
0
 49
-0.05
 74
0
 49
0.1
 74
0
 49
-0.05
 74
0
  0
LTYPE
  5
1F8
100
AcDbSymbolTableRecord
100
AcDbLinetypeTableRecord
  2
DOT
 70
64
  3
. . . . . . . . . . . . . . . . . . . .
 72
65
 73
2
 40
0.2
 49
0.1
 74
0
 49
-0.1
 74
0
  0
LTYPE
  5
1F9
100
AcDbSymbolTableRecord
100
AcDbLinetypeTableRecord
  2
DASHED
 70
64
  3
- - - - - - - - - - - - - - - - - - - -
 72
65
 73
2
 40
0.2
 49
0.1
 74
0
 49
-0.1
 74
0
  0
ENDTAB
  0
TABLE
  2
LAYER
  5
2
100
AcDbSymbolTable
 70
36
  0
LAYER
  5
10
100
AcDbSymbolTableRecord
100
AcDbLayerTableRecord
  2
0
 70
0
 62
7
  6
CONTINUOUS
370
-3
390
F
  0
LAYER
  5
1FA
100
AcDbSymbolTableRecord
100
AcDbLayerTableRecord
  2
DEFAULT_1
 70
0
 62
7
  6
CENTER
370
-3
390
F
  0
LAYER
  5
1FB
100
AcDbSymbolTableRecord
100
AcDbLayerTableRecord
  2
DEFAULT_2
 70
0
 62
8
  6
HIDDEN
370
-3
390
F
  0
LAYER
  5
1FC
100
AcDbSymbolTableRecord
100
AcDbLayerTableRecord
  2
DEFAULT_3
 70
0
 62
7
  6
PHANTOM
370
-3
390
F
  0
LAYER
  5
1FD
100
AcDbSymbolTableRecord
100
AcDbLayerTableRecord
  2
0850KN-XX
 70
0
 62
7
  6
CONTINUOUS
370
-3
390
F
  0
LAYER
  5
1FE
100
AcDbSymbolTableRecord
100
AcDbLayerTableRecord
  2
11182
 70
0
 62
7
  6
CONTINUOUS
370
-3
390
F
  0
LAYER
  5
1FF
100
AcDbSymbolTableRecord
100
AcDbLayerTableRecord
  2
12601
 70
0
 62
7
  6
CONTINUOUS
370
-3
390
F
  0
LAYER
  5
200
100
AcDbSymbolTableRecord
100
AcDbLayerTableRecord
  2
14129
 70
0
 62
7
  6
CONTINUOUS
370
-3
390
F
  0
LAYER
  5
201
100
AcDbSymbolTableRecord
100
AcDbLayerTableRecord
  2
14130
 70
0
 62
7
  6
CONTINUOUS
370
-3
390
F
  0
LAYER
  5
202
100
AcDbSymbolTableRecord
100
AcDbLayerTableRecord
  2
14132
 70
0
 62
7
  6
CONTINUOUS
370
-3
390
F
  0
LAYER
  5
203
100
AcDbSymbolTableRecord
100
AcDbLayerTableRecord
  2
18427
 70
0
 62
7
  6
CONTINUOUS
370
-3
390
F
  0
LAYER
  5
204
100
AcDbSymbolTableRecord
100
AcDbLayerTableRecord
  2
INTF_11182
 70
0
 62
7
  6
CONTINUOUS
370
-3
390
F
  0
LAYER
  5
205
100
AcDbSymbolTableRecord
100
AcDbLayerTableRecord
  2
INTF_12601
 70
0
 62
7
  6
CONTINUOUS
370
-3
390
F
  0
LAYER
  5
206
100
AcDbSymbolTableRecord
100
AcDbLayerTableRecord
  2
INTF_14129
 70
0
 62
7
  6
CONTINUOUS
370
-3
390
F
  0
LAYER
  5
207
100
AcDbSymbolTableRecord
100
AcDbLayerTableRecord
  2
INTF_14130
 70
0
 62
7
  6
CONTINUOUS
370
-3
390
F
  0
LAYER
  5
208
100
AcDbSymbolTableRecord
100
AcDbLayerTableRecord
  2
INTF_14132
 70
0
 62
7
  6
CONTINUOUS
370
-3
390
F
  0
LAYER
  5
209
100
AcDbSymbolTableRecord
100
AcDbLayerTableRecord
  2
INTF_18427
 70
0
 62
7
  6
CONTINUOUS
370
-3
390
F
  0
LAYER
  5
20A
100
AcDbSymbolTableRecord
100
AcDbLayerTableRecord
  2
MSBR-2
 70
0
 62
7
  6
CONTINUOUS
370
-3
390
F
  0
LAYER
  5
20B
100
AcDbSymbolTableRecord
100
AcDbLayerTableRecord
  2
MSBR-2_1
 70
0
 62
7
  6
CONTINUOUS
370
-3
390
F
  0
LAYER
  5
20C
100
AcDbSymbolTableRecord
100
AcDbLayerTableRecord
  2
MSBR-2_2
 70
0
 62
7
  6
CONTINUOUS
370
-3
390
F
  0
LAYER
  5
20D
100
AcDbSymbolTableRecord
100
AcDbLayerTableRecord
  2
MSBR-2_3
 70
0
 62
7
  6
CONTINUOUS
370
-3
390
F
  0
LAYER
  5
20E
100
AcDbSymbolTableRecord
100
AcDbLayerTableRecord
  2
MSBR-3
 70
0
 62
7
  6
CONTINUOUS
370
-3
390
F
  0
LAYER
  5
20F
100
AcDbSymbolTableRecord
100
AcDbLayerTableRecord
  2
MSBR-3_1
 70
0
 62
7
  6
CONTINUOUS
370
-3
390
F
  0
LAYER
  5
210
100
AcDbSymbolTableRecord
100
AcDbLayerTableRecord
  2
MSBR-3_2
 70
0
 62
7
  6
CONTINUOUS
370
-3
390
F
  0
LAYER
  5
211
100
AcDbSymbolTableRecord
100
AcDbLayerTableRecord
  2
MSBR-3_3
 70
0
 62
7
  6
CONTINUOUS
370
-3
390
F
  0
LAYER
  5
212
100
AcDbSymbolTableRecord
100
AcDbLayerTableRecord
  2
MSBR-3_4
 70
0
 62
7
  6
CONTINUOUS
370
-3
390
F
  0
LAYER
  5
213
100
AcDbSymbolTableRecord
100
AcDbLayerTableRecord
  2
MSBR-4
 70
0
 62
7
  6
CONTINUOUS
370
-3
390
F
  0
LAYER
  5
214
100
AcDbSymbolTableRecord
100
AcDbLayerTableRecord
  2
MSBR-4_1
 70
0
 62
7
  6
CONTINUOUS
370
-3
390
F
  0
LAYER
  5
215
100
AcDbSymbolTableRecord
100
AcDbLayerTableRecord
  2
MSBR-4_1_1
 70
0
 62
7
  6
CONTINUOUS
370
-3
390
F
  0
LAYER
  5
216
100
AcDbSymbolTableRecord
100
AcDbLayerTableRecord
  2
MSBR-4_1_1_1
 70
0
 62
7
  6
CONTINUOUS
370
-3
390
F
  0
LAYER
  5
217
100
AcDbSymbolTableRecord
100
AcDbLayerTableRecord
  2
MSBR-4_2
 70
0
 62
7
  6
CONTINUOUS
370
-3
390
F
  0
LAYER
  5
218
100
AcDbSymbolTableRecord
100
AcDbLayerTableRecord
  2
MSBR-5
 70
0
 62
7
  6
CONTINUOUS
370
-3
390
F
  0
LAYER
  5
219
100
AcDbSymbolTableRecord
100
AcDbLayerTableRecord
  2
MSBR-5_1
 70
0
 62
7
  6
CONTINUOUS
370
-3
390
F
  0
LAYER
  5
21A
100
AcDbSymbolTableRecord
100
AcDbLayerTableRecord
  2
MSBR-5_1_1
 70
0
 62
7
  6
CONTINUOUS
370
-3
390
F
  0
LAYER
  5
21B
100
AcDbSymbolTableRecord
100
AcDbLayerTableRecord
  2
MSBR-5_1_1_1
 70
0
 62
7
  6
CONTINUOUS
370
-3
390
F
  0
LAYER
  5
21C
100
AcDbSymbolTableRecord
100
AcDbLayerTableRecord
  2
MSBR-5_1_1_1_1
 70
0
 62
7
  6
CONTINUOUS
370
-3
390
F
  0
LAYER
  5
21D
100
AcDbSymbolTableRecord
100
AcDbLayerTableRecord
  2
MSBR-6
 70
0
 62
7
  6
CONTINUOUS
370
-3
390
F
  0
LAYER
  5
21E
100
AcDbSymbolTableRecord
100
AcDbLayerTableRecord
  2
___SHELL
 70
0
 62
7
  6
CONTINUOUS
370
-3
390
F
  0
LAYER
  5
21F
100
AcDbSymbolTableRecord
100
AcDbLayerTableRecord
  2
___SHELL_1
 70
0
 62
7
  6
CONTINUOUS
370
-3
390
F
  0
LAYER
  5
220
100
AcDbSymbolTableRecord
100
AcDbLayerTableRecord
  2
___SHELL_1_1
 70
0
 62
7
  6
CONTINUOUS
370
-3
390
F
  0
LAYER
  5
221
100
AcDbSymbolTableRecord
100
AcDbLayerTableRecord
  2
___SHELL_1_1_1
 70
0
 62
7
  6
CONTINUOUS
370
-3
390
F
  0
LAYER
  5
222
100
AcDbSymbolTableRecord
100
AcDbLayerTableRecord
  2
___SHELL_1_1_1_1
 70
0
 62
7
  6
CONTINUOUS
370
-3
390
F
  0
LAYER
  5
223
100
AcDbSymbolTableRecord
100
AcDbLayerTableRecord
  2
___SHELL_2
 70
0
 62
7
  6
CONTINUOUS
370
-3
390
F
  0
LAYER
  5
224
100
AcDbSymbolTableRecord
100
AcDbLayerTableRecord
  2
___SHELL_2_1
 70
0
 62
7
  6
CONTINUOUS
370
-3
390
F
  0
LAYER
  5
225
100
AcDbSymbolTableRecord
100
AcDbLayerTableRecord
  2
___SHELL_2_1_1
 70
0
 62
7
  6
CONTINUOUS
370
-3
390
F
  0
LAYER
  5
226
100
AcDbSymbolTableRecord
100
AcDbLayerTableRecord
  2
___SHELL_2_1_1_1
 70
0
 62
7
  6
CONTINUOUS
370
-3
390
F
  0
LAYER
  5
227
100
AcDbSymbolTableRecord
100
AcDbLayerTableRecord
  2
___SHELL_3
 70
0
 62
7
  6
CONTINUOUS
370
-3
390
F
  0
LAYER
  5
228
100
AcDbSymbolTableRecord
100
AcDbLayerTableRecord
  2
___SHELL_3_1
 70
0
 62
7
  6
CONTINUOUS
370
-3
390
F
  0
LAYER
  5
229
100
AcDbSymbolTableRecord
100
AcDbLayerTableRecord
  2
___SHELL_3_1_1
 70
0
 62
7
  6
CONTINUOUS
370
-3
390
F
  0
LAYER
  5
22A
100
AcDbSymbolTableRecord
100
AcDbLayerTableRecord
  2
___SHELL_3_1_1_1
 70
0
 62
7
  6
CONTINUOUS
370
-3
390
F
  0
ENDTAB
  0
TABLE
  2
STYLE
  5
3
100
AcDbSymbolTable
 70
1
  0
STYLE
  5
11
100
AcDbSymbolTableRecord
100
AcDbTextStyleTableRecord
  2
STANDARD
 70
0
 40
0.0
 41
1.0
 50
0.0
 71
0
 42
0.2
  3
txt
  4

  0
STYLE
  5
22B
100
AcDbSymbolTableRecord
100
AcDbTextStyleTableRecord
  2
TEXTSTYLE_1
 70
0
 40
0.0
 41
0.8
 50
0.0
 71
0
 42
0.2
  3
gdt
  4

  0
ENDTAB
  0
TABLE
  2
VIEW
  5
6
100
AcDbSymbolTable
 70
0
  0
ENDTAB
  0
TABLE
  2
UCS
  5
7
100
AcDbSymbolTable
 70
0
  0
ENDTAB
  0
TABLE
  2
APPID
  5
9
100
AcDbSymbolTable
 70
1
  0
APPID
  5
22C
100
AcDbSymbolTableRecord
100
AcDbRegAppTableRecord
  2
ACAD
 70
0
  0
ENDTAB
  0
TABLE
  2
BLOCK_RECORD
  5
1
100
AcDbSymbolTable
 70
0
  0
BLOCK_RECORD
  5
22D
100
AcDbSymbolTableRecord
100
AcDbBlockTableRecord
  2
*Model_Space
  0
BLOCK_RECORD
  5
22E
100
AcDbSymbolTableRecord
100
AcDbBlockTableRecord
  2
*Paper_Space
  0
ENDTAB
  0
TABLE
  2
DIMSTYLE
  5
A
100
AcDbSymbolTable
 70
1
100
AcDbDimStyleTable
 71
0
  0
DIMSTYLE
105
22F
100
AcDbSymbolTableRecord
100
AcDbDimStyleTableRecord
  2
STANDARD
 70
0
  3

  4

 40
1.0
 41
0.125
 42
0.0625
 43
0.38
 44
0.125
 45
0.0
 46
0.0
 47
0.001
 48
0.001
140
0.12
141
0.09
142
0.0
143
25.4
144
1.0
145
0.0
146
1.0
147
0.09
 71
1.0
 72
0.0
 73
1
 74
1
 75
0
 76
0
 77
0
 78
4
170
0
171
2
172
0
173
0
174
0
175
0
176
0
177
0
178
0
270
2
271
3
272
3
273
2
274
2
275
0
280
0
281
0
282
0
283
1
284
4
285
0
286
0
287
3
288
0
340
11
278
46
  0
ENDTAB
  0
ENDSEC
  0
SECTION
  2
BLOCKS
  0
BLOCK
  5
20
100
AcDbEntity
  8
0
100
AcDbBlockBegin
  2
*Model_Space
 70
0
 10
0.0
 20
0.0
 30
0.0
  3
*Model_Space
  1

  0
ENDBLK
  5
21
100
AcDbEntity
  8
0
100
AcDbBlockEnd
  0
BLOCK
  5
1C
100
AcDbEntity
  8
0
100
AcDbBlockBegin
  2
*Paper_Space
 70
0
 10
0.0
 20
0.0
 30
0.0
  3
*Paper_Space
  1

  0
ENDBLK
  5
1D
100
AcDbEntity
  8
0
100
AcDbBlockEnd
  0
ENDSEC
  0
SECTION
  2
ENTITIES
  0
LINE
  5
230
100
AcDbEntity
  8
0
100
AcDbLine
 62
7
  6
CONTINUOUS
 10
0.0
 20
0.0
 11
0.0
 21
17.0
  0
LINE
  5
231
100
AcDbEntity
  8
0
100
AcDbLine
 62
7
  6
CONTINUOUS
 10
0.0
 20
0.0
 11
22.0
 21
0.0
  0
LINE
  5
232
100
AcDbEntity
  8
0
100
AcDbLine
 62
7
  6
CONTINUOUS
 10
0.0
 20
17.0
 11
22.0
 21
17.0
  0
LINE
  5
233
100
AcDbEntity
  8
0
100
AcDbLine
 62
7
  6
CONTINUOUS
 10
22.0
 20
0.0
 11
22.0
 21
17.0
  0
LINE
  5
234
100
AcDbEntity
  8
0
100
AcDbLine
 62
7
  6
CONTINUOUS
 10
5.6203983875
 20
9.6741969287
 11
6.7813983863
 21
9.6741969287
  0
LINE
  5
235
100
AcDbEntity
  8
0
100
AcDbLine
 62
9
  6
CONTINUOUS
 10
5.5803983869
 20
9.7141969287
 11
6.8213983869
 21
9.7141969287
  0
LINE
  5
236
100
AcDbEntity
  8
0
100
AcDbLine
 62
7
  6
CONTINUOUS
 10
4.9198983869
 20
13.7221969287
 11
4.9198983869
 21
13.6571969287
  0
LINE
  5
237
100
AcDbEntity
  8
0
100
AcDbLine
 62
7
  6
CONTINUOUS
 10
4.9758983869
 20
13.6571969287
 11
4.9758983869
 21
13.5998468758
  0
LINE
  5
238
100
AcDbEntity
  8
0
100
AcDbLine
 62
7
  6
CONTINUOUS
 10
5.1458983869
 20
13.3871969287
 11
5.1458983869
 21
13.3221969287
  0
LINE
  5
239
100
AcDbEntity
  8
0
100
AcDbLine
 62
7
  6
CONTINUOUS
 10
5.5233983864
 20
10.7241969287
 11
6.8783983874
 21
10.7241969287
  0
LINE
  5
23A
100
AcDbEntity
  8
0
100
AcDbLine
 62
9
  6
CONTINUOUS
 10
5.5133983869
 20
10.7341969287
 11
6.8883983869
 21
10.7341969287
  0
LINE
  5
23B
100
AcDbEntity
  8
0
100
AcDbLine
 62
7
  6
CONTINUOUS
 10
5.5133983869
 20
10.7341969287
 11
5.5133983869
 21
11.3141969287
  0
LINE
  5
23C
100
AcDbEntity
  8
0
100
AcDbLine
 62
7
  6
CONTINUOUS
 10
5.5803983869
 20
10.7241969287
 11
5.5803983869
 21
9.7141969287
  0
LINE
  5
23D
100
AcDbEntity
  8
0
100
AcDbLine
 62
7
  6
CONTINUOUS
 10
5.7088983869
 20
11.8981969287
 11
5.7088983869
 21
11.6563433074
  0
LINE
  5
23E
100
AcDbEntity
  8
0
100
AcDbLine
 62
7
  6
CONTINUOUS
 10
5.7508983869
 20
11.8981969287
 11
5.7508983869
 21
12.2731969287
  0
LINE
  5
23F
100
AcDbEntity
  8
0
100
AcDbLine
 62
7
  6
CONTINUOUS
 10
5.7858983869
 20
12.2731969287
 11
5.7858983869
 21
13.2171969287
  0
LINE
  5
240
100
AcDbEntity
  8
0
100
AcDbLine
 62
9
  6
CONTINUOUS
 10
6.8883983869
 20
11.3141969287
 11
5.5133983869
 21
11.3141969287
  0
LINE
  5
241
100
AcDbEntity
  8
0
100
AcDbLine
 62
7
  6
CONTINUOUS
 10
6.8783983875
 20
11.3241969287
 11
5.5233983863
 21
11.3241969287
  0
LINE
  5
242
100
AcDbEntity
  8
0
100
AcDbLine
 62
9
  6
CONTINUOUS
 10
5.7733377218
 20
11.4905462966
 11
6.628459052
 21
11.4905462966
  0
LINE
  5
243
100
AcDbEntity
  8
0
100
AcDbLine
 62
9
  6
CONTINUOUS
 10
5.7165066875
 20
11.6466335302
 11
6.6852900863
 21
11.6466335302
  0
LINE
  5
244
100
AcDbEntity
  8
0
100
AcDbLine
 62
9
  6
CONTINUOUS
 10
5.7088983869
 20
11.6563433074
 11
6.6928983869
 21
11.6563433074
  0
LINE
  5
245
100
AcDbEntity
  8
0
100
AcDbLine
 62
7
  6
CONTINUOUS
 10
6.6928983869
 20
11.8981969287
 11
6.6508983869
 21
11.8981969287
  0
LINE
  5
246
100
AcDbEntity
  8
0
100
AcDbLine
 62
7
  6
CONTINUOUS
 10
5.7508983869
 20
11.8981969287
 11
5.7088983869
 21
11.8981969287
  0
LINE
  5
247
100
AcDbEntity
  8
0
100
AcDbLine
 62
7
  6
CONTINUOUS
 10
6.6158983869
 20
13.2171969287
 11
6.6158983869
 21
12.2731969287
  0
LINE
  5
248
100
AcDbEntity
  8
0
100
AcDbLine
 62
7
  6
CONTINUOUS
 10
6.6508983869
 20
11.8981969287
 11
6.6508983869
 21
12.2731969287
  0
LINE
  5
249
100
AcDbEntity
  8
0
100
AcDbLine
 62
7
  6
CONTINUOUS
 10
6.6928983869
 20
11.6563433074
 11
6.6928983869
 21
11.8981969287
  0
LINE
  5
24A
100
AcDbEntity
  8
0
100
AcDbLine
 62
7
  6
CONTINUOUS
 10
6.8213983869
 20
9.7141969287
 11
6.8213983869
 21
10.7241969287
  0
LINE
  5
24B
100
AcDbEntity
  8
0
100
AcDbLine
 62
7
  6
CONTINUOUS
 10
6.6508983869
 20
12.2731969287
 11
5.7508983869
 21
12.2731969287
  0
LINE
  5
24C
100
AcDbEntity
  8
0
100
AcDbLine
 62
7
  6
CONTINUOUS
 10
6.8883983869
 20
11.3141969287
 11
6.8883983869
 21
10.7341969287
  0
LINE
  5
24D
100
AcDbEntity
  8
0
100
AcDbLine
 62
7
  6
CONTINUOUS
 10
7.2558983869
 20
13.3871969287
 11
7.2558983869
 21
13.3221969287
  0
LINE
  5
24E
100
AcDbEntity
  8
0
100
AcDbLine
 62
7
  6
CONTINUOUS
 10
7.4258983869
 20
13.6571969287
 11
7.4258983869
 21
13.5998468758
  0
LINE
  5
24F
100
AcDbEntity
  8
0
100
AcDbLine
 62
7
  6
CONTINUOUS
 10
7.4818983869
 20
13.7221969287
 11
7.4818983869
 21
13.6571969287
  0
LINE
  5
250
100
AcDbEntity
  8
0
100
AcDbLine
 62
7
  6
CONTINUOUS
 10
7.1988983869
 20
13.3221969287
 11
6.6583983869
 21
13.2171969287
  0
LINE
  5
251
100
AcDbEntity
  8
0
100
AcDbLine
 62
7
  6
CONTINUOUS
 10
5.7433983869
 20
13.2171969287
 11
5.2028983869
 21
13.3221969287
  0
LINE
  5
252
100
AcDbEntity
  8
0
100
AcDbLine
 62
7
  6
CONTINUOUS
 10
5.7433983869
 20
13.2171969287
 11
6.6583983869
 21
13.2171969287
  0
LINE
  5
253
100
AcDbEntity
  8
0
100
AcDbLine
 62
7
  6
CONTINUOUS
 10
5.1458983869
 20
13.3221969287
 11
7.2558983869
 21
13.3221969287
  0
LINE
  5
254
100
AcDbEntity
  8
0
100
AcDbLine
 62
7
  6
CONTINUOUS
 10
7.2558983869
 20
13.3871969287
 11
5.1458983869
 21
13.3871969287
  0
LINE
  5
255
100
AcDbEntity
  8
0
100
AcDbLine
 62
9
  6
CONTINUOUS
 10
7.4258983869
 20
13.5998468758
 11
4.9758983869
 21
13.5998468758
  0
LINE
  5
256
100
AcDbEntity
  8
0
100
AcDbLine
 62
7
  6
CONTINUOUS
 10
4.9198983869
 20
13.6571969287
 11
7.4818983869
 21
13.6571969287
  0
LINE
  5
257
100
AcDbEntity
  8
0
100
AcDbLine
 62
7
  6
CONTINUOUS
 10
7.4818983869
 20
13.7221969287
 11
4.9198983869
 21
13.7221969287
  0
LINE
  5
258
100
AcDbEntity
  8
0
100
AcDbLine
 62
7
  6
CONTINUOUS
 10
13.1421909401
 20
5.4461168201
 11
13.1421909401
 21
4.2851174627
  0
LINE
  5
259
100
AcDbEntity
  8
0
100
AcDbLine
 62
9
  6
CONTINUOUS
 10
13.1821909401
 20
5.4861171414
 11
13.1821909401
 21
4.2451171414
  0
LINE
  5
25A
100
AcDbEntity
  8
0
100
AcDbLine
 62
7
  6
CONTINUOUS
 10
17.1901909401
 20
3.5846171414
 11
17.1251909401
 21
3.5846171414
  0
LINE
  5
25B
100
AcDbEntity
  8
0
100
AcDbLine
 62
7
  6
CONTINUOUS
 10
17.1251909401
 20
3.6406171414
 11
17.0678408872
 21
3.6406171414
  0
LINE
  5
25C
100
AcDbEntity
  8
0
100
AcDbLine
 62
7
  6
CONTINUOUS
 10
14.1921909401
 20
5.5431113209
 11
14.1921909401
 21
4.188122962
  0
LINE
  5
25D
100
AcDbEntity
  8
0
100
AcDbLine
 62
9
  6
CONTINUOUS
 10
14.2021909401
 20
5.5531171414
 11
14.2021909401
 21
4.1781171415
  0
LINE
  5
25E
100
AcDbEntity
  8
0
100
AcDbLine
 62
7
  6
CONTINUOUS
 10
16.8551909401
 20
3.8106171414
 11
16.7901909401
 21
3.8106171414
  0
LINE
  5
25F
100
AcDbEntity
  8
0
100
AcDbLine
 62
7
  6
CONTINUOUS
 10
14.2021909401
 20
4.1781171414
 11
14.7821909401
 21
4.1781171414
  0
LINE
  5
260
100
AcDbEntity
  8
0
100
AcDbLine
 62
7
  6
CONTINUOUS
 10
13.1821909401
 20
4.2451171414
 11
14.1921909401
 21
4.2451171414
  0
LINE
  5
261
100
AcDbEntity
  8
0
100
AcDbLine
 62
7
  6
CONTINUOUS
 10
15.1243373189
 20
4.3736171414
 11
15.7411909401
 21
4.3736171414
  0
LINE
  5
262
100
AcDbEntity
  8
0
100
AcDbLine
 62
9
  6
CONTINUOUS
 10
14.7821909401
 20
4.1781171414
 11
14.7821909401
 21
5.5531171414
  0
LINE
  5
263
100
AcDbEntity
  8
0
100
AcDbLine
 62
7
  6
CONTINUOUS
 10
14.7921909401
 20
5.5431171414
 11
14.7921909401
 21
4.1881171414
  0
LINE
  5
264
100
AcDbEntity
  8
0
100
AcDbLine
 62
7
  6
CONTINUOUS
 10
15.7411909401
 20
4.4506171414
 11
16.6851909401
 21
4.4506171414
  0
LINE
  5
265
100
AcDbEntity
  8
0
100
AcDbLine
 62
9
  6
CONTINUOUS
 10
14.958540308
 20
5.2931778065
 11
14.958540308
 21
4.4380564763
  0
LINE
  5
266
100
AcDbEntity
  8
0
100
AcDbLine
 62
7
  6
CONTINUOUS
 10
15.7411909401
 20
4.666710128
 11
15.3661909401
 21
4.666710128
  0
LINE
  5
267
100
AcDbEntity
  8
0
100
AcDbLine
 62
9
  6
CONTINUOUS
 10
15.1146275416
 20
5.3500088408
 11
15.1146275416
 21
4.381225442
  0
LINE
  5
268
100
AcDbEntity
  8
0
100
AcDbLine
 62
9
  6
CONTINUOUS
 10
15.1243373188
 20
5.3576171414
 11
15.1243373189
 21
4.3736171414
  0
LINE
  5
269
100
AcDbEntity
  8
0
100
AcDbLine
 62
9
  6
CONTINUOUS
 10
13.1821909401
 20
4.8656171414
 11
14.1921909401
 21
4.8656171414
  0
LINE
  5
26A
100
AcDbEntity
  8
0
100
AcDbLine
 62
7
  6
CONTINUOUS
 10
15.3661909401
 20
4.666710128
 11
15.3661909401
 21
5.0645241549
  0
LINE
  5
26B
100
AcDbEntity
  8
0
100
AcDbLine
 62
7
  6
CONTINUOUS
 10
15.3661909401
 20
5.0645241549
 11
15.7411909401
 21
5.0645241549
  0
LINE
  5
26C
100
AcDbEntity
  8
0
100
AcDbLine
 62
7
  6
CONTINUOUS
 10
15.7411909401
 20
5.2806171414
 11
16.6851909401
 21
5.2806171414
  0
LINE
  5
26D
100
AcDbEntity
  8
0
100
AcDbLine
 62
7
  6
CONTINUOUS
 10
15.1243373188
 20
5.3576171414
 11
15.7411909401
 21
5.3576171414
  0
LINE
  5
26E
100
AcDbEntity
  8
0
100
AcDbLine
 62
7
  6
CONTINUOUS
 10
15.7411909401
 20
4.3736174128
 11
15.7411909401
 21
5.35761687
  0
LINE
  5
26F
100
AcDbEntity
  8
0
100
AcDbLine
 62
7
  6
CONTINUOUS
 10
13.1821909401
 20
5.4861171414
 11
14.1921909401
 21
5.4861171414
  0
LINE
  5
270
100
AcDbEntity
  8
0
100
AcDbLine
 62
7
  6
CONTINUOUS
 10
14.2021909401
 20
5.5531171414
 11
14.7821909401
 21
5.5531171414
  0
LINE
  5
271
100
AcDbEntity
  8
0
100
AcDbLine
 62
7
  6
CONTINUOUS
 10
16.8551909401
 20
5.9206171414
 11
16.7901909401
 21
5.9206171414
  0
LINE
  5
272
100
AcDbEntity
  8
0
100
AcDbLine
 62
7
  6
CONTINUOUS
 10
17.1251909401
 20
6.0906171414
 11
17.0678408872
 21
6.0906171414
  0
LINE
  5
273
100
AcDbEntity
  8
0
100
AcDbLine
 62
7
  6
CONTINUOUS
 10
17.1901909401
 20
6.1466171414
 11
17.1251909401
 21
6.1466171414
  0
LINE
  5
274
100
AcDbEntity
  8
0
100
AcDbLine
 62
7
  6
CONTINUOUS
 10
16.6851909401
 20
5.3231171414
 11
16.7901909401
 21
5.8636171414
  0
LINE
  5
275
100
AcDbEntity
  8
0
100
AcDbLine
 62
7
  6
CONTINUOUS
 10
16.6851909401
 20
4.4081171414
 11
16.7901909401
 21
3.8676171414
  0
LINE
  5
276
100
AcDbEntity
  8
0
100
AcDbLine
 62
7
  6
CONTINUOUS
 10
16.6851909401
 20
5.3231095573
 11
16.6851909401
 21
4.4081247255
  0
LINE
  5
277
100
AcDbEntity
  8
0
100
AcDbLine
 62
7
  6
CONTINUOUS
 10
16.7901909401
 20
5.9206165583
 11
16.7901909401
 21
3.8106177245
  0
LINE
  5
278
100
AcDbEntity
  8
0
100
AcDbLine
 62
7
  6
CONTINUOUS
 10
16.8551909401
 20
3.8106171414
 11
16.8551909401
 21
5.9206171414
  0
LINE
  5
279
100
AcDbEntity
  8
0
100
AcDbLine
 62
9
  6
CONTINUOUS
 10
17.0678408872
 20
3.6406171414
 11
17.0678408872
 21
6.0906171414
  0
LINE
  5
27A
100
AcDbEntity
  8
0
100
AcDbLine
 62
7
  6
CONTINUOUS
 10
17.1251909401
 20
6.1466065311
 11
17.1251909401
 21
3.5846277518
  0
LINE
  5
27B
100
AcDbEntity
  8
0
100
AcDbLine
 62
7
  6
CONTINUOUS
 10
17.1901909401
 20
3.5846277518
 11
17.1901909401
 21
6.1466065311
  0
LINE
  5
27C
100
AcDbEntity
  8
0
100
AcDbLine
 62
7
  6
CONTINUOUS
 10
13.3363131007
 20
11.304750654
 11
13.3822750415
 21
11.2782145151
  0
LINE
  5
27D
100
AcDbEntity
  8
0
100
AcDbLine
 62
7
  6
CONTINUOUS
 10
13.4102750415
 20
11.3267119377
 11
13.4508276528
 21
11.3032988767
  0
LINE
  5
27E
100
AcDbEntity
  8
0
100
AcDbLine
 62
7
  6
CONTINUOUS
 10
13.6861938724
 20
11.3637092179
 11
13.7321558132
 21
11.3371730791
  0
LINE
  5
27F
100
AcDbEntity
  8
0
100
AcDbLine
 62
7
  6
CONTINUOUS
 10
13.7606558132
 20
11.3865365271
 11
13.6899451351
 21
11.4273613561
  0
LINE
  5
280
100
AcDbEntity
  8
0
100
AcDbLine
 62
7
  6
CONTINUOUS
 10
15.7458981629
 20
10.5988908392
 11
15.3357762298
 21
10.8356748477
  0
LINE
  5
281
100
AcDbEntity
  8
0
100
AcDbLine
 62
7
  6
CONTINUOUS
 10
16.5006470797
 20
10.240501285
 11
15.6379768458
 21
10.7385641768
  0
LINE
  5
282
100
AcDbEntity
  8
0
100
AcDbLine
 62
7
  6
CONTINUOUS
 10
15.1910249458
 20
11.1449909957
 11
14.7554108266
 21
11.3964929247
  0
LINE
  5
283
100
AcDbEntity
  8
0
100
AcDbLine
 62
7
  6
CONTINUOUS
 10
14.6832127751
 20
11.4764587962
 11
14.9483778181
 21
11.3233656873
  0
LINE
  5
284
100
AcDbEntity
  8
0
100
AcDbLine
 62
9
  6
CONTINUOUS
 10
15.509467088
 20
11.0226148756
 11
16.372137322
 21
10.5245519838
  0
LINE
  5
285
100
AcDbEntity
  8
0
100
AcDbLine
 62
7
  6
CONTINUOUS
 10
14.6832127751
 20
11.5270884306
 11
14.1016532879
 21
11.8628519571
  0
LINE
  5
286
100
AcDbEntity
  8
0
100
AcDbLine
 62
7
  6
CONTINUOUS
 10
14.6832127751
 20
11.4764587962
 11
14.6832127751
 21
11.801272589
  0
LINE
  5
287
100
AcDbEntity
  8
0
100
AcDbLine
 62
7
  6
CONTINUOUS
 10
14.9483778181
 20
11.6481794801
 11
14.6832127751
 21
11.801272589
  0
LINE
  5
288
100
AcDbEntity
  8
0
100
AcDbLine
 62
7
  6
CONTINUOUS
 10
15.0779638007
 20
12.2575802666
 11
14.5166532879
 21
12.5816530423
  0
LINE
  5
289
100
AcDbEntity
  8
0
100
AcDbLine
 62
7
  6
CONTINUOUS
 10
15.6835922052
 20
11.9968324857
 11
15.2474108266
 21
12.248661922
  0
LINE
  5
28A
100
AcDbEntity
  8
0
100
AcDbLine
 62
7
  6
CONTINUOUS
 10
17.1211470797
 20
11.3152388111
 11
16.2584768054
 21
11.8133017262
  0
LINE
  5
28B
100
AcDbEntity
  8
0
100
AcDbLine
 62
9
  6
CONTINUOUS
 10
16.4333954739
 20
11.7896773219
 11
16.4333981629
 21
11.7896757694
  0
LINE
  5
28C
100
AcDbEntity
  8
0
100
AcDbLine
 62
7
  6
CONTINUOUS
 10
16.4333981629
 20
11.7896757694
 11
16.0232762298
 21
12.0264597779
  0
LINE
  5
28D
100
AcDbEntity
  8
0
100
AcDbLine
 62
7
  6
CONTINUOUS
 10
14.7586558132
 20
13.115123233
 11
14.6879451351
 21
13.1559480621
  0
LINE
  5
28E
100
AcDbEntity
  8
0
100
AcDbLine
 62
7
  6
CONTINUOUS
 10
14.7411938724
 20
13.1910228199
 11
14.7871558132
 21
13.164486681
  0
LINE
  5
28F
100
AcDbEntity
  8
0
100
AcDbLine
 62
7
  6
CONTINUOUS
 10
14.6352750415
 20
13.448474177
 11
14.6758276528
 21
13.4250611159
  0
LINE
  5
290
100
AcDbEntity
  8
0
100
AcDbLine
 62
7
  6
CONTINUOUS
 10
14.6173131007
 20
13.5235077385
 11
14.6632750415
 21
13.4969715996
  0
CIRCLE
  5
291
100
AcDbEntity
  8
0
100
AcDbCircle
 62
7
  6
CONTINUOUS
 10
6.2008983869
 20
4.8656171414
 40
1.281
  0
CIRCLE
  5
292
100
AcDbEntity
  8
0
100
AcDbCircle
 62
7
  6
CONTINUOUS
 10
6.2008983869
 20
4.8656171414
 40
1.225
  0
CIRCLE
  5
293
100
AcDbEntity
  8
0
100
AcDbCircle
 62
7
  6
CONTINUOUS
 10
6.2008983869
 20
4.8656171414
 40
1.055
  0
CIRCLE
  5
294
100
AcDbEntity
  8
0
100
AcDbCircle
 62
7
  6
CONTINUOUS
 10
6.2008983869
 20
4.8656171414
 40
1.0125
  0
CIRCLE
  5
295
100
AcDbEntity
  8
0
100
AcDbCircle
 62
7
  6
CONTINUOUS
 10
6.2008983869
 20
4.8656171414
 40
0.998
  0
CIRCLE
  5
296
100
AcDbEntity
  8
0
100
AcDbCircle
 62
7
  6
CONTINUOUS
 10
6.2008983869
 20
4.8656171414
 40
0.6875
  0
CIRCLE
  5
297
100
AcDbEntity
  8
0
100
AcDbCircle
 62
9
  6
CONTINUOUS
 10
6.2008983869
 20
4.8656171414
 40
0.6775000005
  0
CIRCLE
  5
298
100
AcDbEntity
  8
0
100
AcDbCircle
 62
7
  6
CONTINUOUS
 10
6.2008983869
 20
4.8656171414
 40
0.6205
  0
CIRCLE
  5
299
100
AcDbEntity
  8
0
100
AcDbCircle
 62
9
  6
CONTINUOUS
 10
6.2008983869
 20
4.8656171414
 40
0.5804999994
  0
ARC
  5
29A
100
AcDbEntity
  8
0
100
AcDbCircle
 62
7
  6
CONTINUOUS
 10
5.6925896967
 20
11.549535757
 40
0.1
100
AcDbArc
 50
323.8504513455
 51
76.1624471559
  0
ARC
  5
29B
100
AcDbEntity
  8
0
100
AcDbCircle
 62
7
  6
CONTINUOUS
 10
5.6203983869
 20
9.7141969287
 40
0.04
100
AcDbArc
 50
180.0
 51
270.0000000005
  0
ARC
  5
29C
100
AcDbEntity
  8
0
100
AcDbCircle
 62
7
  6
CONTINUOUS
 10
5.5233983869
 20
11.3141969287
 40
0.01
100
AcDbArc
 50
89.9999999982
 51
180.0
  0
ARC
  5
29D
100
AcDbEntity
  8
0
100
AcDbCircle
 62
7
  6
CONTINUOUS
 10
5.5233983869
 20
10.7341969287
 40
0.01
100
AcDbArc
 50
180.0
 51
269.999996921
  0
ARC
  5
29E
100
AcDbEntity
  8
0
100
AcDbCircle
 62
7
  6
CONTINUOUS
 10
5.7188983869
 20
11.6563433074
 40
0.01
100
AcDbArc
 50
180.0
 51
256.1624451569
  0
ARC
  5
29F
100
AcDbEntity
  8
0
100
AcDbCircle
 62
7
  6
CONTINUOUS
 10
5.1938983869
 20
13.5998468758
 40
0.218
100
AcDbArc
 50
180.0
 51
257.2801897514
  0
ARC
  5
2A0
100
AcDbEntity
  8
0
100
AcDbCircle
 62
7
  6
CONTINUOUS
 10
6.2008983869
 20
11.1781969287
 40
0.5295
100
AcDbArc
 50
16.0467497165
 51
36.1495528032
  0
ARC
  5
2A1
100
AcDbEntity
  8
0
100
AcDbCircle
 62
7
  6
CONTINUOUS
 10
6.2008983869
 20
11.1781969287
 40
0.5295
100
AcDbArc
 50
143.8504471968
 51
163.9532502835
  0
ARC
  5
2A2
100
AcDbEntity
  8
0
100
AcDbCircle
 62
7
  6
CONTINUOUS
 10
6.7092070771
 20
11.549535757
 40
0.1
100
AcDbArc
 50
103.8375528441
 51
216.149529379
  0
ARC
  5
2A3
100
AcDbEntity
  8
0
100
AcDbCircle
 62
7
  6
CONTINUOUS
 10
6.7813983869
 20
9.7141969287
 40
0.04
100
AcDbArc
 50
270.0
 51
360.0
  0
ARC
  5
2A4
100
AcDbEntity
  8
0
100
AcDbCircle
 62
7
  6
CONTINUOUS
 10
6.8783983869
 20
10.7341969287
 40
0.01
100
AcDbArc
 50
270.000003079
 51
360.0
  0
ARC
  5
2A5
100
AcDbEntity
  8
0
100
AcDbCircle
 62
7
  6
CONTINUOUS
 10
6.8783983869
 20
11.3141969287
 40
0.01
100
AcDbArc
 50
0.0
 51
89.9999963499
  0
ARC
  5
2A6
100
AcDbEntity
  8
0
100
AcDbCircle
 62
7
  6
CONTINUOUS
 10
6.6828983869
 20
11.6563433074
 40
0.01
100
AcDbArc
 50
283.8375548342
 51
360.0
  0
ARC
  5
2A7
100
AcDbEntity
  8
0
100
AcDbCircle
 62
7
  6
CONTINUOUS
 10
7.2078983869
 20
13.5998468758
 40
0.218
100
AcDbArc
 50
282.7198102486
 51
360.0
  0
ARC
  5
2A8
100
AcDbEntity
  8
0
100
AcDbCircle
 62
7
  6
CONTINUOUS
 10
14.6461909401
 20
4.8656171414
 40
0.5295
100
AcDbArc
 50
53.8504471968
 51
73.9532502835
  0
ARC
  5
2A9
100
AcDbEntity
  8
0
100
AcDbCircle
 62
7
  6
CONTINUOUS
 10
14.6461909401
 20
4.8656171414
 40
0.5295
100
AcDbArc
 50
286.0467497165
 51
306.1495528032
  0
ARC
  5
2AA
100
AcDbEntity
  8
0
100
AcDbCircle
 62
7
  6
CONTINUOUS
 10
17.0678408872
 20
5.8726171414
 40
0.218
100
AcDbArc
 50
90.0
 51
167.2801897514
  0
ARC
  5
2AB
100
AcDbEntity
  8
0
100
AcDbCircle
 62
7
  6
CONTINUOUS
 10
17.0678408872
 20
3.8586171414
 40
0.218
100
AcDbArc
 50
192.7198102486
 51
270.0
  0
ARC
  5
2AC
100
AcDbEntity
  8
0
100
AcDbCircle
 62
7
  6
CONTINUOUS
 10
15.0175297685
 20
4.3573084512
 40
0.1
100
AcDbArc
 50
13.8375528441
 51
126.149529379
  0
ARC
  5
2AD
100
AcDbEntity
  8
0
100
AcDbCircle
 62
7
  6
CONTINUOUS
 10
15.0175297685
 20
5.3739258316
 40
0.1
100
AcDbArc
 50
233.8504706334
 51
346.1624471488
  0
ARC
  5
2AE
100
AcDbEntity
  8
0
100
AcDbCircle
 62
7
  6
CONTINUOUS
 10
13.1821909401
 20
5.4461171414
 40
0.04
100
AcDbArc
 50
90.0
 51
180.0000008107
  0
ARC
  5
2AF
100
AcDbEntity
  8
0
100
AcDbCircle
 62
7
  6
CONTINUOUS
 10
13.1821909401
 20
4.2851171414
 40
0.04
100
AcDbArc
 50
179.9999991898
 51
270.0
  0
ARC
  5
2B0
100
AcDbEntity
  8
0
100
AcDbCircle
 62
7
  6
CONTINUOUS
 10
14.2021909401
 20
4.1881171414
 40
0.01
100
AcDbArc
 50
180.000003079
 51
270.0
  0
ARC
  5
2B1
100
AcDbEntity
  8
0
100
AcDbCircle
 62
7
  6
CONTINUOUS
 10
14.2021909401
 20
5.5431171414
 40
0.01
100
AcDbArc
 50
90.0
 51
179.9999969196
  0
ARC
  5
2B2
100
AcDbEntity
  8
0
100
AcDbCircle
 62
7
  6
CONTINUOUS
 10
14.7821909401
 20
4.1881171414
 40
0.01
100
AcDbArc
 50
270.0
 51
359.9999963501
  0
ARC
  5
2B3
100
AcDbEntity
  8
0
100
AcDbCircle
 62
7
  6
CONTINUOUS
 10
14.7821909401
 20
5.5431171414
 40
0.01
100
AcDbArc
 50
0.0000036499
 51
90.0
  0
ARC
  5
2B4
100
AcDbEntity
  8
0
100
AcDbCircle
 62
7
  6
CONTINUOUS
 10
15.1243373188
 20
5.3476171414
 40
0.01
100
AcDbArc
 50
90.0
 51
166.1624451569
  0
ARC
  5
2B5
100
AcDbEntity
  8
0
100
AcDbCircle
 62
7
  6
CONTINUOUS
 10
15.1243373189
 20
4.3836171414
 40
0.01
100
AcDbArc
 50
193.8375548342
 51
270.0
  0
ARC
  5
2B6
100
AcDbEntity
  8
0
100
AcDbCircle
 62
7
  6
CONTINUOUS
 10
13.5969223468
 20
11.6498620436
 40
0.4291788447
100
AcDbArc
 50
232.9393826018
 51
239.9959931631
  0
ARC
  5
2B7
100
AcDbEntity
  8
0
100
AcDbCircle
 62
7
  6
CONTINUOUS
 10
14.4490472752
 20
13.1258632464
 40
0.4285021394
100
AcDbArc
 50
60.0085214896
 51
67.0031366408
  0
ARC
  5
2B8
100
AcDbEntity
  8
0
100
AcDbCircle
 62
9
  6
CONTINUOUS
 10
14.471098719
 20
13.0704292767
 40
0.4094840324
100
AcDbArc
 50
60.00216348
 51
66.4636650763
  0
ARC
  5
2B9
100
AcDbEntity
  8
0
100
AcDbCircle
 62
7
  6
CONTINUOUS
 10
14.5116193249
 20
12.8584731155
 40
0.3606660892
100
AcDbArc
 50
44.184618417
 51
46.1586099031
  0
ARC
  5
2BA
100
AcDbEntity
  8
0
100
AcDbCircle
 62
7
  6
CONTINUOUS
 10
13.8593904749
 20
11.7287787303
 40
0.3606406812
100
AcDbArc
 50
253.8433642727
 51
255.2443034194
  0
ARC
  5
2BB
100
AcDbEntity
  8
0
100
AcDbCircle
 62
7
  6
CONTINUOUS
 10
14.5139840955
 20
12.8609246434
 40
0.3572599078
100
AcDbArc
 50
46.1598172865
 51
46.7189592034
  0
ARC
  5
2BC
100
AcDbEntity
  8
0
100
AcDbCircle
 62
7
  6
CONTINUOUS
 10
13.8559931919
 20
11.7176324128
 40
0.3489892873
100
AcDbArc
 50
246.9047205739
 51
253.8698761764
  0
ARC
  5
2BD
100
AcDbEntity
  8
0
100
AcDbCircle
 62
7
  6
CONTINUOUS
 10
14.5207017255
 20
12.8683543193
 40
0.3472457098
100
AcDbArc
 50
46.6854333314
 51
53.0293111879
  0
ARC
  5
2BE
100
AcDbEntity
  8
0
100
AcDbCircle
 62
7
  6
CONTINUOUS
 10
13.8564672499
 20
11.7157585711
 40
0.3330196103
100
AcDbArc
 50
237.8713634306
 51
240.0021414722
  0
ARC
  5
2BF
100
AcDbEntity
  8
0
100
AcDbCircle
 62
7
  6
CONTINUOUS
 10
14.5215733886
 20
12.8678054022
 40
0.332723975
100
AcDbArc
 50
60.0026505561
 51
61.5518980134
  0
ARC
  5
2C0
100
AcDbEntity
  8
0
100
AcDbCircle
 62
9
  6
CONTINUOUS
 10
15.8969904099
 20
11.7635112515
 40
0.2951544843
100
AcDbArc
 50
88.5372547405
 51
89.4842507028
  0
ARC
  5
2C1
100
AcDbEntity
  8
0
100
AcDbCircle
 62
9
  6
CONTINUOUS
 10
15.9018070326
 20
11.8074100142
 40
0.2509241135
100
AcDbArc
 50
75.4590496804
 51
79.9395298255
  0
ARC
  5
2C2
100
AcDbEntity
  8
0
100
AcDbCircle
 62
9
  6
CONTINUOUS
 10
15.9047607999
 20
11.8184131081
 40
0.2395318774
100
AcDbArc
 50
68.3177750728
 51
75.4821529427
  0
ARC
  5
2C3
100
AcDbEntity
  8
0
100
AcDbCircle
 62
9
  6
CONTINUOUS
 10
15.9080951049
 20
11.82689227
 40
0.2304207548
100
AcDbArc
 50
60.0089143165
 51
68.3092449556
  0
SPLINE
  5
2C4
100
AcDbEntity
  8
0
100
AcDbSpline
 62
7
  6
CONTINUOUS
 70
0
 71
3
 72
15
 73
11
 74
0
 42
0.0000001
 43
0.0000001
 44
0.0000000001
 40
0.0
 40
0.0
 40
0.0
 40
0.0
 40
0.1346739562
 40
0.2657091795
 40
0.3934671246
 40
0.5183777941
 40
0.6409257098
 40
0.761652832
 40
0.8811432737
 40
1.0
 40
1.0
 40
1.0
 40
1.0
 10
15.9278943618
 20
10.5700759553
 30
0.0
 10
15.9195641267
 20
10.5687545137
 30
0.0
 10
15.90303202
 20
10.5667122473
 30
0.0
 10
15.8783962728
 20
10.5655102044
 30
0.0
 10
15.8543498345
 20
10.5662239993
 30
0.0
 10
15.8309714651
 20
10.5688667659
 30
0.0
 10
15.8083389138
 20
10.5734337742
 30
0.0
 10
15.786532393
 20
10.5799229535
 30
0.0
 10
15.7656355144
 20
10.5883158952
 30
0.0
 10
15.752344674
 20
10.5951689443
 30
0.0
 10
15.7458981629
 20
10.5988908392
 30
0.0
  0
SPLINE
  5
2C5
100
AcDbEntity
  8
0
100
AcDbSpline
 62
7
  6
CONTINUOUS
 70
0
 71
3
 72
15
 73
11
 74
0
 42
0.0000001
 43
0.0000001
 44
0.0000000001
 40
0.0
 40
0.0
 40
0.0
 40
0.0
 40
0.1188805695
 40
0.2383907245
 40
0.3591325977
 40
0.4816891054
 40
0.6065980334
 40
0.7343443634
 40
0.8653579791
 40
1.0
 40
1.0
 40
1.0
 40
1.0
 10
16.4333981629
 20
11.7896757694
 30
0.0
 10
16.4398308088
 20
11.7859618796
 30
0.0
 10
16.4523846931
 20
11.7778972514
 30
0.0
 10
16.4700670924
 20
11.7640324905
 30
0.0
 10
16.4865604005
 20
11.7484347603
 30
0.0
 10
16.5018088824
 20
11.7311684054
 30
0.0
 10
16.5157688751
 20
11.7122995451
 30
0.0
 10
16.5283991597
 20
11.6918939527
 30
0.0
 10
16.5396715415
 20
11.6700252662
 30
0.0
 10
16.5461694411
 20
11.6547333414
 30
0.0
 10
16.549191795
 20
11.6468824349
 30
0.0
  0
SPLINE
  5
2C6
100
AcDbEntity
  8
0
100
AcDbSpline
 62
7
  6
CONTINUOUS
 70
0
 71
3
 72
21
 73
17
 74
0
 42
0.0000001
 43
0.0000001
 44
0.0000000001
 40
0.0
 40
0.0
 40
0.0
 40
0.0
 40
0.0545693726
 40
0.1093727968
 40
0.164634514
 40
0.2205728414
 40
0.2773945577
 40
0.3352875839
 40
0.3944237781
 40
0.4549539389
 40
0.5170057783
 40
0.5806827849
 40
0.7131687041
 40
0.8529201326
 40
0.9255717525
 40
1.0
 40
1.0
 40
1.0
 40
1.0
 10
15.3357762298
 20
10.8356748477
 30
0.0
 10
15.3299970633
 20
10.839011451
 30
0.0
 10
15.318693141
 20
10.8461962428
 30
0.0
 10
15.3026561258
 20
10.8584050417
 30
0.0
 10
15.2875668865
 20
10.8720200893
 30
0.0
 10
15.2734697137
 20
10.8869986961
 30
0.0
 10
15.2603960199
 20
10.9032917529
 30
0.0
 10
15.2483791549
 20
10.9208535776
 30
0.0
 10
15.2374433956
 20
10.9396332776
 30
0.0
 10
15.2276093417
 20
10.9595796602
 30
0.0
 10
15.2188976273
 20
10.9806424169
 30
0.0
 10
15.208661372
 20
11.0105321786
 30
0.0
 10
15.1988528985
 20
11.0505186916
 30
0.0
 10
15.1931471205
 20
11.0923788139
 30
0.0
 10
15.1908407014
 20
11.1273879865
 30
0.0
 10
15.1904613855
 20
11.1453773774
 30
0.0
 10
15.1904613855
 20
11.154479096
 30
0.0
  0
SPLINE
  5
2C7
100
AcDbEntity
  8
0
100
AcDbSpline
 62
7
  6
CONTINUOUS
 70
0
 71
3
 72
46
 73
42
 74
0
 42
0.0000001
 43
0.0000001
 44
0.0000000001
 40
0.0
 40
0.0
 40
0.0
 40
0.0
 40
0.0306406783
 40
0.0623205409
 40
0.0949552509
 40
0.1284708043
 40
0.162783019
 40
0.1977888689
 40
0.233377425
 40
0.2694313153
 40
0.3058278421
 40
0.3424394479
 40
0.3791364847
 40
0.4157880563
 40
0.4522641445
 40
0.4884362957
 40
0.524180258
 40
0.5593761964
 40
0.5939120134
 40
0.6276830871
 40
0.6605963459
 40
0.6925698241
 40
0.7235371619
 40
0.7534475913
 40
0.78227042
 40
0.7962722919
 40
0.8100008203
 40
0.8234585397
 40
0.8366495456
 40
0.8495800424
 40
0.8622579612
 40
0.8868892316
 40
0.9106494852
 40
0.9222468805
 40
0.9336777414
 40
0.9449623114
 40
0.9561224995
 40
0.967181863
 40
0.9781646639
 40
0.9890955815
 40
1.0
 40
1.0
 40
1.0
 40
1.0
 10
15.1904613855
 20
11.154479096
 30
0.0
 10
15.1904613855
 20
11.1685042223
 30
0.0
 10
15.1913872102
 20
11.1970365435
 30
0.0
 10
15.1953656753
 20
11.2403402761
 30
0.0
 10
15.2019411188
 20
11.2846569955
 30
0.0
 10
15.2110699402
 20
11.3297466394
 30
0.0
 10
15.2227031171
 20
11.3753756181
 30
0.0
 10
15.2367753639
 20
11.421304466
 30
0.0
 10
15.2532129285
 20
11.4672874917
 30
0.0
 10
15.2719253047
 20
11.513080361
 30
0.0
 10
15.2928124535
 20
11.5584386363
 30
0.0
 10
15.315762388
 20
11.6031197868
 30
0.0
 10
15.3406511961
 20
11.6468848903
 30
0.0
 10
15.3673468883
 20
11.6894987254
 30
0.0
 10
15.3957045933
 20
11.7307341298
 30
0.0
 10
15.4255753675
 20
11.77036851
 30
0.0
 10
15.4567971114
 20
11.8081916424
 30
0.0
 10
15.4892071703
 20
11.8439986559
 30
0.0
 10
15.5226306863
 20
11.8776008647
 30
0.0
 10
15.5568950281
 20
11.9088156818
 30
0.0
 10
15.5918176545
 20
11.9374795625
 30
0.0
 10
15.6272199638
 20
11.9634359229
 30
0.0
 10
15.6629173451
 20
11.9865487884
 30
0.0
 10
15.6987282776
 20
12.0066892136
 30
0.0
 10
15.7288011338
 20
12.0210434451
 30
0.0
 10
15.7527449032
 20
12.0308948748
 30
0.0
 10
15.7704430779
 20
12.0374057741
 30
0.0
 10
15.7880312007
 20
12.043099702
 30
0.0
 10
15.8054872319
 20
12.0479666096
 30
0.0
 10
15.8227891175
 20
12.0519993692
 30
0.0
 10
15.8454020689
 20
12.0562143262
 30
0.0
 10
15.8732161822
 20
12.0594256021
 30
0.0
 10
15.9007273659
 20
12.0598042113
 30
0.0
 10
15.9221029955
 20
12.0583349286
 30
0.0
 10
15.9376952182
 20
12.0563759521
 30
0.0
 10
15.9529509709
 20
12.0535532125
 30
0.0
 10
15.9678471185
 20
12.049868353
 30
0.0
 10
15.9823590624
 20
12.0453225505
 30
0.0
 10
15.9964633931
 20
12.0399226717
 30
0.0
 10
16.0101362807
 20
12.033678356
 30
0.0
 10
16.0189536646
 20
12.0289554121
 30
0.0
 10
16.0232762298
 20
12.0264597779
 30
0.0
  0
SPLINE
  5
2C8
100
AcDbEntity
  8
0
100
AcDbSpline
 62
9
  6
CONTINUOUS
 70
0
 71
3
 72
35
 73
31
 74
0
 42
0.0000001
 43
0.0000001
 44
0.0000000001
 40
0.0
 40
0.0
 40
0.0
 40
0.0
 40
0.0287559867
 40
0.0583480107
 40
0.0887201391
 40
0.1198219962
 40
0.151604129
 40
0.1840082509
 40
0.2503978404
 40
0.318424716
 40
0.3874623971
 40
0.4221604481
 40
0.4568630718
 40
0.4914867696
 40
0.5259484302
 40
0.5601660707
 40
0.5940598936
 40
0.6275519282
 40
0.6605680602
 40
0.6930371534
 40
0.724893147
 40
0.7560749456
 40
0.7865272787
 40
0.8162025283
 40
0.8450596977
 40
0.8730681165
 40
0.9002054613
 40
0.92646187
 40
0.9518388186
 40
1.0
 40
1.0
 40
1.0
 40
1.0
 10
15.6035122508
 20
10.9136126046
 30
0.0
 10
15.6035122508
 20
10.9250318604
 30
0.0
 10
15.6041255646
 20
10.9482060097
 30
0.0
 10
15.60678142
 20
10.9833498967
 30
0.0
 10
15.6111823254
 20
11.0192569685
 30
0.0
 10
15.6173099996
 20
11.0557908239
 30
0.0
 10
15.6251425029
 20
11.092822517
 30
0.0
 10
15.6379233755
 20
11.1430875739
 30
0.0
 10
15.6580278605
 20
11.2062830911
 30
0.0
 10
15.6881371388
 20
11.2813274134
 30
0.0
 10
15.7179730762
 20
11.3427323533
 30
0.0
 10
15.744541645
 20
11.3908711297
 30
0.0
 10
15.7657493596
 20
11.4263308174
 30
0.0
 10
15.788126538
 20
11.4609520019
 30
0.0
 10
15.8115907648
 20
11.4946117191
 30
0.0
 10
15.8360600572
 20
11.5271864061
 30
0.0
 10
15.861443055
 20
11.5585608309
 30
0.0
 10
15.8876512059
 20
11.5886195607
 30
0.0
 10
15.9145875477
 20
11.6172561222
 30
0.0
 10
15.9421566214
 20
11.6443659635
 30
0.0
 10
15.9702585414
 20
11.6698517053
 30
0.0
 10
15.9987916217
 20
11.6936221661
 30
0.0
 10
16.0276547509
 20
11.7155898326
 30
0.0
 10
16.0567420218
 20
11.7356783091
 30
0.0
 10
16.0859516192
 20
11.7538116064
 30
0.0
 10
16.1151766761
 20
11.7699280518
 30
0.0
 10
16.144313531
 20
11.7839654926
 30
0.0
 10
16.1732614413
 20
11.7958767275
 30
0.0
 10
16.2107951612
 20
11.8086352537
 30
0.0
 10
16.2393661429
 20
11.8152876614
 30
0.0
 10
16.2582790216
 20
11.8181297427
 30
0.0
  0
SPLINE
  5
2C9
100
AcDbEntity
  8
0
100
AcDbSpline
 62
9
  6
CONTINUOUS
 70
0
 71
3
 72
14
 73
10
 74
0
 42
0.0000001
 43
0.0000001
 44
0.0000000001
 40
0.0
 40
0.0
 40
0.0
 40
0.0
 40
0.2667177913
 40
0.3947290116
 40
0.5196810923
 40
0.6420855223
 40
0.7625156927
 40
0.8815997196
 40
1.0
 40
1.0
 40
1.0
 40
1.0
 10
16.2582790216
 20
11.8181297427
 30
0.0
 10
16.2741732445
 20
11.8205182038
 30
0.0
 10
16.2979940521
 20
11.8224790302
 30
0.0
 10
16.3293158677
 20
11.8213496516
 30
0.0
 10
16.3518067702
 20
11.8186875994
 30
0.0
 10
16.3735402498
 20
11.8142049948
 30
0.0
 10
16.3944528697
 20
11.8079094053
 30
0.0
 10
16.4144797129
 20
11.7998240994
 30
0.0
 10
16.4272163503
 20
11.7932446044
 30
0.0
 10
16.4333952992
 20
11.7896770194
 30
0.0
  0
SPLINE
  5
2CA
100
AcDbEntity
  8
0
100
AcDbSpline
 62
9
  6
CONTINUOUS
 70
0
 71
3
 72
53
 73
49
 74
0
 42
0.0000001
 43
0.0000001
 44
0.0000000001
 40
0.0
 40
0.0
 40
0.0
 40
0.0
 40
0.0158835756
 40
0.032103495
 40
0.0486457891
 40
0.0654959452
 40
0.0826400904
 40
0.1000639108
 40
0.1356833539
 40
0.1722135491
 40
0.2094935168
 40
0.2473508846
 40
0.2856040082
 40
0.3240650612
 40
0.3625430011
 40
0.4008468418
 40
0.4387878611
 40
0.4761832366
 40
0.5128585495
 40
0.5486507828
 40
0.5834124832
 40
0.6003676322
 40
0.617018642
 40
0.6493538375
 40
0.6650234056
 40
0.6803492299
 40
0.6953261596
 40
0.709952098
 40
0.7381457479
 40
0.7517294842
 40
0.7649794394
 40
0.7905183676
 40
0.8028523664
 40
0.8149212309
 40
0.8267511612
 40
0.8383718431
 40
0.8498158255
 40
0.8611187761
 40
0.8723188437
 40
0.8834557961
 40
0.8945706989
 40
0.9057049946
 40
0.9168997173
 40
0.9281949608
 40
0.9396287738
 40
0.9512368707
 40
0.9750924629
 40
1.0
 40
1.0
 40
1.0
 40
1.0
 10
15.6176543861
 20
10.9136126044
 30
0.0
 10
15.6176579434
 20
10.9216625458
 30
0.0
 10
15.6179692182
 20
10.9379341527
 30
0.0
 10
15.6193162239
 20
10.9625561804
 30
0.0
 10
15.6215501617
 20
10.9876056476
 30
0.0
 10
15.6246740154
 20
11.0130313825
 30
0.0
 10
15.6286799853
 20
11.0387853205
 30
0.0
 10
15.6352326243
 20
11.0737529854
 30
0.0
 10
15.645609235
 20
11.117976859
 30
0.0
 10
15.6613165432
 20
11.1711944537
 30
0.0
 10
15.6802594051
 20
11.2245527334
 30
0.0
 10
15.7022946104
 20
11.2776549972
 30
0.0
 10
15.7272575092
 20
11.3301084542
 30
0.0
 10
15.7549651943
 20
11.381522339
 30
0.0
 10
15.7852102438
 20
11.4315157013
 30
0.0
 10
15.8177679276
 20
11.4797174414
 30
0.0
 10
15.8523982151
 20
11.5257686166
 30
0.0
 10
15.8888421449
 20
11.5693287985
 30
0.0
 10
15.9268307687
 20
11.6100745375
 30
0.0
 10
15.9660824115
 20
11.6477019271
 30
0.0
 10
15.9998795704
 20
11.6764664704
 30
0.0
 10
16.0273127199
 20
11.6976419527
 30
0.0
 10
16.0544245384
 20
11.7171895594
 30
0.0
 10
16.0819634755
 20
11.7350082436
 30
0.0
 10
16.1098457095
 20
11.7509195297
 30
0.0
 10
16.13051602
 20
11.7616840359
 30
0.0
 10
16.1511255387
 20
11.7713822203
 30
0.0
 10
16.1781367167
 20
11.7827289433
 30
0.0
 10
16.2052057641
 20
11.7920681137
 30
0.0
 10
16.2321808173
 20
11.7991893249
 30
0.0
 10
16.2581661145
 20
11.804641977
 30
0.0
 10
16.2839336301
 20
11.8079268297
 30
0.0
 10
16.3092404087
 20
11.8088578814
 30
0.0
 10
16.3276104568
 20
11.8083910328
 30
0.0
 10
16.3455516807
 20
11.8067672081
 30
0.0
 10
16.3630313055
 20
11.8039907754
 30
0.0
 10
16.380015706
 20
11.800064348
 30
0.0
 10
16.3964721023
 20
11.7949943238
 30
0.0
 10
16.4123696007
 20
11.7887921826
 30
0.0
 10
16.4276771782
 20
11.7814680526
 30
0.0
 10
16.4423644324
 20
11.7730346984
 30
0.0
 10
16.4564043424
 20
11.7635107382
 30
0.0
 10
16.4697697203
 20
11.7529137677
 30
0.0
 10
16.4824335714
 20
11.7412630938
 30
0.0
 10
16.4943741013
 20
11.7285829921
 30
0.0
 10
16.5094343394
 20
11.7101736472
 30
0.0
 10
16.5263389027
 20
11.6845600947
 30
0.0
 10
16.5373076261
 20
11.6623405056
 30
0.0
 10
16.5422591193
 20
11.6507287807
 30
0.0
  0
SPLINE
  5
2CB
100
AcDbEntity
  8
0
100
AcDbSpline
 62
9
  6
CONTINUOUS
 70
0
 71
3
 72
29
 73
25
 74
0
 42
0.0000001
 43
0.0000001
 44
0.0000000001
 40
0.0
 40
0.0
 40
0.0
 40
0.0
 40
0.0625644676
 40
0.1227956184
 40
0.1810920241
 40
0.2096758153
 40
0.2379634961
 40
0.2660265407
 40
0.2939390157
 40
0.3217772235
 40
0.3496186615
 40
0.3775405013
 40
0.4056189875
 40
0.4339284218
 40
0.4625394888
 40
0.4915191269
 40
0.5209303512
 40
0.5812493147
 40
0.6439166308
 40
0.7092331205
 40
0.777405937
 40
0.8485736508
 40
0.9228014192
 40
1.0
 40
1.0
 40
1.0
 40
1.0
 10
15.9206672539
 20
10.5740886376
 30
0.0
 10
15.9098058398
 20
10.5727738056
 30
0.0
 10
15.8883446211
 20
10.5712161483
 30
0.0
 10
15.8566353518
 20
10.5722959337
 30
0.0
 10
15.8311271453
 20
10.5761110949
 30
0.0
 10
15.8115548197
 20
10.5809025777
 30
0.0
 10
15.7973652937
 20
10.5853247644
 30
0.0
 10
15.7835928986
 20
10.5905913312
 30
0.0
 10
15.7702567522
 20
10.5966954704
 30
0.0
 10
15.7573769261
 20
10.6036301444
 30
0.0
 10
15.7449710973
 20
10.6113839768
 30
0.0
 10
15.7330565392
 20
10.6199454439
 30
0.0
 10
15.72165082
 20
10.6293032667
 30
0.0
 10
15.7107706016
 20
10.6394444668
 30
0.0
 10
15.7004300168
 20
10.6503529397
 30
0.0
 10
15.6906431249
 20
10.6620135593
 30
0.0
 10
15.6782500478
 20
10.6786797187
 30
0.0
 10
15.6642168155
 20
10.7014056749
 30
0.0
 10
15.6499595614
 20
10.7311489525
 30
0.0
 10
15.6382063824
 20
10.7634286258
 30
0.0
 10
15.6290145165
 20
10.7980619208
 30
0.0
 10
15.6224307123
 20
10.8348638851
 30
0.0
 10
15.6185012744
 20
10.8736233223
 30
0.0
 10
15.6176599583
 20
10.9001128158
 30
0.0
 10
15.6176543861
 20
10.9136126044
 30
0.0
  0
SPLINE
  5
2CC
100
AcDbEntity
  8
0
100
AcDbSpline
 62
9
  6
CONTINUOUS
 70
0
 71
3
 72
15
 73
11
 74
0
 42
0.0000001
 43
0.0000001
 44
0.0000000001
 40
0.0
 40
0.0
 40
0.0
 40
0.0
 40
0.1183795069
 40
0.2374416675
 40
0.3578513659
 40
0.4802328496
 40
0.6051612674
 40
0.7331490608
 40
0.8646376649
 40
1.0
 40
1.0
 40
1.0
 40
1.0
 10
15.7458983376
 20
10.5988911418
 30
0.0
 10
15.7397196973
 20
10.6024586603
 30
0.0
 10
15.727654063
 20
10.6101988299
 30
0.0
 10
15.7106375741
 20
10.6234973364
 30
0.0
 10
15.6947315268
 20
10.6384613238
 30
0.0
 10
15.6799813713
 20
10.6550394849
 30
0.0
 10
15.6664316498
 20
10.6731837652
 30
0.0
 10
15.6541200644
 20
10.6928386667
 30
0.0
 10
15.6430795479
 20
10.7139435852
 30
0.0
 10
15.6366853966
 20
10.7287181494
 30
0.0
 10
15.6337015461
 20
10.7363110518
 30
0.0
  0
SPLINE
  5
2CD
100
AcDbEntity
  8
0
100
AcDbSpline
 62
9
  6
CONTINUOUS
 70
0
 71
3
 72
12
 73
8
 74
0
 42
0.0000001
 43
0.0000001
 44
0.0000000001
 40
0.0
 40
0.0
 40
0.0
 40
0.0
 40
0.4747351735
 40
0.6013560725
 40
0.7311504137
 40
0.8640603003
 40
1.0
 40
1.0
 40
1.0
 40
1.0
 10
15.6337015461
 20
10.7363110518
 30
0.0
 10
15.6232408007
 20
10.7629301523
 30
0.0
 10
15.613973585
 20
10.7983211064
 30
0.0
 10
15.6076035487
 20
10.8418969826
 30
0.0
 10
15.6052373473
 20
10.8652434338
 30
0.0
 10
15.6038200076
 20
10.8892235944
 30
0.0
 10
15.6035122508
 20
10.905422819
 30
0.0
 10
15.6035122508
 20
10.9136126046
 30
0.0
  0
SPLINE
  5
2CE
100
AcDbEntity
  8
0
100
AcDbSpline
 62
9
  6
CONTINUOUS
 70
0
 71
3
 72
21
 73
17
 74
0
 42
0.0000001
 43
0.0000001
 44
0.0000000001
 40
0.0
 40
0.0
 40
0.0
 40
0.0
 40
0.0539018011
 40
0.1080617213
 40
0.1627324735
 40
0.2181539915
 40
0.2745495722
 40
0.3321236227
 40
0.3910553693
 40
0.4515012552
 40
0.5135917576
 40
0.5774277239
 40
0.710584025
 40
0.8514389243
 40
0.924786154
 40
1.0
 40
1.0
 40
1.0
 40
1.0
 10
15.3357764028
 20
10.8356751474
 30
0.0
 10
15.3301490925
 20
10.8389243331
 30
0.0
 10
15.3191393348
 20
10.8459224308
 30
0.0
 10
15.3035153297
 20
10.857822651
 30
0.0
 10
15.2888039708
 20
10.8711103247
 30
0.0
 10
15.2750407554
 20
10.8857480265
 30
0.0
 10
15.2622582908
 20
10.9016993885
 30
0.0
 10
15.2504893634
 20
10.9189259366
 30
0.0
 10
15.2397583732
 20
10.9373829931
 30
0.0
 10
15.2300918924
 20
10.9570263438
 30
0.0
 10
15.221512973
 20
10.9778085664
 30
0.0
 10
15.2114060854
 20
11.0073791571
 30
0.0
 10
15.2017050801
 20
11.0470303939
 30
0.0
 10
15.1960553261
 20
11.0885933814
 30
0.0
 10
15.1937670002
 20
11.1234168395
 30
0.0
 10
15.1933903177
 20
11.1413294103
 30
0.0
 10
15.1933903177
 20
11.1503966131
 30
0.0
  0
SPLINE
  5
2CF
100
AcDbEntity
  8
0
100
AcDbSpline
 62
9
  6
CONTINUOUS
 70
0
 71
3
 72
9
 73
5
 74
0
 42
0.0000001
 43
0.0000001
 44
0.0000000001
 40
0.0
 40
0.0
 40
0.0
 40
0.0
 40
0.494697468
 40
1.0
 40
1.0
 40
1.0
 40
1.0
 10
15.9456403262
 20
12.0544759024
 30
0.0
 10
15.9389274854
 20
12.0556702819
 30
0.0
 10
15.9252577178
 20
12.0575483105
 30
0.0
 10
15.9114869656
 20
12.0583916946
 30
0.0
 10
15.904524803
 20
12.0585695551
 30
0.0
  0
SPLINE
  5
2D0
100
AcDbEntity
  8
0
100
AcDbSpline
 62
9
  6
CONTINUOUS
 70
0
 71
3
 72
35
 73
31
 74
0
 42
0.0000001
 43
0.0000001
 44
0.0000000001
 40
0.0
 40
0.0
 40
0.0
 40
0.0
 40
0.0225980426
 40
0.0459861362
 40
0.0702338586
 40
0.0953890175
 40
0.1214818642
 40
0.1485238282
 40
0.1765115987
 40
0.2054267961
 40
0.2352388395
 40
0.265905755
 40
0.2973754819
 40
0.3295877051
 40
0.3624738343
 40
0.3959595982
 40
0.4643903507
 40
0.5342014562
 40
0.6046530894
 40
0.6749843406
 40
0.7098735922
 40
0.7444503679
 40
0.7786252527
 40
0.8123121859
 40
0.8454287506
 40
0.8778966717
 40
0.9096459087
 40
0.9406185165
 40
0.9707577494
 40
1.0
 40
1.0
 40
1.0
 40
1.0
 10
15.899647214
 20
12.058653778
 30
0.0
 10
15.8902845226
 20
12.0587383918
 30
0.0
 10
15.8712143999
 20
12.0580125661
 30
0.0
 10
15.8423084788
 20
12.0543904019
 30
0.0
 10
15.8127529386
 20
12.0482308674
 30
0.0
 10
15.7826681742
 20
12.0395676231
 30
0.0
 10
15.7521751781
 20
12.0284327783
 30
0.0
 10
15.7213943458
 20
12.0148773414
 30
0.0
 10
15.6904504147
 20
11.9989535979
 30
0.0
 10
15.6594661029
 20
11.9807291419
 30
0.0
 10
15.6285667994
 20
11.9602763798
 30
0.0
 10
15.59787644
 20
11.9376790207
 30
0.0
 10
15.5675185317
 20
11.91302856
 30
0.0
 10
15.5376165301
 20
11.8864242317
 30
0.0
 10
15.508289376
 20
11.8579745781
 30
0.0
 10
15.4698405369
 20
11.8174441328
 30
0.0
 10
15.4240304799
 20
11.7628970524
 30
0.0
 10
15.3735657287
 20
11.6925859403
 30
0.0
 10
15.3280172011
 20
11.6180719793
 30
0.0
 10
15.2946738287
 20
11.5532906754
 30
0.0
 10
15.271085983
 20
11.5003763286
 30
0.0
 10
15.2550969048
 20
11.4605106163
 30
0.0
 10
15.2408285812
 20
11.4205259161
 30
0.0
 10
15.2283387863
 20
11.3805832557
 30
0.0
 10
15.2176789997
 20
11.3408450308
 30
0.0
 10
15.2088902274
 20
11.3014729744
 30
0.0
 10
15.2020106531
 20
11.2626238749
 30
0.0
 10
15.1970662287
 20
11.2244526742
 30
0.0
 10
15.19408116
 20
11.1871204705
 30
0.0
 10
15.1933903177
 20
11.1625125894
 30
0.0
 10
15.1933903177
 20
11.1503966131
 30
0.0
  0
SPLINE
  5
2D1
100
AcDbEntity
  8
0
100
AcDbSpline
 62
7
  6
CONTINUOUS
 70
0
 71
3
 72
13
 73
9
 74
0
 42
0.0000001
 43
0.0000001
 44
0.0000000001
 40
0.0
 40
0.0
 40
0.0
 40
0.0
 40
0.1168745996
 40
0.2363117338
 40
0.4823444893
 40
0.6087415321
 40
0.7372363231
 40
1.0
 40
1.0
 40
1.0
 40
1.0
 10
14.9653483808
 20
12.6582616739
 30
0.0
 10
14.9653483808
 20
12.6460632865
 30
0.0
 10
14.9648676511
 20
12.6213964854
 30
0.0
 10
14.962036454
 20
12.5711248214
 30
0.0
 10
14.9564125474
 20
12.520048908
 30
0.0
 10
14.9481678565
 20
12.4684141812
 30
0.0
 10
14.9379640317
 20
12.4153507023
 30
0.0
 10
14.9283963116
 20
12.3756182745
 30
0.0
 10
14.9212181444
 20
12.3491492748
 30
0.0
  0
SPLINE
  5
2D2
100
AcDbEntity
  8
0
100
AcDbSpline
 62
7
  6
CONTINUOUS
 70
0
 71
3
 72
28
 73
24
 74
0
 42
0.0000001
 43
0.0000001
 44
0.0000000001
 40
0.0
 40
0.0
 40
0.0
 40
0.0
 40
0.0789847906
 40
0.1561234996
 40
0.2312142841
 40
0.3040847902
 40
0.3745904171
 40
0.442625686
 40
0.5081226614
 40
0.5710635418
 40
0.6314800884
 40
0.6607756976
 40
0.6894800564
 40
0.7451909397
 40
0.7988535935
 40
0.8250159848
 40
0.8507835935
 40
0.876203875
 40
0.9013279441
 40
0.9262108911
 40
0.9509104636
 40
0.975486365
 40
1.0
 40
1.0
 40
1.0
 40
1.0
 10
14.5056964831
 20
11.6291487154
 30
0.0
 10
14.490136109
 20
11.6134807891
 30
0.0
 10
14.458659661
 20
11.5832147168
 30
0.0
 10
14.409926997
 20
11.5407073966
 30
0.0
 10
14.3604261529
 20
11.5018009102
 30
0.0
 10
14.310412434
 20
11.4666883331
 30
0.0
 10
14.2601325689
 20
11.4355528732
 30
0.0
 10
14.2098433874
 20
11.4085466142
 30
0.0
 10
14.1597917199
 20
11.3858137952
 30
0.0
 10
14.1102336645
 20
11.3674652729
 30
0.0
 10
14.0691287138
 20
11.3557959862
 30
0.0
 10
14.0367586526
 20
11.3488095931
 30
0.0
 10
14.0054095178
 20
11.3434794328
 30
0.0
 10
13.9669401004
 20
11.3396119908
 30
0.0
 10
13.9289749143
 20
11.3395795244
 30
0.0
 10
13.8995359104
 20
11.3419380708
 30
0.0
 10
13.8780961702
 20
11.3448493399
 30
0.0
 10
13.8571406552
 20
11.3489150913
 30
0.0
 10
13.836696433
 20
11.3541327302
 30
0.0
 10
13.8167899862
 20
11.3604944151
 30
0.0
 10
13.7974463639
 20
11.367991122
 30
0.0
 10
13.7786917619
 20
11.3766134497
 30
0.0
 10
13.7665910849
 20
11.3831101058
 30
0.0
 10
13.7606560643
 20
11.3865369621
 30
0.0
  0
SPLINE
  5
2D3
100
AcDbEntity
  8
0
100
AcDbSpline
 62
7
  6
CONTINUOUS
 70
0
 71
3
 72
15
 73
11
 74
0
 42
0.0000001
 43
0.0000001
 44
0.0000000001
 40
0.0
 40
0.0
 40
0.0
 40
0.0
 40
0.1181256384
 40
0.2369623539
 40
0.3572018462
 40
0.4794920407
 40
0.604428092
 40
0.7325363539
 40
0.8642682785
 40
1.0
 40
1.0
 40
1.0
 40
1.0
 10
14.758655562
 20
13.115122798
 30
0.0
 10
14.767821413
 20
13.1098304736
 30
0.0
 10
14.7857122697
 20
13.0983274146
 30
0.0
 10
14.8109051822
 20
13.0785146829
 30
0.0
 10
14.834410919
 20
13.0561798932
 30
0.0
 10
14.8561593809
 20
13.0314029027
 30
0.0
 10
14.8760814997
 20
13.0042585092
 30
0.0
 10
14.8941208574
 20
12.9748342823
 30
0.0
 10
14.9102256562
 20
12.9432239839
 30
0.0
 10
14.9194954508
 20
12.9210983091
 30
0.0
 10
14.9238068431
 20
12.9097266553
 30
0.0
  0
SPLINE
  5
2D4
100
AcDbEntity
  8
0
100
AcDbSpline
 62
7
  6
CONTINUOUS
 70
0
 71
3
 72
13
 73
9
 74
0
 42
0.0000001
 43
0.0000001
 44
0.0000000001
 40
0.0
 40
0.0
 40
0.0
 40
0.0
 40
0.2319681173
 40
0.3523821831
 40
0.4758194235
 40
0.602325693
 40
0.7319091387
 40
1.0
 40
1.0
 40
1.0
 40
1.0
 10
14.9238068431
 20
12.9097266553
 30
0.0
 10
14.930829776
 20
12.8912030893
 30
0.0
 10
14.9399305361
 20
12.8624435548
 30
0.0
 10
14.9493159243
 20
12.8228980706
 30
0.0
 10
14.9551645302
 20
12.7918020837
 30
0.0
 10
14.9597206955
 20
12.7597013865
 30
0.0
 10
14.9641084684
 20
12.7151417291
 30
0.0
 10
14.9653483808
 20
12.6811567771
 30
0.0
 10
14.9653483808
 20
12.6582616739
 30
0.0
  0
SPLINE
  5
2D5
100
AcDbEntity
  8
0
100
AcDbSpline
 62
7
  6
CONTINUOUS
 70
0
 71
3
 72
45
 73
41
 74
0
 42
0.0000001
 43
0.0000001
 44
0.0000000001
 40
0.0
 40
0.0
 40
0.0
 40
0.0
 40
0.0306568359
 40
0.0623849322
 40
0.0950975967
 40
0.1287166361
 40
0.1631528089
 40
0.1982996232
 40
0.2340430702
 40
0.2702630213
 40
0.3068338564
 40
0.3436256208
 40
0.3805061498
 40
0.4173422282
 40
0.4540012965
 40
0.4903524293
 40
0.5262685012
 40
0.5616268778
 40
0.5963118585
 40
0.6302155258
 40
0.6632401094
 40
0.6952996321
 40
0.7263217679
 40
0.7562508906
 40
0.785049216
 40
0.7990210721
 40
0.8127064264
 40
0.8392204373
 40
0.852064067
 40
0.8646391941
 40
0.8890154609
 40
0.9124550255
 40
0.9238677929
 40
0.9350989632
 40
0.9461701608
 40
0.9571047313
 40
0.9679279239
 40
0.9786663535
 40
0.989347584
 40
1.0
 40
1.0
 40
1.0
 40
1.0
 10
13.5539632456
 20
11.8433980862
 30
0.0
 10
13.5539632456
 20
11.8637535335
 30
0.0
 10
13.5553082826
 20
11.9051849923
 30
0.0
 10
13.5610879675
 20
11.968095126
 30
0.0
 10
13.5706459068
 20
12.032531827
 30
0.0
 10
13.5839223817
 20
12.0981384209
 30
0.0
 10
13.6008476796
 20
12.1645670517
 30
0.0
 10
13.6213292003
 20
12.2314616115
 30
0.0
 10
13.6452579947
 20
12.2984596617
 30
0.0
 10
13.6725044182
 20
12.3651997906
 30
0.0
 10
13.7029200149
 20
12.4313227918
 30
0.0
 10
13.7363433421
 20
12.4964704519
 30
0.0
 10
13.7725903379
 20
12.5602928061
 30
0.0
 10
13.8114695788
 20
12.6224428329
 30
0.0
 10
13.8527663508
 20
12.6825879252
 30
0.0
 10
13.8962627057
 20
12.7404000654
 30
0.0
 10
13.9417190765
 20
12.7955706852
 30
0.0
 10
13.9888946309
 20
12.8477987092
 30
0.0
 10
14.0375314274
 20
12.896805517
 30
0.0
 10
14.0873703037
 20
12.942324354
 30
0.0
 10
14.1381415261
 20
12.9841116303
 30
0.0
 10
14.1895730192
 20
13.0219413403
 30
0.0
 10
14.2413901501
 20
13.0556093111
 30
0.0
 10
14.2933127497
 20
13.0849343931
 30
0.0
 10
14.3368755312
 20
13.1058268619
 30
0.0
 10
14.3715206095
 20
13.1201612634
 30
0.0
 10
14.4052578547
 20
13.1326500978
 30
0.0
 10
14.4389906404
 20
13.1429380072
 30
0.0
 10
14.47256553
 20
13.1508384504
 30
0.0
 10
14.5050651832
 20
13.1569660143
 30
0.0
 10
14.544953949
 20
13.161655246
 30
0.0
 10
14.5843548688
 20
13.1622770078
 30
0.0
 10
14.6148985244
 20
13.160229366
 30
0.0
 10
14.6371270659
 20
13.1574737044
 30
0.0
 10
14.6588456156
 20
13.1534876769
 30
0.0
 10
14.6800243756
 20
13.148273971
 30
0.0
 10
14.7006338743
 20
13.1418401571
 30
0.0
 10
14.7206465237
 20
13.1341963493
 30
0.0
 10
14.740033499
 20
13.1253528379
 30
0.0
 10
14.7525303165
 20
13.1186594894
 30
0.0
 10
14.758655562
 20
13.115122798
 30
0.0
  0
SPLINE
  5
2D6
100
AcDbEntity
  8
0
100
AcDbSpline
 62
7
  6
CONTINUOUS
 70
0
 71
3
 72
23
 73
19
 74
0
 42
0.0000001
 43
0.0000001
 44
0.0000000001
 40
0.0
 40
0.0
 40
0.0
 40
0.0
 40
0.0631652703
 40
0.1238794322
 40
0.182533462
 40
0.2396061155
 40
0.2956580314
 40
0.3513018479
 40
0.4071736565
 40
0.4638962406
 40
0.522047486
 40
0.5821344597
 40
0.6445713066
 40
0.7096716664
 40
0.7776673124
 40
0.8487113676
 40
0.9228544939
 40
1.0
 40
1.0
 40
1.0
 40
1.0
 10
14.2206678374
 20
11.7926725337
 30
0.0
 10
14.2131696768
 20
11.7915784508
 30
0.0
 10
14.1983486503
 20
11.7901342276
 30
0.0
 10
14.1764094627
 20
11.7903350573
 30
0.0
 10
14.1553544625
 20
11.7929477774
 30
0.0
 10
14.1353141209
 20
11.797973795
 30
0.0
 10
14.1164099688
 20
11.8053800326
 30
0.0
 10
14.0987657677
 20
11.8151332779
 30
0.0
 10
14.0824893385
 20
11.8271639906
 30
0.0
 10
14.0676852326
 20
11.841399885
 30
0.0
 10
14.0544366931
 20
11.8577445291
 30
0.0
 10
14.0428200834
 20
11.8760975432
 30
0.0
 10
14.0328952017
 20
11.8963446722
 30
0.0
 10
14.0247112053
 20
11.9183658686
 30
0.0
 10
14.0183122823
 20
11.9420370531
 30
0.0
 10
14.0137280823
 20
11.9672253838
 30
0.0
 10
14.0109864656
 20
11.9937793883
 30
0.0
 10
14.0104006728
 20
12.0119355302
 30
0.0
 10
14.0104006728
 20
12.0211902167
 30
0.0
  0
SPLINE
  5
2D7
100
AcDbEntity
  8
0
100
AcDbSpline
 62
7
  6
CONTINUOUS
 70
0
 71
3
 72
47
 73
43
 74
0
 42
0.0000001
 43
0.0000001
 44
0.0000000001
 40
0.0
 40
0.0
 40
0.0
 40
0.0
 40
0.0321427054
 40
0.0656001556
 40
0.1002385735
 40
0.1359337897
 40
0.1725461889
 40
0.2099091014
 40
0.2478455688
 40
0.2861710852
 40
0.3246952996
 40
0.3632227571
 40
0.4015591565
 40
0.4395127522
 40
0.476898572
 40
0.5135394741
 40
0.5492720769
 40
0.5839470989
 40
0.6174369076
 40
0.6496352687
 40
0.6804670279
 40
0.709887915
 40
0.7378959323
 40
0.7513851322
 40
0.7645412588
 40
0.7899003803
 40
0.8141319364
 40
0.8258948426
 40
0.8374586561
 40
0.8488581064
 40
0.8601306555
 40
0.8713156977
 40
0.8824543357
 40
0.8935886833
 40
0.9047606719
 40
0.9160115721
 40
0.9273815072
 40
0.9389082547
 40
0.950626882
 40
0.9625697676
 40
0.9747657906
 40
1.0
 40
1.0
 40
1.0
 40
1.0
 10
14.0104006728
 20
12.0211902167
 30
0.0
 10
14.0104006728
 20
12.0322618071
 30
0.0
 10
14.0112716392
 20
12.0548645202
 30
0.0
 10
14.0149791753
 20
12.0892161336
 30
0.0
 10
14.0210983045
 20
12.1244633861
 30
0.0
 10
14.0295748161
 20
12.1603339795
 30
0.0
 10
14.0403479095
 20
12.1965617403
 30
0.0
 10
14.0533331484
 20
12.2328763977
 30
0.0
 10
14.0684366049
 20
12.2690020022
 30
0.0
 10
14.0855416808
 20
12.3046675456
 30
0.0
 10
14.1045207324
 20
12.3396037364
 30
0.0
 10
14.1252300831
 20
12.3735472315
 30
0.0
 10
14.1475133504
 20
12.40624163
 30
0.0
 10
14.1712032169
 20
12.4374399151
 30
0.0
 10
14.1961195614
 20
12.4669080038
 30
0.0
 10
14.2220769908
 20
12.4944221461
 30
0.0
 10
14.2488774522
 20
12.519777584
 30
0.0
 10
14.2763230785
 20
12.5427803271
 30
0.0
 10
14.3042047378
 20
12.5632613863
 30
0.0
 10
14.3323181779
 20
12.5810616377
 30
0.0
 10
14.360451222
 20
12.5960525648
 30
0.0
 10
14.3883975146
 20
12.6081127224
 30
0.0
 10
14.411645921
 20
12.6157433953
 30
0.0
 10
14.4299345731
 20
12.6202396702
 30
0.0
 10
14.4475370914
 20
12.623597165
 30
0.0
 10
14.4690772944
 20
12.6259032542
 30
0.0
 10
14.4902706083
 20
12.6255767606
 30
0.0
 10
14.5065534182
 20
12.6236837662
 30
0.0
 10
14.5183215028
 20
12.6214860424
 30
0.0
 10
14.5297404186
 20
12.6185008505
 30
0.0
 10
14.5407889332
 20
12.6147351638
 30
0.0
 10
14.5514453548
 20
12.6101955374
 30
0.0
 10
14.5616876555
 20
12.604888383
 30
0.0
 10
14.5714963556
 20
12.598825775
 30
0.0
 10
14.5808529653
 20
12.5920206138
 30
0.0
 10
14.5897389144
 20
12.5844855901
 30
0.0
 10
14.5981356137
 20
12.576234156
 30
0.0
 10
14.6060285946
 20
12.5672842631
 30
0.0
 10
14.6134034227
 20
12.5576538233
 30
0.0
 10
14.6202456344
 20
12.5473597555
 30
0.0
 10
14.628734203
 20
12.5326133355
 30
0.0
 10
14.6341161498
 20
12.5208540558
 30
0.0
 10
14.6372974292
 20
12.5127652067
 30
0.0
  0
SPLINE
  5
2D8
100
AcDbEntity
  8
0
100
AcDbSpline
 62
7
  6
CONTINUOUS
 70
0
 71
3
 72
21
 73
17
 74
0
 42
0.0000001
 43
0.0000001
 44
0.0000000001
 40
0.0
 40
0.0
 40
0.0
 40
0.0
 40
0.0539018011
 40
0.1080617213
 40
0.1627324735
 40
0.2181539915
 40
0.2745495722
 40
0.3321236227
 40
0.3910553693
 40
0.4515012552
 40
0.5135917576
 40
0.5774277239
 40
0.710584025
 40
0.8514389243
 40
0.924786154
 40
1.0
 40
1.0
 40
1.0
 40
1.0
 10
13.7606560643
 20
11.3865369621
 30
0.0
 10
13.752487256
 20
11.3912535982
 30
0.0
 10
13.7365050914
 20
11.4014122913
 30
0.0
 10
13.7138247174
 20
11.4186870837
 30
0.0
 10
13.692469174
 20
11.4379759541
 30
0.0
 10
13.6724899899
 20
11.4592245743
 30
0.0
 10
13.6539344996
 20
11.4823801514
 30
0.0
 10
13.6368502965
 20
11.507386835
 30
0.0
 10
13.621272801
 20
11.5341797694
 30
0.0
 10
13.607240586
 20
11.5626947716
 30
0.0
 10
13.5947871146
 20
11.5928630016
 30
0.0
 10
13.5801155891
 20
11.6357887463
 30
0.0
 10
13.566033257
 20
11.6933479235
 30
0.0
 10
13.5578318686
 20
11.7536822676
 30
0.0
 10
13.5545100515
 20
11.8042332658
 30
0.0
 10
13.5539632456
 20
11.8302358049
 30
0.0
 10
13.5539632456
 20
11.8433980862
 30
0.0
  0
SPLINE
  5
2D9
100
AcDbEntity
  8
0
100
AcDbSpline
 62
7
  6
CONTINUOUS
 70
0
 71
3
 72
14
 73
10
 74
0
 42
0.0000001
 43
0.0000001
 44
0.0000000001
 40
0.0
 40
0.0
 40
0.0
 40
0.0
 40
0.2627986493
 40
0.390102037
 40
0.5150395909
 40
0.6380245584
 40
0.7595188853
 40
0.8800104553
 40
1.0
 40
1.0
 40
1.0
 40
1.0
 10
14.6832127751
 20
11.4764587962
 30
0.0
 10
14.6874361718
 20
11.4678641743
 30
0.0
 10
14.6945125303
 20
11.455471074
 30
0.0
 10
14.7054869719
 20
11.4402317649
 30
0.0
 10
14.7142686983
 20
11.4297344001
 30
0.0
 10
14.7236646703
 20
11.4200769079
 30
0.0
 10
14.7336554522
 20
11.4112779046
 30
0.0
 10
14.7442202349
 20
11.4033586674
 30
0.0
 10
14.7516376892
 20
11.39867198
 30
0.0
 10
14.7554244257
 20
11.3964860812
 30
0.0
  0
SPLINE
  5
2DA
100
AcDbEntity
  8
0
100
AcDbSpline
 62
7
  6
CONTINUOUS
 70
0
 71
3
 72
12
 73
8
 74
0
 42
0.0000001
 43
0.0000001
 44
0.0000000001
 40
0.0
 40
0.0
 40
0.0
 40
0.0
 40
0.2640532556
 40
0.5196670029
 40
0.7653587696
 40
0.8841521915
 40
1.0
 40
1.0
 40
1.0
 40
1.0
 10
14.9483778181
 20
11.6481794801
 30
0.0
 10
14.943568557
 20
11.6328393666
 30
0.0
 10
14.9350786949
 20
11.6023312845
 30
0.0
 10
14.9257210836
 20
11.5566457273
 30
0.0
 10
14.9209223579
 20
11.5191549264
 30
0.0
 10
14.9190059407
 20
11.4899668436
 30
0.0
 10
14.9186793332
 20
11.4756793027
 30
0.0
 10
14.9186793332
 20
11.4686261555
 30
0.0
  0
SPLINE
  5
2DB
100
AcDbEntity
  8
0
100
AcDbSpline
 62
7
  6
CONTINUOUS
 70
0
 71
3
 72
12
 73
8
 74
0
 42
0.0000001
 43
0.0000001
 44
0.0000000001
 40
0.0
 40
0.0
 40
0.0
 40
0.0
 40
0.1379230483
 40
0.2722102473
 40
0.5293933134
 40
0.7717073692
 40
1.0
 40
1.0
 40
1.0
 40
1.0
 10
14.9186793332
 20
11.4686261555
 30
0.0
 10
14.9186793332
 20
11.4617542865
 30
0.0
 10
14.9189815584
 20
11.4481888464
 30
0.0
 10
14.9208180072
 20
11.4218695301
 30
0.0
 10
14.9253489806
 20
11.3905529467
 30
0.0
 10
14.9345609442
 20
11.3553998959
 30
0.0
 10
14.9433613711
 20
11.3335741682
 30
0.0
 10
14.9483778181
 20
11.3233656873
 30
0.0
  0
SPLINE
  5
2DC
100
AcDbEntity
  8
0
100
AcDbSpline
 62
7
  6
CONTINUOUS
 70
0
 71
3
 72
34
 73
30
 74
0
 42
0.0000001
 43
0.0000001
 44
0.0000000001
 40
0.0
 40
0.0
 40
0.0
 40
0.0
 40
0.0215622617
 40
0.0432815205
 40
0.0653092334
 40
0.0877866969
 40
0.1108402638
 40
0.1345784342
 40
0.1590920859
 40
0.1844514449
 40
0.2107098639
 40
0.2379014527
 40
0.2660446417
 40
0.2951429931
 40
0.3561288551
 40
0.3879809008
 40
0.4206776646
 40
0.4541667511
 40
0.4883881765
 40
0.5232760422
 40
0.5587574691
 40
0.594755905
 40
0.6311894792
 40
0.7050087473
 40
0.7795237318
 40
0.8540022508
 40
0.9277309811
 40
0.9641010981
 40
1.0
 40
1.0
 40
1.0
 40
1.0
 10
15.2473972276
 20
12.2486687655
 30
0.0
 10
15.242422006
 20
12.2515407189
 30
0.0
 10
15.232123863
 20
12.2567842183
 30
0.0
 10
15.21585023
 20
12.2630253952
 30
0.0
 10
15.1987891163
 20
12.2676384302
 30
0.0
 10
15.1810076731
 20
12.2706038267
 30
0.0
 10
15.1625735492
 20
12.2719145843
 30
0.0
 10
15.1435557036
 20
12.2715698407
 30
0.0
 10
15.1240247539
 20
12.2695701427
 30
0.0
 10
15.1040514458
 20
12.265929638
 30
0.0
 10
15.0837091317
 20
12.2606591921
 30
0.0
 10
15.0630708606
 20
12.2537828143
 30
0.0
 10
15.0422108633
 20
12.2453249413
 30
0.0
 10
15.0137620939
 20
12.231770094
 30
0.0
 10
14.9856567751
 20
12.2153350704
 30
0.0
 10
14.9580808138
 20
12.1963968089
 30
0.0
 10
14.9372563622
 20
12.1806141482
 30
0.0
 10
14.9166687968
 20
12.1635208547
 30
0.0
 10
14.8963917497
 20
12.1451784132
 30
0.0
 10
14.8765009151
 20
12.1256531266
 30
0.0
 10
14.8570669643
 20
12.1050183127
 30
0.0
 10
14.8381631829
 20
12.0833471467
 30
0.0
 10
14.8136505192
 20
12.0530498088
 30
0.0
 10
14.7847960744
 20
12.0131105662
 30
0.0
 10
14.7534754597
 20
11.9626279694
 30
0.0
 10
14.7257574824
 20
11.9101082925
 30
0.0
 10
14.7059057485
 20
11.865067423
 30
0.0
 10
14.6921897095
 20
11.8286616818
 30
0.0
 10
14.6860739325
 20
11.8103988308
 30
0.0
 10
14.6832127751
 20
11.801272589
 30
0.0
  0
SPLINE
  5
2DD
100
AcDbEntity
  8
0
100
AcDbSpline
 62
9
  6
CONTINUOUS
 70
0
 71
3
 72
42
 73
38
 74
0
 42
0.0000001
 43
0.0000001
 44
0.0000000001
 40
0.0
 40
0.0
 40
0.0
 40
0.0
 40
0.0306550236
 40
0.0623852495
 40
0.0951006902
 40
0.1287199989
 40
0.1631562858
 40
0.1983039784
 40
0.2340484342
 40
0.2702689495
 40
0.3068405709
 40
0.3436333238
 40
0.3805148102
 40
0.4173519192
 40
0.4540117749
 40
0.4903639551
 40
0.5262806927
 40
0.5616400958
 40
0.596325688
 40
0.630230354
 40
0.6632555664
 40
0.6953160046
 40
0.7263388049
 40
0.7562687109
 40
0.7850677317
 40
0.8127206562
 40
0.839235369
 40
0.8520791842
 40
0.8646546914
 40
0.8890316162
 40
0.9124717339
 40
0.9351072303
 40
0.9571037212
 40
0.9679272376
 40
0.9786658363
 40
0.9893472988
 40
1.0
 40
1.0
 40
1.0
 40
1.0
 10
15.0896956689
 20
11.3698898281
 30
0.0
 10
15.0896956689
 20
11.3799239358
 30
0.0
 10
15.0903591818
 20
11.4003486393
 30
0.0
 10
15.0932078958
 20
11.4313627415
 30
0.0
 10
15.0979200589
 20
11.4631300051
 30
0.0
 10
15.1044647003
 20
11.4954734646
 30
0.0
 10
15.1128095882
 20
11.5282211564
 30
0.0
 10
15.1229055963
 20
11.5611993603
 30
0.0
 10
15.134703009
 20
11.5942280806
 30
0.0
 10
15.1481339555
 20
11.6271303888
 30
0.0
 10
15.1631296541
 20
11.6597273886
 30
0.0
 10
15.1796054896
 20
11.6918449888
 30
0.0
 10
15.1974761361
 20
11.723307812
 30
0.0
 10
15.2166416513
 20
11.7539477985
 30
0.0
 10
15.2370017596
 20
11.7835975918
 30
0.0
 10
15.2584434835
 20
11.8120991119
 30
0.0
 10
15.280854021
 20
11.8392965082
 30
0.0
 10
15.3041097457
 20
11.8650450931
 30
0.0
 10
15.3280878991
 20
11.8892039038
 30
0.0
 10
15.3526569307
 20
11.9116448255
 30
0.0
 10
15.3776869815
 20
11.9322447324
 30
0.0
 10
15.4030415573
 20
11.9508947997
 30
0.0
 10
15.4285867571
 20
11.9674922471
 30
0.0
 10
15.4541842381
 20
11.9819496132
 30
0.0
 10
15.4796995105
 20
11.9941863995
 30
0.0
 10
15.5049943451
 20
12.004137277
 30
0.0
 10
15.526000578
 20
12.0105447382
 30
0.0
 10
15.5425529732
 20
12.0144389845
 30
0.0
 10
15.5585745567
 20
12.0174600989
 30
0.0
 10
15.5782402849
 20
12.0197721834
 30
0.0
 10
15.6013404504
 20
12.0201364393
 30
0.0
 10
15.623570795
 20
12.0180519789
 30
0.0
 10
15.6413697846
 20
12.0142545279
 30
0.0
 10
15.6549874465
 20
12.0100045244
 30
0.0
 10
15.6648534181
 20
12.0062355267
 30
0.0
 10
15.6744104716
 20
12.0018751222
 30
0.0
 10
15.6805714905
 20
11.9985759013
 30
0.0
 10
15.6835913037
 20
11.9968326136
 30
0.0
  0
SPLINE
  5
2DE
100
AcDbEntity
  8
0
100
AcDbSpline
 62
9
  6
CONTINUOUS
 70
0
 71
3
 72
41
 73
37
 74
0
 42
0.0000001
 43
0.0000001
 44
0.0000000001
 40
0.0
 40
0.0
 40
0.0
 40
0.0
 40
0.0304385915
 40
0.0619248966
 40
0.094372907
 40
0.1277049345
 40
0.1618393291
 40
0.1966770621
 40
0.2321096043
 40
0.2680226126
 40
0.3042974671
 40
0.3408112091
 40
0.3774380013
 40
0.4140512435
 40
0.4505240938
 40
0.4867316631
 40
0.5225513456
 40
0.5578651643
 40
0.5925604211
 40
0.6265316492
 40
0.6596821069
 40
0.6919250686
 40
0.7231865889
 40
0.7534059972
 40
0.7825401793
 40
0.8105633581
 40
0.8374728302
 40
0.863288204
 40
0.888057933
 40
0.9118578683
 40
0.9347968074
 40
0.9570132195
 40
0.9679071864
 40
0.9786861907
 40
0.9893750692
 40
1.0
 40
1.0
 40
1.0
 40
1.0
 10
15.1019413991
 20
11.3690317681
 30
0.0
 10
15.1019413963
 20
11.37870227
 30
0.0
 10
15.1025672526
 20
11.3983803651
 30
0.0
 10
15.1052566153
 20
11.4282571586
 30
0.0
 10
15.109706258
 20
11.4588520672
 30
0.0
 10
15.1158881098
 20
11.4900011573
 30
0.0
 10
15.123772913
 20
11.5215456506
 30
0.0
 10
15.1333162228
 20
11.5533252448
 30
0.0
 10
15.1444726687
 20
11.5851738478
 30
0.0
 10
15.1571813005
 20
11.6169273273
 30
0.0
 10
15.1713787917
 20
11.6484204706
 30
0.0
 10
15.1869894221
 20
11.6794913542
 30
0.0
 10
15.2039342485
 20
11.7099781833
 30
0.0
 10
15.2221241031
 20
11.7397237218
 30
0.0
 10
15.2414657626
 20
11.7685734507
 30
0.0
 10
15.2618584883
 20
11.7963782689
 30
0.0
 10
15.2831969123
 20
11.8229942061
 30
0.0
 10
15.3053708155
 20
11.8482832315
 30
0.0
 10
15.328264953
 20
11.8721150928
 30
0.0
 10
15.3517619542
 20
11.8943655804
 30
0.0
 10
15.3757392799
 20
11.914920997
 30
0.0
 10
15.4000749079
 20
11.933673299
 30
0.0
 10
15.4246418192
 20
11.9505277914
 30
0.0
 10
15.4493159271
 20
11.9653944531
 30
0.0
 10
15.4739687444
 20
11.9781994663
 30
0.0
 10
15.4984766236
 20
11.9888720336
 30
0.0
 10
15.5227126032
 20
11.9973602759
 30
0.0
 10
15.5465555099
 20
12.0036130472
 30
0.0
 10
15.5698821757
 20
12.0076005396
 30
0.0
 10
15.5925750869
 20
12.0092911641
 30
0.0
 10
15.6145139121
 20
12.008677532
 30
0.0
 10
15.6321931777
 20
12.0062195986
 30
0.0
 10
15.6457891596
 20
12.0030935376
 30
0.0
 10
15.6556607478
 20
12.0001959725
 30
0.0
 10
15.6652570411
 20
11.9967328453
 30
0.0
 10
15.6714774841
 20
11.9940441702
 30
0.0
 10
15.6745328479
 20
11.9926091073
 30
0.0
  0
LINE
  5
2DF
100
AcDbEntity
  8
0
100
AcDbLine
 62
9
  6
CONTINUOUS
 10
15.1906879129
 20
11.1546425536
 11
15.190277469
 21
11.1549293729
  0
SPLINE
  5
2E0
100
AcDbEntity
  8
0
100
AcDbSpline
 62
9
  6
CONTINUOUS
 70
0
 71
3
 72
19
 73
15
 74
0
 42
0.0000001
 43
0.0000001
 44
0.0000000001
 40
0.0
 40
0.0
 40
0.0
 40
0.0
 40
0.0536548264
 40
0.107775656
 40
0.1625712812
 40
0.2182388375
 40
0.2749574604
 40
0.3328884172
 40
0.4528787695
 40
0.579151299
 40
0.6448564938
 40
0.7123262594
 40
0.8526296471
 40
1.0
 40
1.0
 40
1.0
 40
1.0
 10
15.190277469
 20
11.1549293729
 30
0.0
 10
15.1867542565
 20
11.1573994899
 30
0.0
 10
15.1798715305
 20
11.1626448375
 30
0.0
 10
15.1701413326
 20
11.1713407408
 30
0.0
 10
15.1609919452
 20
11.1808714542
 30
0.0
 10
15.1524452975
 20
11.1912167077
 30
0.0
 10
15.1445170072
 20
11.2023529196
 30
0.0
 10
15.1346786914
 20
11.2184079703
 30
0.0
 10
15.1240480495
 20
11.240443192
 30
0.0
 10
15.1159212919
 20
11.2641627644
 30
0.0
 10
15.1107631325
 20
11.28432738
 30
0.0
 10
15.106416567
 20
11.3058328778
 30
0.0
 10
15.1028368723
 20
11.334131063
 30
0.0
 10
15.1019414026
 20
11.3572134039
 30
0.0
 10
15.1019413991
 20
11.3690317681
 30
0.0
  0
SPLINE
  5
2E1
100
AcDbEntity
  8
0
100
AcDbSpline
 62
9
  6
CONTINUOUS
 70
0
 71
3
 72
21
 73
17
 74
0
 42
0.0000001
 43
0.0000001
 44
0.0000000001
 40
0.0
 40
0.0
 40
0.0
 40
0.0
 40
0.053885896
 40
0.1080410811
 40
0.1627150128
 40
0.2181457512
 40
0.2745559979
 40
0.3321461
 40
0.3910952256
 40
0.4515586312
 40
0.5774426144
 40
0.6431065811
 40
0.710653279
 40
0.8514982891
 40
0.9248226619
 40
1.0
 40
1.0
 40
1.0
 40
1.0
 10
15.1910136139
 20
11.1449994715
 30
0.0
 10
15.1870074352
 20
11.1473340381
 30
0.0
 10
15.1791699884
 20
11.1523588737
 30
0.0
 10
15.1680515032
 20
11.1608943247
 30
0.0
 10
15.1575813941
 20
11.1704132677
 30
0.0
 10
15.1477869812
 20
11.180892171
 30
0.0
 10
15.1386927192
 20
11.192305884
 30
0.0
 10
15.1303178781
 20
11.2046239946
 30
0.0
 10
15.1226824902
 20
11.2178178792
 30
0.0
 10
15.1133910378
 20
11.2367849844
 30
0.0
 10
15.1058055277
 20
11.257171147
 30
0.0
 10
15.0998672958
 20
11.2786685444
 30
0.0
 10
15.0948522601
 20
11.3017220489
 30
0.0
 10
15.0915918706
 20
11.3257907922
 30
0.0
 10
15.0899637979
 20
11.3506402176
 30
0.0
 10
15.0896956689
 20
11.3634209684
 30
0.0
 10
15.0896956689
 20
11.3698898281
 30
0.0
  0
SPLINE
  5
2E2
100
AcDbEntity
  8
0
100
AcDbSpline
 62
7
  6
CONTINUOUS
 70
0
 71
3
 72
21
 73
17
 74
0
 42
0.0000001
 43
0.0000001
 44
0.0000000001
 40
0.0
 40
0.0
 40
0.0
 40
0.0
 40
0.0566472944
 40
0.1133825053
 40
0.17041922
 40
0.2279382681
 40
0.2860775182
 40
0.3449603143
 40
0.4047346187
 40
0.465536375
 40
0.5274830662
 40
0.5906827693
 40
0.7211250407
 40
0.8575019836
 40
0.928007757
 40
1.0
 40
1.0
 40
1.0
 40
1.0
 10
17.1211470797
 20
11.3152388111
 30
0.0
 10
17.1268254768
 20
11.311960387
 30
0.0
 10
17.1379196133
 20
11.3049149778
 30
0.0
 10
17.1536445931
 20
11.2929696571
 30
0.0
 10
17.1684023723
 20
11.2796955433
 30
0.0
 10
17.182148286
 20
11.2651538401
 30
0.0
 10
17.1948475507
 20
11.2494154174
 30
0.0
 10
17.2064628083
 20
11.2325443703
 30
0.0
 10
17.2169770726
 20
11.2146095756
 30
0.0
 10
17.2263811644
 20
11.1956733662
 30
0.0
 10
17.2346687862
 20
11.175793263
 30
0.0
 10
17.2443307072
 20
11.1478142651
 30
0.0
 10
17.2535389283
 20
11.1106508978
 30
0.0
 10
17.2588762346
 20
11.0719045969
 30
0.0
 10
17.2610207439
 20
11.0396881306
 30
0.0
 10
17.2613725662
 20
11.0231911861
 30
0.0
 10
17.2613725662
 20
11.0148581807
 30
0.0
  0
SPLINE
  5
2E3
100
AcDbEntity
  8
0
100
AcDbSpline
 62
7
  6
CONTINUOUS
 70
0
 71
3
 72
44
 73
40
 74
0
 42
0.0000001
 43
0.0000001
 44
0.0000000001
 40
0.0
 40
0.0
 40
0.0
 40
0.0
 40
0.0305974325
 40
0.0621262343
 40
0.0945113524
 40
0.1276936461
 40
0.1616041362
 40
0.1961511837
 40
0.2312341487
 40
0.2667451827
 40
0.3025707303
 40
0.338591488
 40
0.3746859319
 40
0.410731121
 40
0.4466052655
 40
0.4821884738
 40
0.5173657862
 40
0.5520274279
 40
0.5860726181
 40
0.6194090883
 40
0.6519580691
 40
0.6836530128
 40
0.7144453379
 40
0.7443027846
 40
0.7732151367
 40
0.8011927021
 40
0.8282705637
 40
0.8545063893
 40
0.8673360715
 40
0.8799878475
 40
0.8924746153
 40
0.9048103915
 40
0.9170115666
 40
0.9290952138
 40
0.9529545616
 40
0.9647711686
 40
0.9765349283
 40
0.9882696148
 40
1.0
 40
1.0
 40
1.0
 40
1.0
 10
17.2613725662
 20
11.0148581807
 30
0.0
 10
17.2613725662
 20
11.0021868751
 30
0.0
 10
17.2605389697
 20
10.9764527021
 30
0.0
 10
17.2569543927
 20
10.9374569377
 30
0.0
 10
17.2510421223
 20
10.8976632601
 30
0.0
 10
17.2428473513
 20
10.857271446
 30
0.0
 10
17.2324194
 20
10.8164741762
 30
0.0
 10
17.2198186918
 20
10.7754716972
 30
0.0
 10
17.2051117666
 20
10.734472609
 30
0.0
 10
17.1883800307
 20
10.6936851253
 30
0.0
 10
17.1697113029
 20
10.6533192066
 30
0.0
 10
17.1492048458
 20
10.6135833283
 30
0.0
 10
17.1269680451
 20
10.574684545
 30
0.0
 10
17.103116886
 20
10.5368258629
 30
0.0
 10
17.0777758138
 20
10.5002047521
 30
0.0
 10
17.0510741308
 20
10.4650132091
 30
0.0
 10
17.023149433
 20
10.4314338516
 30
0.0
 10
16.9941403916
 20
10.3996427957
 30
0.0
 10
16.9641927826
 20
10.3698035497
 30
0.0
 10
16.9334498743
 20
10.3420726524
 30
0.0
 10
16.9020597487
 20
10.3165919897
 30
0.0
 10
16.8701650689
 20
10.2934966699
 30
0.0
 10
16.8379103327
 20
10.2729072389
 30
0.0
 10
16.8054331084
 20
10.2549388018
 30
0.0
 10
16.7728707412
 20
10.2396947294
 30
0.0
 10
16.7403544094
 20
10.2272754517
 30
0.0
 10
16.7080189659
 20
10.2177762733
 30
0.0
 10
16.6811322245
 20
10.2123315616
 30
0.0
 10
16.6598868383
 20
10.2095658194
 30
0.0
 10
16.6442080256
 20
10.2082933781
 30
0.0
 10
16.6286893161
 20
10.207817379
 30
0.0
 10
16.6133531948
 20
10.2081470382
 30
0.0
 10
16.5982225142
 20
10.2092923751
 30
0.0
 10
16.5784490293
 20
10.2119053827
 30
0.0
 10
16.5590805552
 20
10.2161729686
 30
0.0
 10
16.5403455861
 20
10.2221182205
 30
0.0
 10
16.5266925995
 20
10.2273883836
 30
0.0
 10
16.5134241406
 20
10.2334753419
 30
0.0
 10
16.5048541453
 20
10.2380723345
 30
0.0
 10
16.5006470797
 20
10.240501285
 30
0.0
  0
SPLINE
  5
2E4
100
AcDbEntity
  8
0
100
AcDbSpline
 62
9
  6
CONTINUOUS
 70
0
 71
3
 72
42
 73
38
 74
0
 42
0.0000001
 43
0.0000001
 44
0.0000000001
 40
0.0
 40
0.0
 40
0.0
 40
0.0
 40
0.0306562632
 40
0.0623856467
 40
0.0950998168
 40
0.1287191851
 40
0.1631557968
 40
0.1983032817
 40
0.2340474384
 40
0.2702678767
 40
0.3068395081
 40
0.3436320667
 40
0.3805134393
 40
0.417350296
 40
0.4540101156
 40
0.4903620065
 40
0.5262787629
 40
0.5616378603
 40
0.596323576
 40
0.630227925
 40
0.6632533362
 40
0.6953134118
 40
0.7263364361
 40
0.7562659334
 40
0.7850651973
 40
0.8127177085
 40
0.839232671
 40
0.8646452395
 40
0.8890223678
 40
0.9124621392
 40
0.9350977643
 40
0.9461690515
 40
0.9571038326
 40
0.9679273235
 40
0.9786659646
 40
0.9893473581
 40
1.0
 40
1.0
 40
1.0
 40
1.0
 10
16.372137322
 20
10.5245519838
 30
0.0
 10
16.372137322
 20
10.537207335
 30
0.0
 10
16.3729738396
 20
10.5629667879
 30
0.0
 10
16.3765669177
 20
10.6020808394
 30
0.0
 10
16.38250969
 20
10.6421443101
 30
0.0
 10
16.3907638451
 20
10.6829348957
 30
0.0
 10
16.4012877137
 20
10.7242359264
 30
0.0
 10
16.4140210075
 20
10.7658272609
 30
0.0
 10
16.4288993003
 20
10.8074823853
 30
0.0
 10
16.4458385411
 20
10.8489778782
 30
0.0
 10
16.4647502394
 20
10.8900888045
 30
0.0
 10
16.4855297544
 20
10.9305945676
 30
0.0
 10
16.5080672106
 20
10.9702750517
 30
0.0
 10
16.53223892
 20
11.0089171491
 30
0.0
 10
16.5579159241
 20
11.046311213
 30
0.0
 10
16.5849584272
 20
11.0822562269
 30
0.0
 10
16.6132213141
 20
11.116557533
 30
0.0
 10
16.6425516987
 20
11.1490304836
 30
0.0
 10
16.6727915736
 20
11.1794998116
 30
0.0
 10
16.7037783744
 20
11.2078010505
 30
0.0
 10
16.7353448439
 20
11.233782193
 30
0.0
 10
16.7673223946
 20
11.2573022621
 30
0.0
 10
16.7995385182
 20
11.2782358247
 30
0.0
 10
16.8318224526
 20
11.2964679024
 30
0.0
 10
16.8640006125
 20
11.3119020773
 30
0.0
 10
16.8959037121
 20
11.3244507677
 30
0.0
 10
16.9273610804
 20
11.3340477783
 30
0.0
 10
16.9582074157
 20
11.3406331641
 30
0.0
 10
16.9882783522
 20
11.3441707786
 30
0.0
 10
17.0174105601
 20
11.3446289024
 30
0.0
 10
17.0409537528
 20
11.3424216155
 30
0.0
 10
17.0590885458
 20
11.3390917126
 30
0.0
 10
17.0722564534
 20
11.3358499449
 30
0.0
 10
17.0850704851
 20
11.3318507145
 30
0.0
 10
17.0975134734
 20
11.3270987862
 30
0.0
 10
17.109566689
 20
11.3215993763
 30
0.0
 10
17.1173365356
 20
11.3174380135
 30
0.0
 10
17.1211449633
 20
11.3152392729
 30
0.0
  0
SPLINE
  5
2E5
100
AcDbEntity
  8
0
100
AcDbSpline
 62
9
  6
CONTINUOUS
 70
0
 71
3
 72
22
 73
18
 74
0
 42
0.0000001
 43
0.0000001
 44
0.0000000001
 40
0.0
 40
0.0
 40
0.0
 40
0.0
 40
0.0538988698
 40
0.1080560683
 40
0.1627240566
 40
0.2181422133
 40
0.2745349428
 40
0.3321057189
 40
0.391034159
 40
0.4514778724
 40
0.5135648686
 40
0.5773964165
 40
0.6430535879
 40
0.7105975803
 40
0.8514510998
 40
0.9247940139
 40
1.0
 40
1.0
 40
1.0
 40
1.0
 10
16.5006474088
 20
10.2405018551
 30
0.0
 10
16.4955684174
 20
10.2434342048
 30
0.0
 10
16.4856311087
 20
10.2497495474
 30
0.0
 10
16.4715304791
 20
10.260491059
 30
0.0
 10
16.4582528289
 20
10.272483646
 30
0.0
 10
16.4458301237
 20
10.2856940923
 30
0.0
 10
16.434294314
 20
10.300091588
 30
0.0
 10
16.4236720131
 20
10.3156389982
 30
0.0
 10
16.4139863234
 20
10.332297111
 30
0.0
 10
16.4052627634
 20
10.3500266875
 30
0.0
 10
16.3975195667
 20
10.3687830274
 30
0.0
 10
16.390773205
 20
10.3885197201
 30
0.0
 10
16.385041723
 20
10.4091910315
 30
0.0
 10
16.3786798929
 20
10.4383366843
 30
0.0
 10
16.3745426121
 20
10.4687739415
 30
0.0
 10
16.3724774156
 20
10.5002021506
 30
0.0
 10
16.372137322
 20
10.5163688561
 30
0.0
 10
16.372137322
 20
10.5245519838
 30
0.0
  0
SPLINE
  5
2E6
100
AcDbEntity
  8
0
100
AcDbSpline
 62
9
  6
CONTINUOUS
 70
0
 71
3
 72
60
 73
56
 74
0
 42
0.0000001
 43
0.0000001
 44
0.0000000001
 40
0.0
 40
0.0
 40
0.0
 40
0.0
 40
0.0160802619
 40
0.0325448599
 40
0.0493754637
 40
0.0665532358
 40
0.0840597024
 40
0.1018752566
 40
0.1199782593
 40
0.1383440006
 40
0.1757549616
 40
0.2138931996
 40
0.2525249725
 40
0.2914057387
 40
0.3302864586
 40
0.3689181779
 40
0.4070565445
 40
0.4444673871
 40
0.4628329725
 40
0.4809360662
 40
0.5162537799
 40
0.5502528844
 40
0.5667160326
 40
0.5828004529
 40
0.5984947002
 40
0.6137912679
 40
0.6431666668
 40
0.6572567335
 40
0.6709535751
 40
0.6842687943
 40
0.6972195961
 40
0.7098275821
 40
0.7221197419
 40
0.7341288289
 40
0.745892158
 40
0.7574521288
 40
0.7688555816
 40
0.7801524878
 40
0.7913955303
 40
0.8026385761
 40
0.8139355033
 40
0.8253389769
 40
0.8368989382
 40
0.8486622017
 40
0.8606711978
 40
0.872963401
 40
0.8855717076
 40
0.8985227989
 40
0.9118377344
 40
0.925533346
 40
0.9396225905
 40
0.9541148484
 40
0.9690146877
 40
0.9843144034
 40
1.0
 40
1.0
 40
1.0
 40
1.0
 10
16.4287058649
 20
10.5245519841
 30
0.0
 10
16.4287100088
 20
10.5323992053
 30
0.0
 10
16.4290554652
 20
10.5482827446
 30
0.0
 10
16.4305447511
 20
10.5723379255
 30
0.0
 10
16.4330147126
 20
10.5968508052
 30
0.0
 10
16.4364673886
 20
10.6217576126
 30
0.0
 10
16.4408898096
 20
10.6469984382
 30
0.0
 10
16.4462702214
 20
10.6725138344
 30
0.0
 10
16.4525956447
 20
10.6982435314
 30
0.0
 10
16.4623263832
 20
10.7329644523
 30
0.0
 10
16.4767783877
 20
10.776490334
 30
0.0
 10
16.4974809117
 20
10.8282559016
 30
0.0
 10
16.5214537635
 20
10.8793839202
 30
0.0
 10
16.548467161
 20
10.9293838731
 30
0.0
 10
16.5782617041
 20
10.977778099
 30
0.0
 10
16.6105533463
 20
11.0241032815
 30
0.0
 10
16.6450327592
 20
11.0679147194
 30
0.0
 10
16.675500796
 20
11.1021935466
 30
0.0
 10
16.7007043769
 20
11.1279816602
 30
0.0
 10
16.7259883156
 20
11.1522371315
 30
0.0
 10
16.7582214315
 20
11.1802364131
 30
0.0
 10
16.7917270065
 20
11.2054003115
 30
0.0
 10
16.8187977643
 20
11.223352734
 30
0.0
 10
16.8389334974
 20
11.2355634651
 30
0.0
 10
16.8590725411
 20
11.2466333181
 30
0.0
 10
16.8855014096
 20
11.2596608805
 30
0.0
 10
16.9120938161
 20
11.2705434238
 30
0.0
 10
16.9386813163
 20
11.279022334
 30
0.0
 10
16.9581109871
 20
11.2840488782
 30
0.0
 10
16.9772578259
 20
11.2878154806
 30
0.0
 10
16.99607607
 20
11.2903154703
 30
0.0
 10
17.0145208706
 20
11.2915407067
 30
0.0
 10
17.0325477711
 20
11.2914855204
 30
0.0
 10
17.0501131008
 20
11.2901520949
 30
0.0
 10
17.0671740806
 20
11.2875405732
 30
0.0
 10
17.0836881985
 20
11.2836551837
 30
0.0
 10
17.0996151883
 20
11.2785076018
 30
0.0
 10
17.1149145534
 20
11.2721073223
 30
0.0
 10
17.1295473268
 20
11.264469727
 30
0.0
 10
17.1434781732
 20
11.2556163122
 30
0.0
 10
17.1566706613
 20
11.245566776
 30
0.0
 10
17.1690921728
 20
11.2343474599
 30
0.0
 10
17.1807141659
 20
11.2219886282
 30
0.0
 10
17.1915064004
 20
11.2085193359
 30
0.0
 10
17.2014440806
 20
11.1939742533
 30
0.0
 10
17.2105054109
 20
11.1783899743
 30
0.0
 10
17.2186663426
 20
11.1618031332
 30
0.0
 10
17.2259101696
 20
11.1442558304
 30
0.0
 10
17.2322218749
 20
11.1257915177
 30
0.0
 10
17.2375850533
 20
11.1064536858
 30
0.0
 10
17.2419878524
 20
11.0862872959
 30
0.0
 10
17.2454190402
 20
11.0653381008
 30
0.0
 10
17.2478660442
 20
11.0436573855
 30
0.0
 10
17.2493320249
 20
11.0213059038
 30
0.0
 10
17.249653235
 20
11.0061828723
 30
0.0
 10
17.249656837
 20
10.9985282488
 30
0.0
  0
SPLINE
  5
2E7
100
AcDbEntity
  8
0
100
AcDbSpline
 62
9
  6
CONTINUOUS
 70
0
 71
3
 72
60
 73
56
 74
0
 42
0.0000001
 43
0.0000001
 44
0.0000000001
 40
0.0
 40
0.0
 40
0.0
 40
0.0
 40
0.0160802619
 40
0.0325448599
 40
0.0493754637
 40
0.0665532358
 40
0.0840597024
 40
0.1018752566
 40
0.1199782593
 40
0.1383440006
 40
0.1757549616
 40
0.2138931996
 40
0.2525249725
 40
0.2914057387
 40
0.3302864586
 40
0.3689181779
 40
0.4070565445
 40
0.4444673871
 40
0.4628329725
 40
0.4809360662
 40
0.5162537799
 40
0.5502528844
 40
0.5667160326
 40
0.5828004529
 40
0.5984947002
 40
0.6137912679
 40
0.6431666668
 40
0.6572567335
 40
0.6709535751
 40
0.6842687943
 40
0.6972195961
 40
0.7098275821
 40
0.7221197419
 40
0.7341288289
 40
0.745892158
 40
0.7574521288
 40
0.7688555816
 40
0.7801524878
 40
0.7913955303
 40
0.8026385761
 40
0.8139355033
 40
0.8253389769
 40
0.8368989382
 40
0.8486622017
 40
0.8606711978
 40
0.872963401
 40
0.8855717076
 40
0.8985227989
 40
0.9118377344
 40
0.925533346
 40
0.9396225905
 40
0.9541148484
 40
0.9690146877
 40
0.9843144034
 40
1.0
 40
1.0
 40
1.0
 40
1.0
 10
17.249656837
 20
10.9985282488
 30
0.0
 10
17.2496526931
 20
10.9906810276
 30
0.0
 10
17.2493072367
 20
10.9747974883
 30
0.0
 10
17.2478179508
 20
10.9507423074
 30
0.0
 10
17.2453479893
 20
10.9262294276
 30
0.0
 10
17.2418953133
 20
10.9013226203
 30
0.0
 10
17.2374728923
 20
10.8760817947
 30
0.0
 10
17.2320924805
 20
10.8505663985
 30
0.0
 10
17.2257670572
 20
10.8248367015
 30
0.0
 10
17.2160363187
 20
10.7901157805
 30
0.0
 10
17.2015843142
 20
10.7465898988
 30
0.0
 10
17.1808817902
 20
10.6948243312
 30
0.0
 10
17.1569089384
 20
10.6436963127
 30
0.0
 10
17.1298955409
 20
10.5936963598
 30
0.0
 10
17.1001009978
 20
10.5453021339
 30
0.0
 10
17.0678093556
 20
10.4989769514
 30
0.0
 10
17.0333299427
 20
10.4551655135
 30
0.0
 10
17.0028619059
 20
10.4208866862
 30
0.0
 10
16.977658325
 20
10.3950985726
 30
0.0
 10
16.9523743863
 20
10.3708431014
 30
0.0
 10
16.9201412704
 20
10.3428438198
 30
0.0
 10
16.8866356954
 20
10.3176799214
 30
0.0
 10
16.8595649376
 20
10.2997274989
 30
0.0
 10
16.8394292044
 20
10.2875167678
 30
0.0
 10
16.8192901608
 20
10.2764469148
 30
0.0
 10
16.7928612923
 20
10.2634193523
 30
0.0
 10
16.7662688858
 20
10.2525368091
 30
0.0
 10
16.7396813856
 20
10.2440578988
 30
0.0
 10
16.7202517148
 20
10.2390313547
 30
0.0
 10
16.701104876
 20
10.2352647522
 30
0.0
 10
16.6822866319
 20
10.2327647625
 30
0.0
 10
16.6638418313
 20
10.2315395261
 30
0.0
 10
16.6458149308
 20
10.2315947125
 30
0.0
 10
16.6282496011
 20
10.232928138
 30
0.0
 10
16.6111886213
 20
10.2355396597
 30
0.0
 10
16.5946745034
 20
10.2394250491
 30
0.0
 10
16.5787475136
 20
10.2445726311
 30
0.0
 10
16.5634481485
 20
10.2509729105
 30
0.0
 10
16.5488153751
 20
10.2586105059
 30
0.0
 10
16.5348845287
 20
10.2674639207
 30
0.0
 10
16.5216920406
 20
10.2775134569
 30
0.0
 10
16.5092705291
 20
10.288732773
 30
0.0
 10
16.497648536
 20
10.3010916047
 30
0.0
 10
16.4868563015
 20
10.3145608969
 30
0.0
 10
16.4769186213
 20
10.3291059796
 30
0.0
 10
16.467857291
 20
10.3446902586
 30
0.0
 10
16.4596963593
 20
10.3612770997
 30
0.0
 10
16.4524525322
 20
10.3788244025
 30
0.0
 10
16.446140827
 20
10.3972887151
 30
0.0
 10
16.4407776486
 20
10.4166265471
 30
0.0
 10
16.4363748495
 20
10.4367929369
 30
0.0
 10
16.4329436617
 20
10.4577421321
 30
0.0
 10
16.4304966577
 20
10.4794228473
 30
0.0
 10
16.429030677
 20
10.5017743291
 30
0.0
 10
16.4287094669
 20
10.5168973606
 30
0.0
 10
16.4287058649
 20
10.5245519841
 30
0.0
  0
SPLINE
  5
2E8
100
AcDbEntity
  8
0
100
AcDbSpline
 62
7
  6
CONTINUOUS
 70
0
 71
3
 72
13
 73
9
 74
0
 42
0.0000001
 43
0.0000001
 44
0.0000000001
 40
0.0
 40
0.0
 40
0.0
 40
0.0
 40
0.1164383618
 40
0.2356006904
 40
0.4814903129
 40
0.6079889842
 40
0.736675539
 40
1.0
 40
1.0
 40
1.0
 40
1.0
 10
15.0056534673
 20
12.6815318265
 30
0.0
 10
15.0056534673
 20
12.6677342735
 30
0.0
 10
15.0050711337
 20
12.6398131081
 30
0.0
 10
15.0016467756
 20
12.5828503152
 30
0.0
 10
14.9948486887
 20
12.5249399726
 30
0.0
 10
14.9848987725
 20
12.4663955762
 30
0.0
 10
14.9725821518
 20
12.4061918275
 30
0.0
 10
14.9610473917
 20
12.3611530633
 30
0.0
 10
14.9524009758
 20
12.331171895
 30
0.0
  0
SPLINE
  5
2E9
100
AcDbEntity
  8
0
100
AcDbSpline
 62
7
  6
CONTINUOUS
 70
0
 71
3
 72
26
 73
22
 74
0
 42
0.0000001
 43
0.0000001
 44
0.0000000001
 40
0.0
 40
0.0
 40
0.0
 40
0.0
 40
0.0790836923
 40
0.1563612744
 40
0.2316186583
 40
0.3046658993
 40
0.3753475171
 40
0.4435412706
 40
0.5091705187
 40
0.5722030287
 40
0.6326650556
 40
0.6906402205
 40
0.7462835943
 40
0.7998190767
 40
0.8515487097
 40
0.8768604297
 40
0.9018661216
 40
0.9266223891
 40
0.9511885427
 40
0.9756264671
 40
1.0
 40
1.0
 40
1.0
 40
1.0
 10
14.5364506662
 20
11.6107244772
 30
0.0
 10
14.5198046167
 20
11.5934342038
 30
0.0
 10
14.4860950798
 20
11.5600044944
 30
0.0
 10
14.4338015129
 20
11.5129885829
 30
0.0
 10
14.3805855835
 20
11.4698674919
 30
0.0
 10
14.3267242308
 20
11.4308746469
 30
0.0
 10
14.2725036306
 20
11.3962105457
 30
0.0
 10
14.2182033636
 20
11.366064307
 30
0.0
 10
14.1641106602
 20
11.3405895842
 30
0.0
 10
14.1105029387
 20
11.3199303603
 30
0.0
 10
14.0576618647
 20
11.3041913107
 30
0.0
 10
14.0058587675
 20
11.2934709307
 30
0.0
 10
13.9553644175
 20
11.2878252685
 30
0.0
 10
13.9064473567
 20
11.287306216
 30
0.0
 10
13.8669168825
 20
11.2911823782
 30
0.0
 10
13.8364607951
 20
11.2968843537
 30
0.0
 10
13.8143396728
 20
11.3023986151
 30
0.0
 10
13.7928087279
 20
11.3091729995
 30
0.0
 10
13.77189622
 20
11.317199661
 30
0.0
 10
13.751632943
 20
11.3264699174
 30
0.0
 10
13.7385663759
 20
11.3334737571
 30
0.0
 10
13.7321602737
 20
11.3371721972
 30
0.0
  0
SPLINE
  5
2EA
100
AcDbEntity
  8
0
100
AcDbSpline
 62
7
  6
CONTINUOUS
 70
0
 71
3
 72
19
 73
15
 74
0
 42
0.0000001
 43
0.0000001
 44
0.0000000001
 40
0.0
 40
0.0
 40
0.0
 40
0.0
 40
0.1449887346
 40
0.2839219172
 40
0.4166617967
 40
0.5433781448
 40
0.6045987626
 40
0.6644575274
 40
0.7230247533
 40
0.7803863981
 40
0.8366447363
 40
0.8919136017
 40
0.946318915
 40
1.0
 40
1.0
 40
1.0
 40
1.0
 10
13.5437101972
 20
11.837478486
 30
0.0
 10
13.5437101972
 20
11.8157519143
 30
0.0
 10
13.545163739
 20
11.7731876596
 30
0.0
 10
13.5520000026
 20
11.7110626812
 30
0.0
 10
13.5634251314
 20
11.6523938649
 30
0.0
 10
13.5768652272
 20
11.6061744182
 30
0.0
 10
13.5898994429
 20
11.5713899712
 30
0.0
 10
13.6006496308
 20
11.5466952662
 30
0.0
 10
13.6124707739
 20
11.5231396951
 30
0.0
 10
13.6253455208
 20
11.5007622688
 30
0.0
 10
13.639250711
 20
11.4795982955
 30
0.0
 10
13.6541648684
 20
11.4596820554
 30
0.0
 10
13.6700657526
 20
11.4410496868
 30
0.0
 10
13.6813738476
 20
11.4294342671
 30
0.0
 10
13.6871762016
 20
11.4238628704
 30
0.0
  0
SPLINE
  5
2EB
100
AcDbEntity
  8
0
100
AcDbSpline
 62
7
  6
CONTINUOUS
 70
0
 71
3
 72
9
 73
5
 74
0
 42
0.0000001
 43
0.0000001
 44
0.0000000001
 40
0.0
 40
0.0
 40
0.0
 40
0.0
 40
0.5024547254
 40
1.0
 40
1.0
 40
1.0
 40
1.0
 10
13.6871762016
 20
11.4238628704
 30
0.0
 10
13.6972118924
 20
11.4142266409
 30
0.0
 10
13.7183261635
 20
11.3961975265
 30
0.0
 10
13.7414787379
 20
11.3808666551
 30
0.0
 10
13.753410126
 20
11.3739782801
 30
0.0
  0
SPLINE
  5
2EC
100
AcDbEntity
  8
0
100
AcDbSpline
 62
7
  6
CONTINUOUS
 70
0
 71
3
 72
15
 73
11
 74
0
 42
0.0000001
 43
0.0000001
 44
0.0000000001
 40
0.0
 40
0.0
 40
0.0
 40
0.0
 40
0.1363012004
 40
0.268412346
 40
0.3967105425
 40
0.5216604462
 40
0.6438117181
 40
0.7637858876
 40
0.8822716503
 40
1.0
 40
1.0
 40
1.0
 40
1.0
 10
13.7290508216
 20
11.2285968306
 30
0.0
 10
13.7130639443
 20
11.2256944789
 30
0.0
 10
13.6813676126
 20
11.2210791706
 30
0.0
 10
13.6341428262
 20
11.2178196922
 30
0.0
 10
13.5881548714
 20
11.2183528535
 30
0.0
 10
13.543557373
 20
11.2226854594
 30
0.0
 10
13.5004962328
 20
11.230801159
 30
0.0
 10
13.4591167198
 20
11.2426887615
 30
0.0
 10
13.4195616812
 20
11.2582998575
 30
0.0
 10
13.3944612389
 20
11.2711808178
 30
0.0
 10
13.3823069325
 20
11.278197269
 30
0.0
  0
SPLINE
  5
2ED
100
AcDbEntity
  8
0
100
AcDbSpline
 62
7
  6
CONTINUOUS
 70
0
 71
3
 72
15
 73
11
 74
0
 42
0.0000001
 43
0.0000001
 44
0.0000000001
 40
0.0
 40
0.0
 40
0.0
 40
0.0
 40
0.1182409296
 40
0.2371796481
 40
0.3574958774
 40
0.479826895
 40
0.6047589547
 40
0.7328123202
 40
0.8644343651
 40
1.0
 40
1.0
 40
1.0
 40
1.0
 10
14.6632431505
 20
13.4969888458
 30
0.0
 10
14.6748959927
 20
13.4902618804
 30
0.0
 10
14.6976459492
 20
13.4756521716
 30
0.0
 10
14.7297036003
 20
13.4505157293
 30
0.0
 10
14.7596391497
 20
13.4222021298
 30
0.0
 10
14.7873650031
 20
13.3908107484
 30
0.0
 10
14.8127949198
 20
13.3564345737
 30
0.0
 10
14.8358576268
 20
13.3191820347
 30
0.0
 10
14.8564887768
 20
13.2791699577
 30
0.0
 10
14.8683972004
 20
13.2511613438
 30
0.0
 10
14.8739442596
 20
13.2367665571
 30
0.0
  0
SPLINE
  5
2EE
100
AcDbEntity
  8
0
100
AcDbSpline
 62
7
  6
CONTINUOUS
 70
0
 71
3
 72
21
 73
17
 74
0
 42
0.0000001
 43
0.0000001
 44
0.0000000001
 40
0.0
 40
0.0
 40
0.0
 40
0.0
 40
0.0752144211
 40
0.1485621305
 40
0.2894176944
 40
0.4225741308
 40
0.4864099609
 40
0.5485001779
 40
0.6089456111
 40
0.6678767924
 40
0.7254503219
 40
0.7818455752
 40
0.8372669682
 40
0.8919377498
 40
0.9460978428
 40
1.0
 40
1.0
 40
1.0
 40
1.0
 10
13.071009314
 20
11.8911631361
 30
0.0
 10
13.071009314
 20
11.8742674979
 30
0.0
 10
13.0717112588
 20
11.8408896014
 30
0.0
 10
13.0759755354
 20
11.7760004156
 30
0.0
 10
13.0865037909
 20
11.6985531837
 30
0.0
 10
13.1045815386
 20
11.6246685729
 30
0.0
 10
13.1234156599
 20
11.5695682734
 30
0.0
 10
13.1394023568
 20
11.5308440428
 30
0.0
 10
13.1574156152
 20
11.4942421597
 30
0.0
 10
13.1774125496
 20
11.4598510052
 30
0.0
 10
13.1993436718
 20
11.4277529316
 30
0.0
 10
13.2231635062
 20
11.3980311456
 30
0.0
 10
13.2488109219
 20
11.3707573157
 30
0.0
 10
13.276225177
 20
11.3459992886
 30
0.0
 10
13.3053400888
 20
11.3238268312
 30
0.0
 10
13.3258563936
 20
11.310788332
 30
0.0
 10
13.3363426777
 20
11.3047347064
 30
0.0
  0
SPLINE
  5
2EF
100
AcDbEntity
  8
0
100
AcDbSpline
 62
7
  6
CONTINUOUS
 70
0
 71
3
 72
45
 73
41
 74
0
 42
0.0000001
 43
0.0000001
 44
0.0000000001
 40
0.0
 40
0.0
 40
0.0
 40
0.0
 40
0.0106523708
 40
0.0213335888
 40
0.0320720354
 40
0.0428952705
 40
0.0538299051
 40
0.0649011853
 40
0.0761324583
 40
0.0875453511
 40
0.1109852371
 40
0.1353618962
 40
0.147937241
 40
0.1607810943
 40
0.187295547
 40
0.2009811109
 40
0.2149531667
 40
0.2437518489
 40
0.2736812728
 40
0.3047036356
 40
0.3367633206
 40
0.3697880091
 40
0.4036917244
 40
0.4383766674
 40
0.4737349133
 40
0.5096507589
 40
0.5460016122
 40
0.5826603937
 40
0.6194961741
 40
0.6563763965
 40
0.693167872
 40
0.7297384358
 40
0.7659580459
 40
0.8017011221
 40
0.8368476681
 40
0.8712836911
 40
0.9049026193
 40
0.9376152551
 40
0.9693433073
 40
1.0
 40
1.0
 40
1.0
 40
1.0
 10
14.6172835237
 20
13.523523686
 30
0.0
 10
14.6094211376
 20
13.5280625618
 30
0.0
 10
14.5933802118
 20
13.5366525156
 30
0.0
 10
14.5684952149
 20
13.5480016635
 30
0.0
 10
14.5428072072
 20
13.5578109585
 30
0.0
 10
14.5163531876
 20
13.5660671912
 30
0.0
 10
14.4891685673
 20
13.5727573764
 30
0.0
 10
14.4612911754
 20
13.5778718206
 30
0.0
 10
14.4327592456
 20
13.5814070672
 30
0.0
 10
14.3935543118
 20
13.5840329576
 30
0.0
 10
14.3429806047
 20
13.5832320408
 30
0.0
 10
14.2917808987
 20
13.5772105568
 30
0.0
 10
14.2500656354
 20
13.5693434701
 30
0.0
 10
14.2069702928
 20
13.559200831
 30
0.0
 10
14.1636723824
 20
13.5459938883
 30
0.0
 10
14.1203688379
 20
13.5299620414
 30
0.0
 10
14.0759001721
 20
13.5115613616
 30
0.0
 10
14.019985323
 20
13.4847428288
 30
0.0
 10
13.9533404564
 20
13.4471004174
 30
0.0
 10
13.8868311137
 20
13.4038840025
 30
0.0
 10
13.8208169414
 20
13.3553259979
 30
0.0
 10
13.7556503492
 20
13.3016885424
 30
0.0
 10
13.691680602
 20
13.2432616698
 30
0.0
 10
13.6292538683
 20
13.1803581158
 30
0.0
 10
13.5687028501
 20
13.1133202443
 30
0.0
 10
13.5103585263
 20
13.0425057155
 30
0.0
 10
13.4545300254
 20
12.9683008578
 30
0.0
 10
13.4015247158
 20
12.8911017262
 30
0.0
 10
13.3516223973
 20
12.8113292543
 30
0.0
 10
13.3050985392
 20
12.7294103994
 30
0.0
 10
13.2621990111
 20
12.6457904516
 30
0.0
 10
13.2231598679
 20
12.5609187578
 30
0.0
 10
13.1881885434
 20
12.4752550404
 30
0.0
 10
13.1574753388
 20
12.3892603695
 30
0.0
 10
13.1311869359
 20
12.3033983658
 30
0.0
 10
13.1094627325
 20
12.2181343009
 30
0.0
 10
13.0924220251
 20
12.1339251488
 30
0.0
 10
13.0801540874
 20
12.0512175612
 30
0.0
 10
13.0727357351
 20
11.9704694331
 30
0.0
 10
13.071009314
 20
11.9172902476
 30
0.0
 10
13.071009314
 20
11.8911631361
 30
0.0
  0
SPLINE
  5
2F0
100
AcDbEntity
  8
0
100
AcDbSpline
 62
7
  6
CONTINUOUS
 70
0
 71
3
 72
9
 73
5
 74
0
 42
0.0000001
 43
0.0000001
 44
0.0000000001
 40
0.0
 40
0.0
 40
0.0
 40
0.0
 40
0.4975443518
 40
1.0
 40
1.0
 40
1.0
 40
1.0
 10
14.7659015004
 20
13.12768148
 30
0.0
 10
14.7539678612
 20
13.1345711545
 30
0.0
 10
14.7291094103
 20
13.1469578417
 30
0.0
 10
14.7029330636
 20
13.1562290542
 30
0.0
 10
14.6895671642
 20
13.1601019365
 30
0.0
  0
SPLINE
  5
2F1
100
AcDbEntity
  8
0
100
AcDbSpline
 62
7
  6
CONTINUOUS
 70
0
 71
3
 72
39
 73
35
 74
0
 42
0.0000001
 43
0.0000001
 44
0.0000000001
 40
0.0
 40
0.0
 40
0.0
 40
0.0
 40
0.0215071685
 40
0.0435799586
 40
0.0663657382
 40
0.0899866924
 40
0.1400385701
 40
0.1532011842
 40
0.1666262063
 40
0.1942653451
 40
0.222957063
 40
0.2526801529
 40
0.2833960042
 40
0.3150521015
 40
0.3475828414
 40
0.3809118638
 40
0.4149533994
 40
0.4496135801
 40
0.4847922152
 40
0.5203833905
 40
0.5562774924
 40
0.5923614524
 40
0.6285208466
 40
0.6646401667
 40
0.7006045052
 40
0.7363001228
 40
0.7716161611
 40
0.8064462128
 40
0.8406878048
 40
0.8742437046
 40
0.9070251996
 40
0.9389593329
 40
0.9699767112
 40
1.0
 40
1.0
 40
1.0
 40
1.0
 10
14.6895671642
 20
13.1601019365
 30
0.0
 10
14.676224912
 20
13.1639679669
 30
0.0
 10
14.6487094203
 20
13.1702299683
 30
0.0
 10
14.6060421032
 20
13.1750755525
 30
0.0
 10
14.5617357595
 20
13.1754775792
 30
0.0
 10
14.4996011474
 20
13.1699817492
 30
0.0
 10
14.4446167385
 20
13.1573598906
 30
0.0
 10
14.3976102327
 20
13.1418549442
 30
0.0
 10
14.3647676901
 20
13.1296608879
 30
0.0
 10
14.3234018083
 20
13.1117131283
 30
0.0
 10
14.2739429148
 20
13.0862759864
 30
0.0
 10
14.2244253307
 20
13.0568491222
 30
0.0
 10
14.1750814323
 20
13.0235785399
 30
0.0
 10
14.1261468639
 20
12.9866193076
 30
0.0
 10
14.077851789
 20
12.9461503703
 30
0.0
 10
14.0304272474
 20
12.9023626186
 30
0.0
 10
13.9840977537
 20
12.8554660947
 30
0.0
 10
13.9390845514
 20
12.8056836154
 30
0.0
 10
13.8956020916
 20
12.7532528627
 30
0.0
 10
13.8538572949
 20
12.6984240994
 30
0.0
 10
13.8140503143
 20
12.6414584265
 30
0.0
 10
13.776369567
 20
12.5826285873
 30
0.0
 10
13.7409969969
 20
12.5222141991
 30
0.0
 10
13.7080988334
 20
12.46050499
 30
0.0
 10
13.6778353874
 20
12.397794019
 30
0.0
 10
13.6503471439
 20
12.3343825408
 30
0.0
 10
13.6257696744
 20
12.2705709331
 30
0.0
 10
13.6042155565
 20
12.2066650986
 30
0.0
 10
13.585793486
 20
12.142968553
 30
0.0
 10
13.570584123
 20
12.0797881162
 30
0.0
 10
13.5586666691
 20
12.0174200309
 30
0.0
 10
13.5500930556
 20
11.9561574045
 30
0.0
 10
13.5449131902
 20
11.8963028716
 30
0.0
 10
13.5437101972
 20
11.8568699585
 30
0.0
 10
13.5437101972
 20
11.837478486
 30
0.0
  0
SPLINE
  5
2F2
100
AcDbEntity
  8
0
100
AcDbSpline
 62
7
  6
CONTINUOUS
 70
0
 71
3
 72
22
 73
18
 74
0
 42
0.0000001
 43
0.0000001
 44
0.0000000001
 40
0.0
 40
0.0
 40
0.0
 40
0.0
 40
0.0538988242
 40
0.1080559533
 40
0.1627238446
 40
0.2181418889
 40
0.2745345136
 40
0.332105178
 40
0.3910335246
 40
0.4514771745
 40
0.5135640874
 40
0.5773955627
 40
0.6430527144
 40
0.7105967752
 40
0.8514507843
 40
0.924793904
 40
1.0
 40
1.0
 40
1.0
 40
1.0
 10
14.7871513527
 20
13.1644875629
 30
0.0
 10
14.7957869903
 20
13.1595019434
 30
0.0
 10
14.812683068
 20
13.1487644881
 30
0.0
 10
14.8366578948
 20
13.1305014724
 30
0.0
 10
14.8592334857
 20
13.1101113318
 30
0.0
 10
14.8803554469
 20
13.0876504789
 30
0.0
 10
14.8999694203
 20
13.0631712812
 30
0.0
 10
14.9180302438
 20
13.0367369418
 30
0.0
 10
14.9344985658
 20
13.0084140752
 30
0.0
 10
14.9493309796
 20
12.9782694045
 30
0.0
 10
14.9624965726
 20
12.9463789774
 30
0.0
 10
14.9739672576
 20
12.912821664
 30
0.0
 10
14.983712352
 20
12.8776752128
 30
0.0
 10
14.9945292756
 20
12.8281201284
 30
0.0
 10
15.0015637768
 20
12.776368911
 30
0.0
 10
15.0050752071
 20
12.7229328163
 30
0.0
 10
15.0056534673
 20
12.6954452456
 30
0.0
 10
15.0056534673
 20
12.6815318265
 30
0.0
  0
SPLINE
  5
2F3
100
AcDbEntity
  8
0
100
AcDbSpline
 62
7
  6
CONTINUOUS
 70
0
 71
3
 72
22
 73
18
 74
0
 42
0.0000001
 43
0.0000001
 44
0.0000000001
 40
0.0
 40
0.0
 40
0.0
 40
0.0
 40
0.0604008825
 40
0.1206998312
 40
0.1810607436
 40
0.2415807526
 40
0.3022805433
 40
0.3631754428
 40
0.424342906
 40
0.4858618202
 40
0.5478046784
 40
0.6102651718
 40
0.6733198613
 40
0.7370414242
 40
0.801512421
 40
0.8667992146
 40
1.0
 40
1.0
 40
1.0
 40
1.0
 10
13.4508276528
 20
11.3032988767
 30
0.0
 10
13.4629254147
 20
11.2963142306
 30
0.0
 10
13.4876390388
 20
11.2832665207
 30
0.0
 10
13.5260720424
 20
11.2665462191
 30
0.0
 10
13.5656754172
 20
11.25273754
 30
0.0
 10
13.6062725585
 20
11.2418492995
 30
0.0
 10
13.6476643964
 20
11.2338683848
 30
0.0
 10
13.6896617925
 20
11.2287980512
 30
0.0
 10
13.7320932277
 20
11.2265797632
 30
0.0
 10
13.7748192231
 20
11.2271414892
 30
0.0
 10
13.8177212958
 20
11.2304132019
 30
0.0
 10
13.8606981601
 20
11.2363109452
 30
0.0
 10
13.9036659859
 20
11.2447524292
 30
0.0
 10
13.9465527486
 20
11.2556593776
 30
0.0
 10
13.9893003879
 20
11.2689564075
 30
0.0
 10
14.0464131142
 20
11.2899068886
 30
0.0
 10
14.0883391916
 20
11.3088092178
 30
0.0
 10
14.1158551915
 20
11.3226616801
 30
0.0
  0
SPLINE
  5
2F4
100
AcDbEntity
  8
0
100
AcDbSpline
 62
7
  6
CONTINUOUS
 70
0
 71
3
 72
20
 73
16
 74
0
 42
0.0000001
 43
0.0000001
 44
0.0000000001
 40
0.0
 40
0.0
 40
0.0
 40
0.0
 40
0.1332336866
 40
0.2629394758
 40
0.3896699284
 40
0.4521338618
 40
0.5140894263
 40
0.5756097595
 40
0.636783075
 40
0.6976790772
 40
0.7583739989
 40
0.8189135461
 40
0.8793076185
 40
0.9396192504
 40
1.0
 40
1.0
 40
1.0
 40
1.0
 10
14.9915316742
 20
12.840138517
 30
0.0
 10
14.9897514184
 20
12.8708674021
 30
0.0
 10
14.9836409757
 20
12.9314046586
 30
0.0
 10
14.966080924
 20
13.0198405419
 30
0.0
 10
14.9441959104
 20
13.0903633027
 30
0.0
 10
14.9222444845
 20
13.1441041286
 30
0.0
 10
14.9036237437
 20
13.1828464307
 30
0.0
 10
14.8827527285
 20
13.2200841475
 30
0.0
 10
14.8596218729
 20
13.255673061
 30
0.0
 10
14.834249769
 20
13.2894648349
 30
0.0
 10
14.8066651022
 20
13.3212852623
 30
0.0
 10
14.7769482345
 20
13.3509617883
 30
0.0
 10
14.7452061652
 20
13.3783293722
 30
0.0
 10
14.7115381998
 20
13.403225665
 30
0.0
 10
14.6879082804
 20
13.4180863623
 30
0.0
 10
14.6758276528
 20
13.4250611159
 30
0.0
  0
SPLINE
  5
2F5
100
AcDbEntity
  8
0
100
AcDbSpline
 62
7
  6
CONTINUOUS
 70
0
 71
3
 72
42
 73
38
 74
0
 42
0.0000001
 43
0.0000001
 44
0.0000000001
 40
0.0
 40
0.0
 40
0.0
 40
0.0
 40
0.030343074
 40
0.0617177807
 40
0.0940428473
 40
0.1272454717
 40
0.1612444845
 40
0.1959419108
 40
0.2312326247
 40
0.2670057146
 40
0.3031454958
 40
0.3395314182
 40
0.3760408834
 40
0.4125498056
 40
0.4489344159
 40
0.4850718297
 40
0.5208421884
 40
0.5561290184
 40
0.5908216725
 40
0.6248153248
 40
0.6580142233
 40
0.690331237
 40
0.7216919848
 40
0.7520340721
 40
0.7813119842
 40
0.8094964133
 40
0.8365797054
 40
0.8497142168
 40
0.8625809825
 40
0.887529914
 40
0.9114991462
 40
0.9345865904
 40
0.9569200619
 40
0.9678568302
 40
0.978666365
 40
0.9893724497
 40
1.0
 40
1.0
 40
1.0
 40
1.0
 10
13.1169712548
 20
11.8646269973
 30
0.0
 10
13.1169712548
 20
11.8899576062
 30
0.0
 10
13.1185935571
 20
11.9414909722
 30
0.0
 10
13.1255730263
 20
12.0197260567
 30
0.0
 10
13.1371199042
 20
12.0998308962
 30
0.0
 10
13.1531646845
 20
12.1813873187
 30
0.0
 10
13.1736302526
 20
12.26398783
 30
0.0
 10
13.1984076295
 20
12.347217288
 30
0.0
 10
13.2273771207
 20
12.4306498306
 30
0.0
 10
13.2603865484
 20
12.5138635562
 30
0.0
 10
13.2972714497
 20
12.5964349786
 30
0.0
 10
13.3378423214
 20
12.6779457357
 30
0.0
 10
13.3818943384
 20
12.7579806402
 30
0.0
 10
13.4292031955
 20
12.8361332717
 30
0.0
 10
13.4795278664
 20
12.9120067808
 30
0.0
 10
13.5326141797
 20
12.9852147576
 30
0.0
 10
13.5881901149
 20
13.055386875
 30
0.0
 10
13.6459766879
 20
13.1221644764
 30
0.0
 10
13.7056767234
 20
13.185211631
 30
0.0
 10
13.7669920076
 20
13.2442043682
 30
0.0
 10
13.8296068158
 20
13.2988480783
 30
0.0
 10
13.8932096937
 20
13.348859924
 30
0.0
 10
13.9574738402
 20
13.3939925964
 30
0.0
 10
14.0220807287
 20
13.4340096632
 30
0.0
 10
14.0867008931
 20
13.468715725
 30
0.0
 10
14.1510125259
 20
13.4979235876
 30
0.0
 10
14.2046201292
 20
13.5177648919
 30
0.0
 10
14.2470278803
 20
13.5306649225
 30
0.0
 10
14.2881991993
 20
13.5413813693
 30
0.0
 10
14.338902444
 20
13.551225652
 30
0.0
 10
14.3988052376
 20
13.5572191378
 30
0.0
 10
14.4568326576
 20
13.5572366298
 30
0.0
 10
14.5037173451
 20
13.5522108796
 30
0.0
 10
14.5398525537
 20
13.5451664302
 30
0.0
 10
14.5661121164
 20
13.5384375974
 30
0.0
 10
14.5916778004
 20
13.5302377747
 30
0.0
 10
14.6082886616
 20
13.5237785098
 30
0.0
 10
14.616454806
 20
13.5203107107
 30
0.0
  0
SPLINE
  5
2F6
100
AcDbEntity
  8
0
100
AcDbSpline
 62
7
  6
CONTINUOUS
 70
0
 71
3
 72
21
 73
17
 74
0
 42
0.0000001
 43
0.0000001
 44
0.0000000001
 40
0.0
 40
0.0
 40
0.0
 40
0.0
 40
0.075214412
 40
0.1485620908
 40
0.2894176137
 40
0.4225741175
 40
0.4864099922
 40
0.5485002501
 40
0.6089457118
 40
0.6678769043
 40
0.725450432
 40
0.7818456712
 40
0.8372670408
 40
0.891937797
 40
0.9460978663
 40
1.0
 40
1.0
 40
1.0
 40
1.0
 10
13.1565692345
 20
11.8874889015
 30
0.0
 10
13.1565692345
 20
11.8713318696
 30
0.0
 10
13.1572404912
 20
11.839413119
 30
0.0
 10
13.1613183472
 20
11.7773606249
 30
0.0
 10
13.1713863607
 20
11.7032990534
 30
0.0
 10
13.1886738277
 20
11.6326443427
 30
0.0
 10
13.2066846212
 20
11.5799527617
 30
0.0
 10
13.2219724625
 20
11.5429213663
 30
0.0
 10
13.2391982713
 20
11.5079195459
 30
0.0
 10
13.258321042
 20
11.4750318237
 30
0.0
 10
13.2792934388
 20
11.4443369464
 30
0.0
 10
13.3020719733
 20
11.4159144794
 30
0.0
 10
13.3265981957
 20
11.3898329627
 30
0.0
 10
13.3528140147
 20
11.3661572694
 30
0.0
 10
13.3806561416
 20
11.3449541129
 30
0.0
 10
13.4002755569
 20
11.332485611
 30
0.0
 10
13.4103034232
 20
11.3266966291
 30
0.0
  0
SPLINE
  5
2F7
100
AcDbEntity
  8
0
100
AcDbSpline
 62
7
  6
CONTINUOUS
 70
0
 71
3
 72
12
 73
8
 74
0
 42
0.0000001
 43
0.0000001
 44
0.0000000001
 40
0.0
 40
0.0
 40
0.0
 40
0.0
 40
0.2676463499
 40
0.5235679421
 40
0.647061385
 40
0.7675991135
 40
1.0
 40
1.0
 40
1.0
 40
1.0
 10
14.9756014291
 20
12.6641812741
 30
0.0
 10
14.9756014291
 20
12.6868822109
 30
0.0
 10
14.974016797
 20
12.7313093933
 30
0.0
 10
14.9677186964
 20
12.7858963051
 30
0.0
 10
14.960076066
 20
12.8276210491
 30
0.0
 10
14.9509829839
 20
12.8670029073
 30
0.0
 10
14.9421691946
 20
12.8956809455
 30
0.0
 10
14.9353671
 20
12.9141816413
 30
0.0
  0
SPLINE
  5
2F8
100
AcDbEntity
  8
0
100
AcDbSpline
 62
7
  6
CONTINUOUS
 70
0
 71
3
 72
15
 73
11
 74
0
 42
0.0000001
 43
0.0000001
 44
0.0000000001
 40
0.0
 40
0.0
 40
0.0
 40
0.0
 40
0.1360445701
 40
0.26798562
 40
0.3961959085
 40
0.5211389636
 40
0.6433512968
 40
0.7634458183
 40
0.8820910013
 40
1.0
 40
1.0
 40
1.0
 40
1.0
 10
14.9353671
 20
12.9141816413
 30
0.0
 10
14.9310140987
 20
12.9260211637
 30
0.0
 10
14.9216268382
 20
12.9490558137
 30
0.0
 10
14.9052328926
 20
12.9819706815
 30
0.0
 10
14.8867942157
 20
13.0125955624
 30
0.0
 10
14.866372817
 20
13.0408331039
 30
0.0
 10
14.8440240934
 20
13.066586745
 30
0.0
 10
14.8198214609
 20
13.0897746605
 30
0.0
 10
14.7938442053
 20
13.1103165114
 30
0.0
 10
14.775369672
 20
13.1222151993
 30
0.0
 10
14.7659015004
 20
13.12768148
 30
0.0
  0
SPLINE
  5
2F9
100
AcDbEntity
  8
0
100
AcDbSpline
 62
7
  6
CONTINUOUS
 70
0
 71
3
 72
22
 73
18
 74
0
 42
0.0000001
 43
0.0000001
 44
0.0000000001
 40
0.0
 40
0.0
 40
0.0
 40
0.0
 40
0.0752060659
 40
0.1485489889
 40
0.2894021408
 40
0.3569458831
 40
0.4226028349
 40
0.4864342351
 40
0.5485211518
 40
0.6089648743
 40
0.6678935225
 40
0.7254645816
 40
0.7818575091
 40
0.8372757602
 40
0.891943786
 40
0.946101032
 40
1.0
 40
1.0
 40
1.0
 40
1.0
 10
13.4676962183
 20
11.8466640725
 30
0.0
 10
13.4676962183
 20
11.8327507624
 30
0.0
 10
13.4682744597
 20
11.8052634385
 30
0.0
 10
13.4717857847
 20
11.7518279364
 30
0.0
 10
13.4788201547
 20
11.7000773551
 30
0.0
 10
13.4896367423
 20
11.6505228446
 30
0.0
 10
13.4993816269
 20
11.6153767312
 30
0.0
 10
13.5108519918
 20
11.5818196441
 30
0.0
 10
13.5240172042
 20
11.549929335
 30
0.0
 10
13.5388494222
 20
11.5197847672
 30
0.0
 10
13.5553174673
 20
11.4914618628
 30
0.0
 10
13.5733779548
 20
11.4650273567
 30
0.0
 10
13.5929916911
 20
11.440548053
 30
0.0
 10
13.6141133069
 20
11.418087032
 30
0.0
 10
13.6366885268
 20
11.3976966871
 30
0.0
 10
13.6606630728
 20
11.3794335524
 30
0.0
 10
13.6775589119
 20
11.3686959151
 30
0.0
 10
13.6861944367
 20
11.3637101953
 30
0.0
  0
SPLINE
  5
2FA
100
AcDbEntity
  8
0
100
AcDbSpline
 62
7
  6
CONTINUOUS
 70
0
 71
3
 72
45
 73
41
 74
0
 42
0.0000001
 43
0.0000001
 44
0.0000000001
 40
0.0
 40
0.0
 40
0.0
 40
0.0
 40
0.0106523647
 40
0.0213335765
 40
0.0320720168
 40
0.0428952464
 40
0.0538298773
 40
0.0649011548
 40
0.0761324248
 40
0.0875453134
 40
0.1109851834
 40
0.1353618252
 40
0.147937166
 40
0.1607810165
 40
0.187295471
 40
0.2009810381
 40
0.214953097
 40
0.2437517917
 40
0.2736812317
 40
0.3047036142
 40
0.3367633191
 40
0.3697880281
 40
0.4036917582
 40
0.438376702
 40
0.4737349435
 40
0.5096507942
 40
0.5460016528
 40
0.582660426
 40
0.6194961894
 40
0.6563763927
 40
0.6931678486
 40
0.7297383957
 40
0.7659579994
 40
0.8017010847
 40
0.8368476516
 40
0.8712837004
 40
0.9049026473
 40
0.9376152836
 40
0.9693433186
 40
1.0
 40
1.0
 40
1.0
 40
1.0
 10
14.6352466598
 20
13.4484894856
 30
0.0
 10
14.627727988
 20
13.4528299358
 30
0.0
 10
14.6123883117
 20
13.4610443622
 30
0.0
 10
14.5885911968
 20
13.4718973619
 30
0.0
 10
14.5640261766
 20
13.4812778285
 30
0.0
 10
14.5387286291
 20
13.4891731267
 30
0.0
 10
14.5127324156
 20
13.4955708319
 30
0.0
 10
14.486073716
 20
13.5004616901
 30
0.0
 10
14.4587890934
 20
13.5038423918
 30
0.0
 10
14.421298057
 20
13.5063534868
 30
0.0
 10
14.3729352556
 20
13.5055875875
 30
0.0
 10
14.3239738195
 20
13.4998293466
 30
0.0
 10
14.2840821968
 20
13.4923061734
 30
0.0
 10
14.2428708059
 20
13.4826069451
 30
0.0
 10
14.2014656999
 20
13.4699773555
 30
0.0
 10
14.160055202
 20
13.454646354
 30
0.0
 10
14.1175305043
 20
13.4370500822
 30
0.0
 10
14.0640600022
 20
13.4114039276
 30
0.0
 10
14.0003285359
 20
13.375407078
 30
0.0
 10
13.9367266736
 20
13.334079877
 30
0.0
 10
13.873598329
 20
13.2876446016
 30
0.0
 10
13.8112805228
 20
13.2363519202
 30
0.0
 10
13.7501072528
 20
13.1804792059
 30
0.0
 10
13.6904095546
 20
13.1203255285
 30
0.0
 10
13.632505584
 20
13.0562182703
 30
0.0
 10
13.5767118382
 20
12.9884994522
 30
0.0
 10
13.5233239317
 20
12.9175385226
 30
0.0
 10
13.4726358089
 20
12.8437142309
 30
0.0
 10
13.4249150405
 20
12.7674291103
 30
0.0
 10
13.3804250367
 20
12.6890914507
 30
0.0
 10
13.3394009241
 20
12.6091270617
 30
0.0
 10
13.3020684193
 20
12.5279656444
 30
0.0
 10
13.2686259061
 20
12.4460468016
 30
0.0
 10
13.2392553402
 20
12.3638114498
 30
0.0
 10
13.214116149
 20
12.2817029353
 30
0.0
 10
13.1933416213
 20
12.2001662143
 30
0.0
 10
13.1770458598
 20
12.1196383035
 30
0.0
 10
13.1653142301
 20
12.0405463496
 30
0.0
 10
13.1582201768
 20
11.9633282209
 30
0.0
 10
13.1565692345
 20
11.9124738338
 30
0.0
 10
13.1565692345
 20
11.8874889015
 30
0.0
  0
SPLINE
  5
2FB
100
AcDbEntity
  8
0
100
AcDbSpline
 62
7
  6
CONTINUOUS
 70
0
 71
3
 72
22
 73
18
 74
0
 42
0.0000001
 43
0.0000001
 44
0.0000000001
 40
0.0
 40
0.0
 40
0.0
 40
0.0
 40
0.0536012447
 40
0.1077403454
 40
0.1626086014
 40
0.2183849922
 40
0.2752337658
 40
0.3333001561
 40
0.392712741
 40
0.4535815476
 40
0.5159933368
 40
0.580018172
 40
0.6457118821
 40
0.7131159898
 40
0.8531157504
 40
0.9257234218
 40
1.0
 40
1.0
 40
1.0
 40
1.0
 10
13.3382735868
 20
11.3073780297
 30
0.0
 10
13.3294164796
 20
11.31406446
 30
0.0
 10
13.3121234733
 20
11.3281950598
 30
0.0
 10
13.2877127441
 20
11.3514230992
 30
0.0
 10
13.264771632
 20
11.3767160338
 30
0.0
 10
13.2433494676
 20
11.404022001
 30
0.0
 10
13.223490054
 20
11.4332866782
 30
0.0
 10
13.2052278319
 20
11.4644475268
 30
0.0
 10
13.1885997951
 20
11.4974432114
 30
0.0
 10
13.1736407171
 20
11.532208064
 30
0.0
 10
13.1603743541
 20
11.5686695624
 30
0.0
 10
13.1488273294
 20
11.606754846
 30
0.0
 10
13.1390244723
 20
11.6463909546
 30
0.0
 10
13.128163302
 20
11.7018984446
 30
0.0
 10
13.1210869503
 20
11.7595319231
 30
0.0
 10
13.1175535929
 20
11.8188330414
 30
0.0
 10
13.1169712548
 20
11.8492487786
 30
0.0
 10
13.1169712548
 20
11.8646269973
 30
0.0
  0
SPLINE
  5
2FC
100
AcDbEntity
  8
0
100
AcDbSpline
 62
7
  6
CONTINUOUS
 70
0
 71
3
 72
25
 73
21
 74
0
 42
0.0000001
 43
0.0000001
 44
0.0000000001
 40
0.0
 40
0.0
 40
0.0
 40
0.0
 40
0.0244806166
 40
0.0490239041
 40
0.0736920247
 40
0.0985452977
 40
0.1490146995
 40
0.2008833601
 40
0.2545166213
 40
0.3102136387
 40
0.3681984429
 40
0.4286290964
 40
0.4915941348
 40
0.5571268914
 40
0.6252030967
 40
0.6957557633
 40
0.7686724162
 40
0.8438087015
 40
0.9209853558
 40
1.0
 40
1.0
 40
1.0
 40
1.0
 10
13.753410126
 20
11.3739782801
 30
0.0
 10
13.7594621656
 20
11.3704842425
 30
0.0
 10
13.7718025126
 20
11.3638618287
 30
0.0
 10
13.7909303574
 20
11.3550768472
 30
0.0
 10
13.8106634192
 20
11.3474479537
 30
0.0
 10
13.837875717
 20
11.3387850194
 30
0.0
 10
13.8734122118
 20
11.3309067582
 30
0.0
 10
13.9177836662
 20
11.3262810076
 30
0.0
 10
13.9638820301
 20
11.3264266392
 30
0.0
 10
14.0114633611
 20
11.3313434263
 30
0.0
 10
14.0602876248
 20
11.3409831957
 30
0.0
 10
14.1101054142
 20
11.3552990285
 30
0.0
 10
14.1606695247
 20
11.3742016852
 30
0.0
 10
14.2117215444
 20
11.3976001904
 30
0.0
 10
14.2630086514
 20
11.425363988
 30
0.0
 10
14.3142667273
 20
11.4573580731
 30
0.0
 10
14.3652411186
 20
11.4934108183
 30
0.0
 10
14.4156677072
 20
11.5333449524
 30
0.0
 10
14.4652940983
 20
11.5769484975
 30
0.0
 10
14.4973297759
 20
11.6079876517
 30
0.0
 10
14.5131634561
 20
11.6240514734
 30
0.0
  0
SPLINE
  5
2FD
100
AcDbEntity
  8
0
100
AcDbSpline
 62
7
  6
CONTINUOUS
 70
0
 71
3
 72
13
 73
9
 74
0
 42
0.0000001
 43
0.0000001
 44
0.0000000001
 40
0.0
 40
0.0
 40
0.0
 40
0.0
 40
0.2629117967
 40
0.3914568716
 40
0.5178824651
 40
0.7638823991
 40
0.8832454352
 40
1.0
 40
1.0
 40
1.0
 40
1.0
 10
14.9292184073
 20
12.3446852892
 30
0.0
 10
14.936759572
 20
12.3720392317
 30
0.0
 10
14.9468133711
 20
12.4131079773
 30
0.0
 10
14.9575387143
 20
12.467968777
 30
0.0
 10
14.966204831
 20
12.5213433569
 30
0.0
 10
14.9721178849
 20
12.5741397825
 30
0.0
 10
14.9750955888
 20
12.6260952623
 30
0.0
 10
14.9756014291
 20
12.6515806898
 30
0.0
 10
14.9756014291
 20
12.6641812741
 30
0.0
  0
SPLINE
  5
2FE
100
AcDbEntity
  8
0
100
AcDbSpline
 62
7
  6
CONTINUOUS
 70
0
 71
3
 72
42
 73
38
 74
0
 42
0.0000001
 43
0.0000001
 44
0.0000000001
 40
0.0
 40
0.0
 40
0.0
 40
0.0
 40
0.0106526539
 40
0.0213340567
 40
0.0320727032
 40
0.0428961943
 40
0.0538309726
 40
0.0649022579
 40
0.0875378746
 40
0.1109776309
 40
0.1353547344
 40
0.1607672708
 40
0.1872821936
 40
0.2149346677
 40
0.2437338954
 40
0.2736633552
 40
0.3046863318
 40
0.3367463532
 40
0.3697717045
 40
0.4036760128
 40
0.4383617095
 40
0.4737208172
 40
0.509637593
 40
0.5459894877
 40
0.5826492837
 40
0.6194860976
 40
0.6563674076
 40
0.6931598897
 40
0.7297315004
 40
0.7659520691
 40
0.8016964236
 40
0.8368439999
 40
0.8712806095
 40
0.9048999765
 40
0.9376142045
 40
0.969343684
 40
1.0
 40
1.0
 40
1.0
 40
1.0
 10
14.7411933081
 20
13.1910218426
 30
0.0
 10
14.7347180828
 20
13.1947603137
 30
0.0
 10
14.721507508
 20
13.2018358015
 30
0.0
 10
14.701014159
 20
13.2111863336
 30
0.0
 10
14.679858097
 20
13.2192659628
 30
0.0
 10
14.6580711741
 20
13.2260658459
 30
0.0
 10
14.6356825641
 20
13.2315778517
 30
0.0
 10
14.6048490298
 20
13.2372397182
 30
0.0
 10
14.5648198925
 20
13.2409929693
 30
0.0
 10
14.5152880407
 20
13.2402143674
 30
0.0
 10
14.4641601069
 20
13.2341998757
 30
0.0
 10
14.411713803
 20
13.2230033803
 30
0.0
 10
14.3582285782
 20
13.2066863914
 30
0.0
 10
14.3039855007
 20
13.1853507772
 30
0.0
 10
14.2492747324
 20
13.1591091398
 30
0.0
 10
14.1943841327
 20
13.1281103484
 30
0.0
 10
14.1396088206
 20
13.0925183866
 30
0.0
 10
14.0852391652
 20
13.0525287063
 30
0.0
 10
14.031568417
 20
13.0083546166
 30
0.0
 10
13.9788832559
 20
12.9602357364
 30
0.0
 10
13.9274679798
 20
12.908430568
 30
0.0
 10
13.8775990706
 20
12.8532186733
 30
0.0
 10
13.8295451293
 20
12.7948981334
 30
0.0
 10
13.783566183
 20
12.733782877
 30
0.0
 10
13.7399089232
 20
12.6702039261
 30
0.0
 10
13.6988110867
 20
12.6045030284
 30
0.0
 10
13.6604918607
 20
12.5370366696
 30
0.0
 10
13.6251615773
 20
12.4681671057
 30
0.0
 10
13.5930069341
 20
12.3982685102
 30
0.0
 10
13.5642059832
 20
12.3277158307
 30
0.0
 10
13.5389090372
 20
12.2568916944
 30
0.0
 10
13.5172592096
 20
12.1861760767
 30
0.0
 10
13.4993660024
 20
12.1159541743
 30
0.0
 10
13.4853318737
 20
12.0466001731
 30
0.0
 10
13.4752276568
 20
11.9784823731
 30
0.0
 10
13.469118529
 20
11.9119787752
 30
0.0
 10
13.4676962183
 20
11.8681813017
 30
0.0
 10
13.4676962183
 20
11.8466640725
 30
0.0
  0
SPLINE
  5
2FF
100
AcDbEntity
  8
0
100
AcDbSpline
 62
7
  6
CONTINUOUS
 70
0
 71
3
 72
42
 73
38
 74
0
 42
0.0000001
 43
0.0000001
 44
0.0000000001
 40
0.0
 40
0.0
 40
0.0
 40
0.0
 40
0.0306563111
 40
0.0623858132
 40
0.0951000892
 40
0.1287195009
 40
0.1631561379
 40
0.198303646
 40
0.2340478133
 40
0.2702682411
 40
0.3068398465
 40
0.3436323676
 40
0.3805136929
 40
0.4173504997
 40
0.4540102692
 40
0.4903621141
 40
0.5262788299
 40
0.5616378995
 40
0.5963236004
 40
0.6302279458
 40
0.6632533617
 40
0.6953134477
 40
0.7263364858
 40
0.7562659982
 40
0.7850652764
 40
0.8127177998
 40
0.8392327699
 40
0.8646453409
 40
0.8890224643
 40
0.9124622241
 40
0.9350978318
 40
0.9461691092
 40
0.9571038808
 40
0.9679273612
 40
0.9786659902
 40
0.9893473713
 40
1.0
 40
1.0
 40
1.0
 40
1.0
 10
13.513658159
 20
11.8201279336
 30
0.0
 10
13.513658159
 20
11.8416451088
 30
0.0
 10
13.51508047
 20
11.8854424917
 30
0.0
 10
13.5211895806
 20
11.9519459797
 30
0.0
 10
13.5312937859
 20
12.0200636995
 30
0.0
 10
13.5453278861
 20
12.0894176232
 30
0.0
 10
13.5632210809
 20
12.1596393557
 30
0.0
 10
13.584870772
 20
12.2303546647
 30
0.0
 10
13.610167513
 20
12.3011783918
 30
0.0
 10
13.6389683041
 20
12.3717306901
 30
0.0
 10
13.6711227779
 20
12.4416290807
 30
0.0
 10
13.7064529267
 20
12.5104985481
 30
0.0
 10
13.7447720195
 20
12.577964811
 30
0.0
 10
13.78586969
 20
12.6436655823
 30
0.0
 10
13.8295267396
 20
12.7072443863
 30
0.0
 10
13.8755054403
 20
12.7683594821
 30
0.0
 10
13.9235591019
 20
12.8266798878
 30
0.0
 10
13.9734277669
 20
12.8818916778
 30
0.0
 10
14.0248428
 20
12.9336968486
 30
0.0
 10
14.0775277986
 20
12.9818157679
 30
0.0
 10
14.1311983847
 20
13.0259899805
 30
0.0
 10
14.1855679159
 20
13.0659797873
 30
0.0
 10
14.2403430845
 20
13.1015719177
 30
0.0
 10
14.2952335491
 20
13.1325708806
 30
0.0
 10
14.3499441731
 20
13.1588127352
 30
0.0
 10
14.4041871226
 20
13.1801485798
 30
0.0
 10
14.4576722178
 20
13.1964658552
 30
0.0
 10
14.5101183989
 20
13.2076626569
 30
0.0
 10
14.5612462076
 20
13.2136775142
 30
0.0
 10
14.6107779434
 20
13.2144565185
 30
0.0
 10
14.650807015
 20
13.2107036799
 30
0.0
 10
14.6816405112
 20
13.2050421081
 30
0.0
 10
14.7040291163
 20
13.199530389
 30
0.0
 10
14.725816051
 20
13.1927308045
 30
0.0
 10
14.7469721208
 20
13.1846514417
 30
0.0
 10
14.7674654861
 20
13.1753011847
 30
0.0
 10
14.7806761041
 20
13.1682259234
 30
0.0
 10
14.7871513527
 20
13.1644875629
 30
0.0
  0
SPLINE
  5
300
100
AcDbEntity
  8
0
100
AcDbSpline
 62
9
  6
CONTINUOUS
 70
0
 71
3
 72
42
 73
38
 74
0
 42
0.0000001
 43
0.0000001
 44
0.0000000001
 40
0.0
 40
0.0
 40
0.0
 40
0.0
 40
0.0106260569
 40
0.0213270613
 40
0.0321282051
 40
0.0430536154
 40
0.0653568038
 40
0.0884062516
 40
0.1123326709
 40
0.1372363952
 40
0.1500804756
 40
0.163192507
 40
0.1902322986
 40
0.2183765584
 40
0.2476187108
 40
0.2779303671
 40
0.3092665796
 40
0.3415653266
 40
0.3747524001
 40
0.4087406802
 40
0.4434343062
 40
0.47872816
 40
0.5145112115
 40
0.5506664298
 40
0.5870733845
 40
0.6236085734
 40
0.6601475628
 40
0.6965655593
 40
0.7327392836
 40
0.7685475471
 40
0.8038738651
 40
0.838606494
 40
0.8726396418
 40
0.9058747463
 40
0.9382300447
 40
0.9696323555
 40
1.0
 40
1.0
 40
1.0
 40
1.0
 10
14.634618205
 20
13.4458471112
 30
0.0
 10
14.6268289715
 20
13.449241349
 30
0.0
 10
14.610981261
 20
13.4555732656
 30
0.0
 10
14.5865763277
 20
13.4636430222
 30
0.0
 10
14.5614999986
 20
13.4703011281
 30
0.0
 10
14.5269849958
 20
13.477328829
 30
0.0
 10
14.4821782807
 20
13.4824851579
 30
0.0
 10
14.4266865775
 20
13.4828596676
 30
0.0
 10
14.3693739569
 20
13.4774890123
 30
0.0
 10
14.3208427901
 20
13.4683482939
 30
0.0
 10
14.2814255198
 20
13.4583033004
 30
0.0
 10
14.2408147422
 20
13.4461633885
 30
0.0
 10
14.1894638694
 20
13.4274129204
 30
0.0
 10
14.1278426359
 20
13.3997146485
 30
0.0
 10
14.0659078646
 20
13.3667250644
 30
0.0
 10
14.0039696746
 20
13.3286227862
 30
0.0
 10
13.9423452487
 20
13.2855948576
 30
0.0
 10
13.8813414117
 20
13.2378679008
 30
0.0
 10
13.8212731956
 20
13.1856787956
 30
0.0
 10
13.7624404923
 20
13.1292992455
 30
0.0
 10
13.7051479583
 20
13.0690117341
 30
0.0
 10
13.6496827205
 20
13.0051278801
 30
0.0
 10
13.5963318661
 20
12.9379701992
 30
0.0
 10
13.5453639986
 20
12.8678840405
 30
0.0
 10
13.4970421188
 20
12.7952252569
 30
0.0
 10
13.4516108818
 20
12.7203660315
 30
0.0
 10
13.4093033768
 20
12.6436879695
 30
0.0
 10
13.3703355083
 20
12.5655825634
 30
0.0
 10
13.3349053936
 20
12.4864492059
 30
0.0
 10
13.303195533
 20
12.4066908777
 30
0.0
 10
13.2753649963
 20
12.3267153773
 30
0.0
 10
13.2515604208
 20
12.2469292882
 30
0.0
 10
13.2318977417
 20
12.1677427409
 30
0.0
 10
13.2164817691
 20
12.0895557018
 30
0.0
 10
13.2053871344
 20
12.0127605679
 30
0.0
 10
13.1986808007
 20
11.9377600407
 30
0.0
 10
13.1971218458
 20
11.8883579572
 30
0.0
 10
13.1971218458
 20
11.8640758405
 30
0.0
  0
SPLINE
  5
301
100
AcDbEntity
  8
0
100
AcDbSpline
 62
7
  6
CONTINUOUS
 70
0
 71
3
 72
22
 73
18
 74
0
 42
0.0000001
 43
0.0000001
 44
0.0000000001
 40
0.0
 40
0.0
 40
0.0
 40
0.0
 40
0.0538988242
 40
0.1080559533
 40
0.1627238446
 40
0.2181418889
 40
0.2745345136
 40
0.332105178
 40
0.3910335246
 40
0.4514771745
 40
0.5135640874
 40
0.5773955627
 40
0.6430527144
 40
0.7105967752
 40
0.8514507843
 40
0.924793904
 40
1.0
 40
1.0
 40
1.0
 40
1.0
 10
13.7321602737
 20
11.3371721972
 30
0.0
 10
13.723524636
 20
11.3421578167
 30
0.0
 10
13.7066285583
 20
11.352895272
 30
0.0
 10
13.6826537316
 20
11.3711582877
 30
0.0
 10
13.6600781407
 20
11.3915484283
 30
0.0
 10
13.6389561795
 20
11.4140092812
 30
0.0
 10
13.619342206
 20
11.4384884789
 30
0.0
 10
13.6012813826
 20
11.4649228183
 30
0.0
 10
13.5848130606
 20
11.4932456849
 30
0.0
 10
13.5699806468
 20
11.5233903556
 30
0.0
 10
13.5568150538
 20
11.5552807827
 30
0.0
 10
13.5453443688
 20
11.5888380961
 30
0.0
 10
13.5355992744
 20
11.6239845472
 30
0.0
 10
13.5247823508
 20
11.6735396317
 30
0.0
 10
13.5177478496
 20
11.7252908491
 30
0.0
 10
13.5142364193
 20
11.7787269437
 30
0.0
 10
13.513658159
 20
11.8062145144
 30
0.0
 10
13.513658159
 20
11.8201279336
 30
0.0
  0
SPLINE
  5
302
100
AcDbEntity
  8
0
100
AcDbSpline
 62
9
  6
CONTINUOUS
 70
0
 71
3
 72
21
 73
17
 74
0
 42
0.0000001
 43
0.0000001
 44
0.0000000001
 40
0.0
 40
0.0
 40
0.0
 40
0.0
 40
0.075213846
 40
0.1485610757
 40
0.289415975
 40
0.4225722761
 40
0.4864082424
 40
0.5484987448
 40
0.6089446307
 40
0.6678763773
 40
0.7254504278
 40
0.7818460085
 40
0.8372675265
 40
0.8919382787
 40
0.9460981989
 40
1.0
 40
1.0
 40
1.0
 40
1.0
 10
13.1971218458
 20
11.8640758405
 30
0.0
 10
13.1971218458
 20
11.8479197337
 30
0.0
 10
13.1977930255
 20
11.8160027894
 30
0.0
 10
13.2018704062
 20
11.7539537185
 30
0.0
 10
13.2119372406
 20
11.6798960317
 30
0.0
 10
13.2292226683
 20
11.609244737
 30
0.0
 10
13.2472313043
 20
11.5565553209
 30
0.0
 10
13.2625173789
 20
11.5195251789
 30
0.0
 10
13.2797412901
 20
11.4845242993
 30
0.0
 10
13.2988619635
 20
11.4516371805
 30
0.0
 10
13.3198320524
 20
11.4209426039
 30
0.0
 10
13.3426080801
 20
11.3925201771
 30
0.0
 10
13.3671316277
 20
11.3664384539
 30
0.0
 10
13.3933445944
 20
11.3427622352
 30
0.0
 10
13.4211837308
 20
11.3215582065
 30
0.0
 10
13.4408011172
 20
11.3090888688
 30
0.0
 10
13.4508279611
 20
11.3032994106
 30
0.0
  0
ENDSEC
  0
SECTION
  2
OBJECTS
  0
DICTIONARY
  5
C
100
AcDbDictionary
280
0
281
1
  3
ACAD_GROUP
350
D
  3
ACAD_MLINESTYLE
350
17
  3
ACAD_LAYOUT
350
1A
  3
ACAD_PLOTSETTINGS
350
19
  3
ACAD_PLOTSTYLENAME
350
E
  0
DICTIONARY
  5
D
102
{ACAD_REACTORS
330
C
102
}
100
AcDbDictionary
280
0
281
1
  0
ACDBDICTIONARYWDFLT
  5
E
102
{ACAD_REACTORS
330
C
102
}
100
AcDbDictionary
281
1
  3
Normal
350
F
100
AcDbDictionaryWithDefault
340
F
  0
DICTIONARY
  5
17
102
{ACAD_REACTORS
330
C
102
}
100
AcDbDictionary
280
0
281
1
  3
Standard
350
18
  0
DICTIONARY
  5
19
102
{ACAD_REACTORS
330
C
102
}
100
AcDbDictionary
281
1
  0
DICTIONARY
  5
1A
102
{ACAD_REACTORS
330
C
102
}
100
AcDbDictionary
281
1
  3
Model
350
303
  3
Layout1
350
304
  0
ACDBPLACEHOLDER
  5
F
102
{ACAD_REACTORS
330
E
102
}
  0
MLINESTYLE
  5
18
102
{ACAD_REACTORS
330
17
102
}
100
AcDbMlineStyle
  2
STANDARD
 70
0
  3

 62
256
 51
90.0
 52
90.0
 71
2
 49
0.5
 62
256
  6
BYLAYER
 49
-0.5
 62
256
  6
BYLAYER
  0
LAYOUT
  5
303
102
{ACAD_REACTORS
330
1A
102
}
100
AcDbPlotSettings
  1

  2
none_device
  4
ANSI_C_(22.00_x_17.00_Inches)
  6

 40
0.0
 41
0.0
 42
0.0
 43
0.0
 44
558.8
 45
431.8
 46
0.0
 47
0.0
 48
0.0
 49
0.0
140
0.0
141
0.0
142
1.0
143
1.0
 70
1024
 72
0
 73
0
 74
0
  7

 75
0
147
1.0
148
0.0
149
0.0
100
AcDbLayout
  1
Model
 70
0
 71
0
 10
0.0
 20
0.0
 11
22.0
 21
17.0
 12
0.0
 22
0.0
 32
0.0
 14
0.0
 24
0.0
 34
0.0
 15
0.0
 25
0.0
 35
0.0
146
0.0
 13
0.0
 23
0.0
 33
0.0
 16
1.0
 26
0.0
 36
0.0
 17
0.0
 27
1.0
 37
0.0
 76
0
330
22D
345
0
346
0
  0
LAYOUT
  5
304
102
{ACAD_REACTORS
330
1A
102
}
100
AcDbPlotSettings
  1

  2
none_device
  4
ANSI_C_(22.00_x_17.00_Inches)
  6

 40
0.0
 41
0.0
 42
0.0
 43
0.0
 44
558.8
 45
431.8
 46
0.0
 47
0.0
 48
0.0
 49
0.0
140
0.0
141
0.0
142
1.0
143
1.0
 70
0
 72
0
 73
0
 74
0
  7

 75
0
147
1.0
148
0.0
149
0.0
100
AcDbLayout
  1
Layout1
 70
0
 71
1
 10
0.0
 20
0.0
 11
22.0
 21
17.0
 12
0.0
 22
0.0
 32
0.0
 14
0.0
 24
0.0
 34
0.0
 15
0.0
 25
0.0
 35
0.0
146
0.0
 13
0.0
 23
0.0
 33
0.0
 16
1.0
 26
0.0
 36
0.0
 17
0.0
 27
1.0
 37
0.0
 76
0
330
22E
345
0
346
0
  0
ENDSEC
  0
EOF
