999
DXF file: 0850kn-xx.dxf
999
Pro/ENGINEER 2015070 by Parametric Technology Corporation
  0
SECTION
  2
HEADER
  9
$ACADVER
  1
AC1021
  9
$DWGCODEPAGE
  3
ANSI_936
  9
$EXTMAX
 10
22.0
 20
17.0
 30
0.0
  9
$EXTMIN
 10
0.0
 20
0.0
 30
0.0
  9
$LIMMIN
 10
0.0
 20
0.0
  9
$LIMMAX
 10
22.0
 20
17.0
  9
$VIEWCTR
 10
11.0
 20
8.5
  9
$VIEWSIZE
 40
17.0
  9
$CLAYER
  8
0
  9
$LTSCALE
 40
1.21
  9
$CELTYPE
  6
BYLAYER
  9
$DIMSCALE
 40
1.0
  9
$DIMASZ
 40
0.125
  9
$DIMEXO
 40
0.0625
  9
$DIMDLI
 40
0.836
  9
$DIMEXE
 40
0.125
  9
$DIMCEN
 40
0.198
  9
$DIMLFAC
 40
1.0
  9
$DIMBLK
  1
_FILLED
  9
$DIMTXT
 40
0.12
  9
$DIMTOL
 70
1
  9
$DIMLIM
 70
0
  9
$DIMTFAC
 40
1.0
  9
$DIMTP
 40
0.001
  9
$DIMTM
 40
0.001
  9
$DIMGAP
 40
0.09
  9
$DIMDSEP
 70
46
  9
$PDMODE
 70
3
  9
$PDSIZE
 40
0.125
  9
$HANDSEED
  5
2DA
  9
$TILEMODE
 70
1
  9
$MEASUREMENT
 70
0
  9
$INSUNITS
 70
1
  0
ENDSEC
  0
SECTION
  2
CLASSES
  0
CLASS
  1
ACDBDICTIONARYWDFLT
  2
AcDbDictionaryWithDefault
  3
AutoCAD 2000
 90
0
 91
1
280
0
281
0
  0
CLASS
  1
ACDBPLACEHOLDER
  2
AcDbPlaceHolder
  3
AutoCAD 2000
 90
0
 91
1
280
0
281
0
  0
CLASS
  1
LAYOUT
  2
AcDbLayout
  3
AutoCAD 2000
 90
0
 91
0
280
0
281
0
  0
ENDSEC
  0
SECTION
  2
TABLES
  0
TABLE
  2
VPORT
  5
8
100
AcDbSymbolTable
 70
2
  0
VPORT
  5
1F4
100
AcDbSymbolTableRecord
100
AcDbViewportTableRecord
  2
*ACTIVE
 70
0
 10
0.0
 20
0.0
 11
1.0
 21
1.0
 12
11.0
 22
8.5
 13
0.0
 23
0.0
 14
1.0
 24
1.0
 15
0.0
 25
0.0
 16
0.0
 26
0.0
 36
1.0
 17
0.0
 27
0.0
 37
0.0
 40
17.0
 41
1.2941176471
 42
50.0
 43
0.0
 44
0.0
 50
0.0
 51
0.0
 71
0
 72
100
 73
1
 74
1
 75
0
 76
0
 77
0
 78
0
  0
ENDTAB
  0
TABLE
  2
LTYPE
  5
5
100
AcDbSymbolTable
 70
6
  0
LTYPE
  5
14
100
AcDbSymbolTableRecord
100
AcDbLinetypeTableRecord
  2
BYBLOCK
 70
0
  3

 72
65
 73
0
 40
0.0
  0
LTYPE
  5
15
100
AcDbSymbolTableRecord
100
AcDbLinetypeTableRecord
  2
BYLAYER
 70
0
  3

 72
65
 73
0
 40
0.0
  0
LTYPE
  5
16
100
AcDbSymbolTableRecord
100
AcDbLinetypeTableRecord
  2
CONTINUOUS
 70
64
  3
Solid line
 72
65
 73
0
 40
0.0
  0
LTYPE
  5
1F5
100
AcDbSymbolTableRecord
100
AcDbLinetypeTableRecord
  2
CENTER
 70
64
  3
____ _ ____ _ ____ _ ____ _ ____ _ ____ _ ____
 72
65
 73
4
 40
0.6
 49
0.375
 74
0
 49
-0.075
 74
0
 49
0.075
 74
0
 49
-0.075
 74
0
  0
LTYPE
  5
1F6
100
AcDbSymbolTableRecord
100
AcDbLinetypeTableRecord
  2
HIDDEN
 70
64
  3
- - - - - - - - - - - - - - - - - - - -
 72
65
 73
2
 40
0.2
 49
0.1
 74
0
 49
-0.1
 74
0
  0
LTYPE
  5
1F7
100
AcDbSymbolTableRecord
100
AcDbLinetypeTableRecord
  2
PHANTOM
 70
64
  3
_____ _ _ _____ _ _ _____ _ _ _____
 72
65
 73
6
 40
0.8
 49
0.45
 74
0
 49
-0.05
 74
0
 49
0.1
 74
0
 49
-0.05
 74
0
 49
0.1
 74
0
 49
-0.05
 74
0
  0
LTYPE
  5
1F8
100
AcDbSymbolTableRecord
100
AcDbLinetypeTableRecord
  2
DOT
 70
64
  3
. . . . . . . . . . . . . . . . . . . .
 72
65
 73
2
 40
0.2
 49
0.1
 74
0
 49
-0.1
 74
0
  0
LTYPE
  5
1F9
100
AcDbSymbolTableRecord
100
AcDbLinetypeTableRecord
  2
DASHED
 70
64
  3
- - - - - - - - - - - - - - - - - - - -
 72
65
 73
2
 40
0.2
 49
0.1
 74
0
 49
-0.1
 74
0
  0
ENDTAB
  0
TABLE
  2
LAYER
  5
2
100
AcDbSymbolTable
 70
36
  0
LAYER
  5
10
100
AcDbSymbolTableRecord
100
AcDbLayerTableRecord
  2
0
 70
0
 62
7
  6
CONTINUOUS
370
-3
390
F
  0
LAYER
  5
1FA
100
AcDbSymbolTableRecord
100
AcDbLayerTableRecord
  2
DEFAULT_1
 70
0
 62
7
  6
CENTER
370
-3
390
F
  0
LAYER
  5
1FB
100
AcDbSymbolTableRecord
100
AcDbLayerTableRecord
  2
DEFAULT_2
 70
0
 62
8
  6
HIDDEN
370
-3
390
F
  0
LAYER
  5
1FC
100
AcDbSymbolTableRecord
100
AcDbLayerTableRecord
  2
DEFAULT_3
 70
0
 62
7
  6
PHANTOM
370
-3
390
F
  0
LAYER
  5
1FD
100
AcDbSymbolTableRecord
100
AcDbLayerTableRecord
  2
0850HR-XX
 70
0
 62
7
  6
CONTINUOUS
370
-3
390
F
  0
LAYER
  5
1FE
100
AcDbSymbolTableRecord
100
AcDbLayerTableRecord
  2
12601
 70
0
 62
7
  6
CONTINUOUS
370
-3
390
F
  0
LAYER
  5
1FF
100
AcDbSymbolTableRecord
100
AcDbLayerTableRecord
  2
14129
 70
0
 62
7
  6
CONTINUOUS
370
-3
390
F
  0
LAYER
  5
200
100
AcDbSymbolTableRecord
100
AcDbLayerTableRecord
  2
14130
 70
0
 62
7
  6
CONTINUOUS
370
-3
390
F
  0
LAYER
  5
201
100
AcDbSymbolTableRecord
100
AcDbLayerTableRecord
  2
14132
 70
0
 62
7
  6
CONTINUOUS
370
-3
390
F
  0
LAYER
  5
202
100
AcDbSymbolTableRecord
100
AcDbLayerTableRecord
  2
19945
 70
0
 62
7
  6
CONTINUOUS
370
-3
390
F
  0
LAYER
  5
203
100
AcDbSymbolTableRecord
100
AcDbLayerTableRecord
  2
INTF_12601
 70
0
 62
7
  6
CONTINUOUS
370
-3
390
F
  0
LAYER
  5
204
100
AcDbSymbolTableRecord
100
AcDbLayerTableRecord
  2
INTF_14129
 70
0
 62
7
  6
CONTINUOUS
370
-3
390
F
  0
LAYER
  5
205
100
AcDbSymbolTableRecord
100
AcDbLayerTableRecord
  2
INTF_14130
 70
0
 62
7
  6
CONTINUOUS
370
-3
390
F
  0
LAYER
  5
206
100
AcDbSymbolTableRecord
100
AcDbLayerTableRecord
  2
INTF_14132
 70
0
 62
7
  6
CONTINUOUS
370
-3
390
F
  0
LAYER
  5
207
100
AcDbSymbolTableRecord
100
AcDbLayerTableRecord
  2
INTF_19945
 70
0
 62
7
  6
CONTINUOUS
370
-3
390
F
  0
LAYER
  5
208
100
AcDbSymbolTableRecord
100
AcDbLayerTableRecord
  2
MSBR-2
 70
0
 62
7
  6
CONTINUOUS
370
-3
390
F
  0
LAYER
  5
209
100
AcDbSymbolTableRecord
100
AcDbLayerTableRecord
  2
MSBR-2_1
 70
0
 62
7
  6
CONTINUOUS
370
-3
390
F
  0
LAYER
  5
20A
100
AcDbSymbolTableRecord
100
AcDbLayerTableRecord
  2
MSBR-2_2
 70
0
 62
7
  6
CONTINUOUS
370
-3
390
F
  0
LAYER
  5
20B
100
AcDbSymbolTableRecord
100
AcDbLayerTableRecord
  2
MSBR-3
 70
0
 62
7
  6
CONTINUOUS
370
-3
390
F
  0
LAYER
  5
20C
100
AcDbSymbolTableRecord
100
AcDbLayerTableRecord
  2
MSBR-3_1
 70
0
 62
7
  6
CONTINUOUS
370
-3
390
F
  0
LAYER
  5
20D
100
AcDbSymbolTableRecord
100
AcDbLayerTableRecord
  2
MSBR-3_2
 70
0
 62
7
  6
CONTINUOUS
370
-3
390
F
  0
LAYER
  5
20E
100
AcDbSymbolTableRecord
100
AcDbLayerTableRecord
  2
MSBR-3_3
 70
0
 62
7
  6
CONTINUOUS
370
-3
390
F
  0
LAYER
  5
20F
100
AcDbSymbolTableRecord
100
AcDbLayerTableRecord
  2
MSBR-4
 70
0
 62
7
  6
CONTINUOUS
370
-3
390
F
  0
LAYER
  5
210
100
AcDbSymbolTableRecord
100
AcDbLayerTableRecord
  2
MSBR-4_1
 70
0
 62
7
  6
CONTINUOUS
370
-3
390
F
  0
LAYER
  5
211
100
AcDbSymbolTableRecord
100
AcDbLayerTableRecord
  2
MSBR-4_1_1
 70
0
 62
7
  6
CONTINUOUS
370
-3
390
F
  0
LAYER
  5
212
100
AcDbSymbolTableRecord
100
AcDbLayerTableRecord
  2
MSBR-4_2
 70
0
 62
7
  6
CONTINUOUS
370
-3
390
F
  0
LAYER
  5
213
100
AcDbSymbolTableRecord
100
AcDbLayerTableRecord
  2
MSBR-5
 70
0
 62
7
  6
CONTINUOUS
370
-3
390
F
  0
LAYER
  5
214
100
AcDbSymbolTableRecord
100
AcDbLayerTableRecord
  2
MSBR-5_1
 70
0
 62
7
  6
CONTINUOUS
370
-3
390
F
  0
LAYER
  5
215
100
AcDbSymbolTableRecord
100
AcDbLayerTableRecord
  2
MSBR-5_1_1
 70
0
 62
7
  6
CONTINUOUS
370
-3
390
F
  0
LAYER
  5
216
100
AcDbSymbolTableRecord
100
AcDbLayerTableRecord
  2
MSBR-5_1_1_1
 70
0
 62
7
  6
CONTINUOUS
370
-3
390
F
  0
LAYER
  5
217
100
AcDbSymbolTableRecord
100
AcDbLayerTableRecord
  2
MSBR-6
 70
0
 62
7
  6
CONTINUOUS
370
-3
390
F
  0
LAYER
  5
218
100
AcDbSymbolTableRecord
100
AcDbLayerTableRecord
  2
___SHELL
 70
0
 62
7
  6
CONTINUOUS
370
-3
390
F
  0
LAYER
  5
219
100
AcDbSymbolTableRecord
100
AcDbLayerTableRecord
  2
___SHELL_1
 70
0
 62
7
  6
CONTINUOUS
370
-3
390
F
  0
LAYER
  5
21A
100
AcDbSymbolTableRecord
100
AcDbLayerTableRecord
  2
___SHELL_1_1
 70
0
 62
7
  6
CONTINUOUS
370
-3
390
F
  0
LAYER
  5
21B
100
AcDbSymbolTableRecord
100
AcDbLayerTableRecord
  2
___SHELL_1_1_1
 70
0
 62
7
  6
CONTINUOUS
370
-3
390
F
  0
LAYER
  5
21C
100
AcDbSymbolTableRecord
100
AcDbLayerTableRecord
  2
___SHELL_2
 70
0
 62
7
  6
CONTINUOUS
370
-3
390
F
  0
LAYER
  5
21D
100
AcDbSymbolTableRecord
100
AcDbLayerTableRecord
  2
___SHELL_2_1
 70
0
 62
7
  6
CONTINUOUS
370
-3
390
F
  0
LAYER
  5
21E
100
AcDbSymbolTableRecord
100
AcDbLayerTableRecord
  2
___SHELL_2_1_1
 70
0
 62
7
  6
CONTINUOUS
370
-3
390
F
  0
LAYER
  5
21F
100
AcDbSymbolTableRecord
100
AcDbLayerTableRecord
  2
___SHELL_3
 70
0
 62
7
  6
CONTINUOUS
370
-3
390
F
  0
LAYER
  5
220
100
AcDbSymbolTableRecord
100
AcDbLayerTableRecord
  2
___SHELL_3_1
 70
0
 62
7
  6
CONTINUOUS
370
-3
390
F
  0
LAYER
  5
221
100
AcDbSymbolTableRecord
100
AcDbLayerTableRecord
  2
___SHELL_3_1_1
 70
0
 62
7
  6
CONTINUOUS
370
-3
390
F
  0
ENDTAB
  0
TABLE
  2
STYLE
  5
3
100
AcDbSymbolTable
 70
1
  0
STYLE
  5
11
100
AcDbSymbolTableRecord
100
AcDbTextStyleTableRecord
  2
STANDARD
 70
0
 40
0.0
 41
1.0
 50
0.0
 71
0
 42
0.2
  3
txt
  4

  0
STYLE
  5
222
100
AcDbSymbolTableRecord
100
AcDbTextStyleTableRecord
  2
TEXTSTYLE_1
 70
0
 40
0.0
 41
0.8
 50
0.0
 71
0
 42
0.2
  3
gdt
  4

  0
ENDTAB
  0
TABLE
  2
VIEW
  5
6
100
AcDbSymbolTable
 70
0
  0
ENDTAB
  0
TABLE
  2
UCS
  5
7
100
AcDbSymbolTable
 70
0
  0
ENDTAB
  0
TABLE
  2
APPID
  5
9
100
AcDbSymbolTable
 70
1
  0
APPID
  5
223
100
AcDbSymbolTableRecord
100
AcDbRegAppTableRecord
  2
ACAD
 70
0
  0
ENDTAB
  0
TABLE
  2
BLOCK_RECORD
  5
1
100
AcDbSymbolTable
 70
0
  0
BLOCK_RECORD
  5
224
100
AcDbSymbolTableRecord
100
AcDbBlockTableRecord
  2
*Model_Space
  0
BLOCK_RECORD
  5
225
100
AcDbSymbolTableRecord
100
AcDbBlockTableRecord
  2
*Paper_Space
  0
ENDTAB
  0
TABLE
  2
DIMSTYLE
  5
A
100
AcDbSymbolTable
 70
1
100
AcDbDimStyleTable
 71
0
  0
DIMSTYLE
105
226
100
AcDbSymbolTableRecord
100
AcDbDimStyleTableRecord
  2
STANDARD
 70
0
  3

  4

 40
1.0
 41
0.125
 42
0.0625
 43
0.38
 44
0.125
 45
0.0
 46
0.0
 47
0.001
 48
0.001
140
0.12
141
0.09
142
0.0
143
25.4
144
1.0
145
0.0
146
1.0
147
0.09
 71
1.0
 72
0.0
 73
1
 74
1
 75
0
 76
0
 77
0
 78
4
170
0
171
2
172
0
173
0
174
0
175
0
176
0
177
0
178
0
270
2
271
3
272
3
273
2
274
2
275
0
280
0
281
0
282
0
283
1
284
4
285
0
286
0
287
3
288
0
340
11
278
46
  0
ENDTAB
  0
ENDSEC
  0
SECTION
  2
BLOCKS
  0
BLOCK
  5
20
100
AcDbEntity
  8
0
100
AcDbBlockBegin
  2
*Model_Space
 70
0
 10
0.0
 20
0.0
 30
0.0
  3
*Model_Space
  1

  0
ENDBLK
  5
21
100
AcDbEntity
  8
0
100
AcDbBlockEnd
  0
BLOCK
  5
1C
100
AcDbEntity
  8
0
100
AcDbBlockBegin
  2
*Paper_Space
 70
0
 10
0.0
 20
0.0
 30
0.0
  3
*Paper_Space
  1

  0
ENDBLK
  5
1D
100
AcDbEntity
  8
0
100
AcDbBlockEnd
  0
ENDSEC
  0
SECTION
  2
ENTITIES
  0
LINE
  5
227
100
AcDbEntity
  8
0
100
AcDbLine
 62
7
  6
CONTINUOUS
 10
0.0
 20
0.0
 11
0.0
 21
17.0
  0
LINE
  5
228
100
AcDbEntity
  8
0
100
AcDbLine
 62
7
  6
CONTINUOUS
 10
0.0
 20
0.0
 11
22.0
 21
0.0
  0
LINE
  5
229
100
AcDbEntity
  8
0
100
AcDbLine
 62
7
  6
CONTINUOUS
 10
0.0
 20
17.0
 11
22.0
 21
17.0
  0
LINE
  5
22A
100
AcDbEntity
  8
0
100
AcDbLine
 62
7
  6
CONTINUOUS
 10
22.0
 20
0.0
 11
22.0
 21
17.0
  0
LINE
  5
22B
100
AcDbEntity
  8
0
100
AcDbLine
 62
7
  6
CONTINUOUS
 10
13.8918168271
 20
5.4255200767
 11
13.8918168271
 21
4.2645207193
  0
LINE
  5
22C
100
AcDbEntity
  8
0
100
AcDbLine
 62
9
  6
CONTINUOUS
 10
13.9318168271
 20
5.465520398
 11
13.9318168271
 21
4.224520398
  0
LINE
  5
22D
100
AcDbEntity
  8
0
100
AcDbLine
 62
7
  6
CONTINUOUS
 10
17.8818168271
 20
3.562520398
 11
17.9398168271
 21
3.562520398
  0
LINE
  5
22E
100
AcDbEntity
  8
0
100
AcDbLine
 62
7
  6
CONTINUOUS
 10
14.9418168271
 20
5.5225145775
 11
14.9418168271
 21
4.1675262185
  0
LINE
  5
22F
100
AcDbEntity
  8
0
100
AcDbLine
 62
9
  6
CONTINUOUS
 10
14.9518168271
 20
5.5325203979
 11
14.9518168271
 21
4.157520398
  0
LINE
  5
230
100
AcDbEntity
  8
0
100
AcDbLine
 62
7
  6
CONTINUOUS
 10
17.5348168271
 20
3.789520398
 11
17.6048168271
 21
3.789520398
  0
LINE
  5
231
100
AcDbEntity
  8
0
100
AcDbLine
 62
7
  6
CONTINUOUS
 10
14.9518168271
 20
4.157520398
 11
15.5318168271
 21
4.157520398
  0
LINE
  5
232
100
AcDbEntity
  8
0
100
AcDbLine
 62
7
  6
CONTINUOUS
 10
13.9318168271
 20
4.224520398
 11
14.9418168271
 21
4.224520398
  0
LINE
  5
233
100
AcDbEntity
  8
0
100
AcDbLine
 62
7
  6
CONTINUOUS
 10
15.8739632059
 20
4.353020398
 11
16.4908168271
 21
4.353020398
  0
LINE
  5
234
100
AcDbEntity
  8
0
100
AcDbLine
 62
9
  6
CONTINUOUS
 10
15.5318168271
 20
4.157520398
 11
15.5318168271
 21
5.5325203979
  0
LINE
  5
235
100
AcDbEntity
  8
0
100
AcDbLine
 62
7
  6
CONTINUOUS
 10
15.5418168271
 20
5.522520398
 11
15.5418168271
 21
4.167520398
  0
LINE
  5
236
100
AcDbEntity
  8
0
100
AcDbLine
 62
7
  6
CONTINUOUS
 10
17.4698168271
 20
4.430020398
 11
17.5348168271
 21
4.4317224829
  0
LINE
  5
237
100
AcDbEntity
  8
0
100
AcDbLine
 62
7
  6
CONTINUOUS
 10
16.4908168271
 20
4.430020398
 11
17.4698168271
 21
4.430020398
  0
LINE
  5
238
100
AcDbEntity
  8
0
100
AcDbLine
 62
9
  6
CONTINUOUS
 10
15.708166195
 20
5.2725810631
 11
15.708166195
 21
4.4174597329
  0
LINE
  5
239
100
AcDbEntity
  8
0
100
AcDbLine
 62
7
  6
CONTINUOUS
 10
16.4908168271
 20
4.6461133845
 11
16.1158168271
 21
4.6461133845
  0
LINE
  5
23A
100
AcDbEntity
  8
0
100
AcDbLine
 62
9
  6
CONTINUOUS
 10
15.8642534286
 20
5.3294120974
 11
15.8642534287
 21
4.3606286986
  0
LINE
  5
23B
100
AcDbEntity
  8
0
100
AcDbLine
 62
9
  6
CONTINUOUS
 10
15.8739632059
 20
5.337020398
 11
15.8739632059
 21
4.353020398
  0
LINE
  5
23C
100
AcDbEntity
  8
0
100
AcDbLine
 62
9
  6
CONTINUOUS
 10
13.9318168271
 20
4.845020398
 11
14.9418168271
 21
4.845020398
  0
LINE
  5
23D
100
AcDbEntity
  8
0
100
AcDbLine
 62
7
  6
CONTINUOUS
 10
16.1158168271
 20
4.6461133845
 11
16.1158168271
 21
5.0439274114
  0
LINE
  5
23E
100
AcDbEntity
  8
0
100
AcDbLine
 62
7
  6
CONTINUOUS
 10
16.1158168271
 20
5.0439274114
 11
16.4908168271
 21
5.0439274114
  0
LINE
  5
23F
100
AcDbEntity
  8
0
100
AcDbLine
 62
7
  6
CONTINUOUS
 10
16.4908168271
 20
5.260020398
 11
17.4698168271
 21
5.260020398
  0
LINE
  5
240
100
AcDbEntity
  8
0
100
AcDbLine
 62
7
  6
CONTINUOUS
 10
15.8739632059
 20
5.337020398
 11
16.4908168271
 21
5.337020398
  0
LINE
  5
241
100
AcDbEntity
  8
0
100
AcDbLine
 62
7
  6
CONTINUOUS
 10
17.4698168271
 20
5.260020398
 11
17.5348168271
 21
5.2583183131
  0
LINE
  5
242
100
AcDbEntity
  8
0
100
AcDbLine
 62
7
  6
CONTINUOUS
 10
16.4908168271
 20
4.3530206694
 11
16.4908168271
 21
5.3370201266
  0
LINE
  5
243
100
AcDbEntity
  8
0
100
AcDbLine
 62
7
  6
CONTINUOUS
 10
13.9318168271
 20
5.465520398
 11
14.9418168271
 21
5.465520398
  0
LINE
  5
244
100
AcDbEntity
  8
0
100
AcDbLine
 62
7
  6
CONTINUOUS
 10
14.9518168271
 20
5.532520398
 11
15.5318168271
 21
5.532520398
  0
LINE
  5
245
100
AcDbEntity
  8
0
100
AcDbLine
 62
7
  6
CONTINUOUS
 10
17.5348168271
 20
5.900520398
 11
17.6048168271
 21
5.900520398
  0
LINE
  5
246
100
AcDbEntity
  8
0
100
AcDbLine
 62
7
  6
CONTINUOUS
 10
17.8818168271
 20
6.127520398
 11
17.9398168271
 21
6.127520398
  0
LINE
  5
247
100
AcDbEntity
  8
0
100
AcDbLine
 62
7
  6
CONTINUOUS
 10
17.4698168271
 20
4.430020398
 11
17.4698168271
 21
5.260020398
  0
LINE
  5
248
100
AcDbEntity
  8
0
100
AcDbLine
 62
7
  6
CONTINUOUS
 10
17.5348168271
 20
5.9005198146
 11
17.5348168271
 21
3.7895209814
  0
LINE
  5
249
100
AcDbEntity
  8
0
100
AcDbLine
 62
7
  6
CONTINUOUS
 10
17.6048168271
 20
5.900520398
 11
17.6048168271
 21
3.789520398
  0
LINE
  5
24A
100
AcDbEntity
  8
0
100
AcDbLine
 62
7
  6
CONTINUOUS
 10
17.8818168271
 20
6.1275097745
 11
17.8818168271
 21
3.5625310215
  0
LINE
  5
24B
100
AcDbEntity
  8
0
100
AcDbLine
 62
7
  6
CONTINUOUS
 10
17.9398168271
 20
3.5625310215
 11
17.9398168271
 21
6.1275097745
  0
LINE
  5
24C
100
AcDbEntity
  8
0
100
AcDbLine
 62
7
  6
CONTINUOUS
 10
6.2639335587
 20
9.9975989056
 11
7.4249335575
 21
9.9975989056
  0
LINE
  5
24D
100
AcDbEntity
  8
0
100
AcDbLine
 62
9
  6
CONTINUOUS
 10
6.2239335581
 20
10.0375989056
 11
7.4649335581
 21
10.0375989056
  0
LINE
  5
24E
100
AcDbEntity
  8
0
100
AcDbLine
 62
7
  6
CONTINUOUS
 10
5.5619335581
 20
13.9875989056
 11
5.5619335581
 21
14.0455989056
  0
LINE
  5
24F
100
AcDbEntity
  8
0
100
AcDbLine
 62
7
  6
CONTINUOUS
 10
5.7889335581
 20
13.7105989056
 11
5.7889335581
 21
13.6405989056
  0
LINE
  5
250
100
AcDbEntity
  8
0
100
AcDbLine
 62
7
  6
CONTINUOUS
 10
6.1669335576
 20
11.0475989056
 11
7.5219335586
 21
11.0475989056
  0
LINE
  5
251
100
AcDbEntity
  8
0
100
AcDbLine
 62
9
  6
CONTINUOUS
 10
6.1569335581
 20
11.0575989056
 11
7.5319335581
 21
11.0575989056
  0
LINE
  5
252
100
AcDbEntity
  8
0
100
AcDbLine
 62
7
  6
CONTINUOUS
 10
6.1569335581
 20
11.0575989056
 11
6.1569335581
 21
11.6375989056
  0
LINE
  5
253
100
AcDbEntity
  8
0
100
AcDbLine
 62
7
  6
CONTINUOUS
 10
6.2239335581
 20
11.0475989056
 11
6.2239335581
 21
10.0375989056
  0
LINE
  5
254
100
AcDbEntity
  8
0
100
AcDbLine
 62
7
  6
CONTINUOUS
 10
6.3524335581
 20
12.2215989056
 11
6.3524335581
 21
11.9797452843
  0
LINE
  5
255
100
AcDbEntity
  8
0
100
AcDbLine
 62
7
  6
CONTINUOUS
 10
6.3944335581
 20
12.2215989056
 11
6.3944335581
 21
12.5965989056
  0
LINE
  5
256
100
AcDbEntity
  8
0
100
AcDbLine
 62
7
  6
CONTINUOUS
 10
6.4294335581
 20
12.5965989056
 11
6.4294335581
 21
13.5755989056
  0
LINE
  5
257
100
AcDbEntity
  8
0
100
AcDbLine
 62
7
  6
CONTINUOUS
 10
6.4294335581
 20
13.5755989056
 11
6.431135643
 21
13.6405989056
  0
LINE
  5
258
100
AcDbEntity
  8
0
100
AcDbLine
 62
9
  6
CONTINUOUS
 10
7.5319335581
 20
11.6375989056
 11
6.1569335581
 21
11.6375989056
  0
LINE
  5
259
100
AcDbEntity
  8
0
100
AcDbLine
 62
7
  6
CONTINUOUS
 10
7.5219335587
 20
11.6475989056
 11
6.1669335575
 21
11.6475989056
  0
LINE
  5
25A
100
AcDbEntity
  8
0
100
AcDbLine
 62
9
  6
CONTINUOUS
 10
6.416872893
 20
11.8139482735
 11
7.2719942232
 21
11.8139482735
  0
LINE
  5
25B
100
AcDbEntity
  8
0
100
AcDbLine
 62
9
  6
CONTINUOUS
 10
6.3600418587
 20
11.9700355071
 11
7.3288252575
 21
11.9700355071
  0
LINE
  5
25C
100
AcDbEntity
  8
0
100
AcDbLine
 62
9
  6
CONTINUOUS
 10
6.3524335581
 20
11.9797452843
 11
7.3364335581
 21
11.9797452843
  0
LINE
  5
25D
100
AcDbEntity
  8
0
100
AcDbLine
 62
7
  6
CONTINUOUS
 10
7.3364335581
 20
12.2215989056
 11
7.2944335581
 21
12.2215989056
  0
LINE
  5
25E
100
AcDbEntity
  8
0
100
AcDbLine
 62
7
  6
CONTINUOUS
 10
6.3944335581
 20
12.2215989056
 11
6.3524335581
 21
12.2215989056
  0
LINE
  5
25F
100
AcDbEntity
  8
0
100
AcDbLine
 62
7
  6
CONTINUOUS
 10
7.2577314732
 20
13.6405989056
 11
7.2594335581
 21
13.5755989056
  0
LINE
  5
260
100
AcDbEntity
  8
0
100
AcDbLine
 62
7
  6
CONTINUOUS
 10
7.2594335581
 20
13.5755989056
 11
7.2594335581
 21
12.5965989056
  0
LINE
  5
261
100
AcDbEntity
  8
0
100
AcDbLine
 62
7
  6
CONTINUOUS
 10
7.2944335581
 20
12.2215989056
 11
7.2944335581
 21
12.5965989056
  0
LINE
  5
262
100
AcDbEntity
  8
0
100
AcDbLine
 62
7
  6
CONTINUOUS
 10
7.3364335581
 20
11.9797452844
 11
7.3364335581
 21
12.2215989056
  0
LINE
  5
263
100
AcDbEntity
  8
0
100
AcDbLine
 62
7
  6
CONTINUOUS
 10
7.4649335581
 20
10.0375989056
 11
7.4649335581
 21
11.0475989056
  0
LINE
  5
264
100
AcDbEntity
  8
0
100
AcDbLine
 62
7
  6
CONTINUOUS
 10
7.2944335581
 20
12.5965989056
 11
6.3944335581
 21
12.5965989056
  0
LINE
  5
265
100
AcDbEntity
  8
0
100
AcDbLine
 62
7
  6
CONTINUOUS
 10
7.5319335581
 20
11.6375989056
 11
7.5319335581
 21
11.0575989056
  0
LINE
  5
266
100
AcDbEntity
  8
0
100
AcDbLine
 62
7
  6
CONTINUOUS
 10
7.8999335581
 20
13.6405989056
 11
7.8999335581
 21
13.7105989056
  0
LINE
  5
267
100
AcDbEntity
  8
0
100
AcDbLine
 62
7
  6
CONTINUOUS
 10
8.1269335581
 20
14.0455989056
 11
8.1269335581
 21
13.9875989056
  0
LINE
  5
268
100
AcDbEntity
  8
0
100
AcDbLine
 62
7
  6
CONTINUOUS
 10
6.4294335581
 20
13.5755989056
 11
7.2594335581
 21
13.5755989056
  0
LINE
  5
269
100
AcDbEntity
  8
0
100
AcDbLine
 62
7
  6
CONTINUOUS
 10
5.7889335581
 20
13.6405989056
 11
7.8999335581
 21
13.6405989056
  0
LINE
  5
26A
100
AcDbEntity
  8
0
100
AcDbLine
 62
7
  6
CONTINUOUS
 10
5.7889335581
 20
13.7105989056
 11
7.8999335581
 21
13.7105989056
  0
LINE
  5
26B
100
AcDbEntity
  8
0
100
AcDbLine
 62
7
  6
CONTINUOUS
 10
5.5619335581
 20
13.9875989056
 11
8.1269335581
 21
13.9875989056
  0
LINE
  5
26C
100
AcDbEntity
  8
0
100
AcDbLine
 62
7
  6
CONTINUOUS
 10
8.1269335581
 20
14.0455989056
 11
5.5619335581
 21
14.0455989056
  0
LINE
  5
26D
100
AcDbEntity
  8
0
100
AcDbLine
 62
7
  6
CONTINUOUS
 10
14.2254682133
 20
11.9480690726
 11
14.18445602
 21
11.9717474735
  0
LINE
  5
26E
100
AcDbEntity
  8
0
100
AcDbLine
 62
7
  6
CONTINUOUS
 10
14.5843342663
 20
12.0029946825
 11
14.5348367917
 21
12.0315720628
  0
LINE
  5
26F
100
AcDbEntity
  8
0
100
AcDbLine
 62
7
  6
CONTINUOUS
 10
16.5947910821
 20
11.2671866968
 11
16.1846691491
 21
11.5039707053
  0
LINE
  5
270
100
AcDbEntity
  8
0
100
AcDbLine
 62
7
  6
CONTINUOUS
 10
17.3495399989
 20
10.9087971426
 11
16.486869765
 21
11.4068600344
  0
LINE
  5
271
100
AcDbEntity
  8
0
100
AcDbLine
 62
7
  6
CONTINUOUS
 10
16.0399178651
 20
11.8132868533
 11
15.6043037459
 21
12.0647887823
  0
LINE
  5
272
100
AcDbEntity
  8
0
100
AcDbLine
 62
7
  6
CONTINUOUS
 10
15.5321056944
 20
12.1447546538
 11
15.7972707373
 21
11.9916615449
  0
LINE
  5
273
100
AcDbEntity
  8
0
100
AcDbLine
 62
9
  6
CONTINUOUS
 10
16.3583600073
 20
11.6909107332
 11
17.2210302412
 21
11.1928478414
  0
LINE
  5
274
100
AcDbEntity
  8
0
100
AcDbLine
 62
7
  6
CONTINUOUS
 10
15.5321056944
 20
12.1953842882
 11
14.9505462071
 21
12.5311478147
  0
LINE
  5
275
100
AcDbEntity
  8
0
100
AcDbLine
 62
7
  6
CONTINUOUS
 10
14.9467396606
 20
12.5334276797
 11
14.9505462071
 21
12.5311478147
  0
LINE
  5
276
100
AcDbEntity
  8
0
100
AcDbLine
 62
7
  6
CONTINUOUS
 10
15.5321056944
 20
12.1447546538
 11
15.5321056944
 21
12.4695684466
  0
LINE
  5
277
100
AcDbEntity
  8
0
100
AcDbLine
 62
7
  6
CONTINUOUS
 10
15.7972707373
 20
12.3164753377
 11
15.5321056944
 21
12.4695684466
  0
LINE
  5
278
100
AcDbEntity
  8
0
100
AcDbLine
 62
7
  6
CONTINUOUS
 10
15.3616685129
 20
13.2521055334
 11
15.3655462071
 21
13.2499488999
  0
LINE
  5
279
100
AcDbEntity
  8
0
100
AcDbLine
 62
7
  6
CONTINUOUS
 10
15.92685672
 20
12.9258761242
 11
15.3655462071
 21
13.2499488999
  0
LINE
  5
27A
100
AcDbEntity
  8
0
100
AcDbLine
 62
7
  6
CONTINUOUS
 10
16.5324851245
 20
12.6651283433
 11
16.0963037459
 21
12.9169577796
  0
LINE
  5
27B
100
AcDbEntity
  8
0
100
AcDbLine
 62
7
  6
CONTINUOUS
 10
17.9700399989
 20
11.9835346687
 11
17.1073697246
 21
12.4815975838
  0
LINE
  5
27C
100
AcDbEntity
  8
0
100
AcDbLine
 62
9
  6
CONTINUOUS
 10
17.2822883931
 20
12.4579731795
 11
17.2822910821
 21
12.457971627
  0
LINE
  5
27D
100
AcDbEntity
  8
0
100
AcDbLine
 62
7
  6
CONTINUOUS
 10
17.2822910821
 20
12.457971627
 11
16.8721691491
 21
12.6947556355
  0
LINE
  5
27E
100
AcDbEntity
  8
0
100
AcDbLine
 62
7
  6
CONTINUOUS
 10
15.6398342663
 20
13.8311743099
 11
15.5903367917
 21
13.8597516902
  0
LINE
  5
27F
100
AcDbEntity
  8
0
100
AcDbLine
 62
7
  6
CONTINUOUS
 10
15.5079682133
 20
14.1694242333
 11
15.46695602
 21
14.1931026342
  0
CIRCLE
  5
280
100
AcDbEntity
  8
0
100
AcDbCircle
 62
7
  6
CONTINUOUS
 10
6.8444335581
 20
4.845020398
 40
1.2825
  0
CIRCLE
  5
281
100
AcDbEntity
  8
0
100
AcDbCircle
 62
7
  6
CONTINUOUS
 10
6.8444335581
 20
4.845020398
 40
1.2458153065
  0
CIRCLE
  5
282
100
AcDbEntity
  8
0
100
AcDbCircle
 62
7
  6
CONTINUOUS
 10
6.8444335581
 20
4.845020398
 40
1.0555
  0
CIRCLE
  5
283
100
AcDbEntity
  8
0
100
AcDbCircle
 62
7
  6
CONTINUOUS
 10
6.8444335581
 20
4.845020398
 40
0.6875
  0
CIRCLE
  5
284
100
AcDbEntity
  8
0
100
AcDbCircle
 62
9
  6
CONTINUOUS
 10
6.8444335581
 20
4.845020398
 40
0.6775000005
  0
CIRCLE
  5
285
100
AcDbEntity
  8
0
100
AcDbCircle
 62
7
  6
CONTINUOUS
 10
6.8444335581
 20
4.845020398
 40
0.6205
  0
CIRCLE
  5
286
100
AcDbEntity
  8
0
100
AcDbCircle
 62
9
  6
CONTINUOUS
 10
6.8444335581
 20
4.845020398
 40
0.5804999994
  0
ARC
  5
287
100
AcDbEntity
  8
0
100
AcDbCircle
 62
7
  6
CONTINUOUS
 10
15.3958168271
 20
4.845020398
 40
0.5295
100
AcDbArc
 50
53.8504471968
 51
73.9532502835
  0
ARC
  5
288
100
AcDbEntity
  8
0
100
AcDbCircle
 62
7
  6
CONTINUOUS
 10
15.3958168271
 20
4.845020398
 40
0.5295
100
AcDbArc
 50
286.0467497165
 51
306.1495528032
  0
ARC
  5
289
100
AcDbEntity
  8
0
100
AcDbCircle
 62
7
  6
CONTINUOUS
 10
17.8459080748
 20
5.8429709706
 40
0.2478647339
100
AcDbArc
 50
81.670111313
 51
166.5745025095
  0
ARC
  5
28A
100
AcDbEntity
  8
0
100
AcDbCircle
 62
7
  6
CONTINUOUS
 10
17.8459080748
 20
3.8470698254
 40
0.2478647339
100
AcDbArc
 50
193.4254974905
 51
278.329888687
  0
ARC
  5
28B
100
AcDbEntity
  8
0
100
AcDbCircle
 62
7
  6
CONTINUOUS
 10
15.7671556555
 20
4.3367117078
 40
0.1
100
AcDbArc
 50
13.8375528441
 51
126.1495293789
  0
ARC
  5
28C
100
AcDbEntity
  8
0
100
AcDbCircle
 62
7
  6
CONTINUOUS
 10
15.7671556555
 20
5.3533290882
 40
0.1
100
AcDbArc
 50
233.8504706333
 51
346.1624471489
  0
ARC
  5
28D
100
AcDbEntity
  8
0
100
AcDbCircle
 62
7
  6
CONTINUOUS
 10
13.9318168271
 20
5.425520398
 40
0.04
100
AcDbArc
 50
90.0
 51
180.0000008104
  0
ARC
  5
28E
100
AcDbEntity
  8
0
100
AcDbCircle
 62
7
  6
CONTINUOUS
 10
13.9318168271
 20
4.264520398
 40
0.04
100
AcDbArc
 50
179.9999991896
 51
270.0
  0
ARC
  5
28F
100
AcDbEntity
  8
0
100
AcDbCircle
 62
7
  6
CONTINUOUS
 10
14.9518168271
 20
4.167520398
 40
0.01
100
AcDbArc
 50
180.0000030797
 51
270.0
  0
ARC
  5
290
100
AcDbEntity
  8
0
100
AcDbCircle
 62
7
  6
CONTINUOUS
 10
14.9518168271
 20
5.522520398
 40
0.01
100
AcDbArc
 50
90.0
 51
179.9999969178
  0
ARC
  5
291
100
AcDbEntity
  8
0
100
AcDbCircle
 62
7
  6
CONTINUOUS
 10
15.5318168271
 20
4.167520398
 40
0.01
100
AcDbArc
 50
270.0
 51
359.999996349
  0
ARC
  5
292
100
AcDbEntity
  8
0
100
AcDbCircle
 62
7
  6
CONTINUOUS
 10
15.5318168271
 20
5.522520398
 40
0.01
100
AcDbArc
 50
0.000003651
 51
90.0
  0
ARC
  5
293
100
AcDbEntity
  8
0
100
AcDbCircle
 62
7
  6
CONTINUOUS
 10
15.8739632059
 20
5.327020398
 40
0.01
100
AcDbArc
 50
90.0
 51
166.1624451557
  0
ARC
  5
294
100
AcDbEntity
  8
0
100
AcDbCircle
 62
7
  6
CONTINUOUS
 10
15.8739632059
 20
4.363020398
 40
0.01
100
AcDbArc
 50
193.8375548349
 51
270.0
  0
ARC
  5
295
100
AcDbEntity
  8
0
100
AcDbCircle
 62
7
  6
CONTINUOUS
 10
6.3361248679
 20
11.872937734
 40
0.1
100
AcDbArc
 50
323.8504513455
 51
76.1624471559
  0
ARC
  5
296
100
AcDbEntity
  8
0
100
AcDbCircle
 62
7
  6
CONTINUOUS
 10
6.2639335581
 20
10.0375989056
 40
0.04
100
AcDbArc
 50
180.0
 51
270.0
  0
ARC
  5
297
100
AcDbEntity
  8
0
100
AcDbCircle
 62
7
  6
CONTINUOUS
 10
6.1669335581
 20
11.6375989056
 40
0.01
100
AcDbArc
 50
89.9999999991
 51
180.0
  0
ARC
  5
298
100
AcDbEntity
  8
0
100
AcDbCircle
 62
7
  6
CONTINUOUS
 10
6.1669335581
 20
11.0575989056
 40
0.01
100
AcDbArc
 50
180.0
 51
269.9999969204
  0
ARC
  5
299
100
AcDbEntity
  8
0
100
AcDbCircle
 62
7
  6
CONTINUOUS
 10
6.3624335581
 20
11.9797452843
 40
0.01
100
AcDbArc
 50
180.0
 51
256.1624451557
  0
ARC
  5
29A
100
AcDbEntity
  8
0
100
AcDbCircle
 62
7
  6
CONTINUOUS
 10
5.8464829855
 20
13.9516901533
 40
0.2478647339
100
AcDbArc
 50
171.670111313
 51
256.5745025095
  0
ARC
  5
29B
100
AcDbEntity
  8
0
100
AcDbCircle
 62
7
  6
CONTINUOUS
 10
6.8444335581
 20
11.5015989056
 40
0.5295
100
AcDbArc
 50
16.0467497165
 51
36.1495528032
  0
ARC
  5
29C
100
AcDbEntity
  8
0
100
AcDbCircle
 62
7
  6
CONTINUOUS
 10
6.8444335581
 20
11.5015989056
 40
0.5295
100
AcDbArc
 50
143.8504471968
 51
163.9532502835
  0
ARC
  5
29D
100
AcDbEntity
  8
0
100
AcDbCircle
 62
7
  6
CONTINUOUS
 10
7.3527422483
 20
11.872937734
 40
0.1
100
AcDbArc
 50
103.8375528441
 51
216.1495293789
  0
ARC
  5
29E
100
AcDbEntity
  8
0
100
AcDbCircle
 62
7
  6
CONTINUOUS
 10
7.4249335581
 20
10.0375989056
 40
0.04
100
AcDbArc
 50
270.0
 51
360.0
  0
ARC
  5
29F
100
AcDbEntity
  8
0
100
AcDbCircle
 62
7
  6
CONTINUOUS
 10
7.5219335581
 20
11.0575989056
 40
0.01
100
AcDbArc
 50
270.0000030796
 51
360.0
  0
ARC
  5
2A0
100
AcDbEntity
  8
0
100
AcDbCircle
 62
7
  6
CONTINUOUS
 10
7.5219335581
 20
11.6375989056
 40
0.01
100
AcDbArc
 50
0.0
 51
89.9999963488
  0
ARC
  5
2A1
100
AcDbEntity
  8
0
100
AcDbCircle
 62
7
  6
CONTINUOUS
 10
7.3264335581
 20
11.9797452844
 40
0.01
100
AcDbArc
 50
283.8375548349
 51
360.0
  0
ARC
  5
2A2
100
AcDbEntity
  8
0
100
AcDbCircle
 62
7
  6
CONTINUOUS
 10
7.8423841307
 20
13.9516901533
 40
0.2478647339
100
AcDbArc
 50
283.4254974905
 51
8.329888687
  0
ARC
  5
2A3
100
AcDbEntity
  8
0
100
AcDbCircle
 62
7
  6
CONTINUOUS
 10
14.4399507747
 20
12.319502684
 40
0.428911213
100
AcDbArc
 50
233.7025927309
 51
240.0007664448
  0
ARC
  5
2A4
100
AcDbEntity
  8
0
100
AcDbCircle
 62
7
  6
CONTINUOUS
 10
15.2936775933
 20
13.7982363723
 40
0.428602419
100
AcDbArc
 50
60.0065621782
 51
66.2512300067
  0
ARC
  5
2A5
100
AcDbEntity
  8
0
100
AcDbCircle
 62
9
  6
CONTINUOUS
 10
16.7458833291
 20
12.4318071091
 40
0.2951544842
100
AcDbArc
 50
88.5372547403
 51
89.4842507036
  0
ARC
  5
2A6
100
AcDbEntity
  8
0
100
AcDbCircle
 62
9
  6
CONTINUOUS
 10
16.7506999518
 20
12.4757058717
 40
0.2509241135
100
AcDbArc
 50
75.4590496802
 51
79.9395298263
  0
ARC
  5
2A7
100
AcDbEntity
  8
0
100
AcDbCircle
 62
9
  6
CONTINUOUS
 10
16.7536537192
 20
12.4867089657
 40
0.2395318774
100
AcDbArc
 50
68.3177750736
 51
75.4821529424
  0
ARC
  5
2A8
100
AcDbEntity
  8
0
100
AcDbCircle
 62
9
  6
CONTINUOUS
 10
16.7569880241
 20
12.4951881276
 40
0.2304207548
100
AcDbArc
 50
60.0089143165
 51
68.3092449564
  0
SPLINE
  5
2A9
100
AcDbEntity
  8
0
100
AcDbSpline
 62
7
  6
CONTINUOUS
 70
0
 71
3
 72
15
 73
11
 74
0
 42
0.0000001
 43
0.0000001
 44
0.0000000001
 40
0.0
 40
0.0
 40
0.0
 40
0.0
 40
0.1346739562
 40
0.2657091795
 40
0.3934671246
 40
0.5183777941
 40
0.6409257098
 40
0.761652832
 40
0.8811432737
 40
1.0
 40
1.0
 40
1.0
 40
1.0
 10
16.7767872811
 20
11.2383718128
 30
0.0
 10
16.7684570459
 20
11.2370503713
 30
0.0
 10
16.7519249393
 20
11.2350081049
 30
0.0
 10
16.7272891921
 20
11.233806062
 30
0.0
 10
16.7032427538
 20
11.2345198569
 30
0.0
 10
16.6798643844
 20
11.2371626234
 30
0.0
 10
16.6572318331
 20
11.2417296318
 30
0.0
 10
16.6354253123
 20
11.2482188111
 30
0.0
 10
16.6145284336
 20
11.2566117527
 30
0.0
 10
16.6012375932
 20
11.2634648019
 30
0.0
 10
16.5947910821
 20
11.2671866968
 30
0.0
  0
SPLINE
  5
2AA
100
AcDbEntity
  8
0
100
AcDbSpline
 62
7
  6
CONTINUOUS
 70
0
 71
3
 72
15
 73
11
 74
0
 42
0.0000001
 43
0.0000001
 44
0.0000000001
 40
0.0
 40
0.0
 40
0.0
 40
0.0
 40
0.1188805695
 40
0.2383907245
 40
0.3591325977
 40
0.4816891054
 40
0.6065980334
 40
0.7343443634
 40
0.8653579791
 40
1.0
 40
1.0
 40
1.0
 40
1.0
 10
17.2822910821
 20
12.457971627
 30
0.0
 10
17.288723728
 20
12.4542577372
 30
0.0
 10
17.3012776124
 20
12.446193109
 30
0.0
 10
17.3189600117
 20
12.4323283481
 30
0.0
 10
17.3354533198
 20
12.4167306179
 30
0.0
 10
17.3507018016
 20
12.399464263
 30
0.0
 10
17.3646617944
 20
12.3805954026
 30
0.0
 10
17.3772920789
 20
12.3601898102
 30
0.0
 10
17.3885644608
 20
12.3383211238
 30
0.0
 10
17.3950623603
 20
12.323029199
 30
0.0
 10
17.3980847143
 20
12.3151782925
 30
0.0
  0
SPLINE
  5
2AB
100
AcDbEntity
  8
0
100
AcDbSpline
 62
7
  6
CONTINUOUS
 70
0
 71
3
 72
21
 73
17
 74
0
 42
0.0000001
 43
0.0000001
 44
0.0000000001
 40
0.0
 40
0.0
 40
0.0
 40
0.0
 40
0.0545693726
 40
0.1093727968
 40
0.164634514
 40
0.2205728414
 40
0.2773945577
 40
0.3352875839
 40
0.3944237781
 40
0.4549539389
 40
0.5170057783
 40
0.5806827849
 40
0.7131687041
 40
0.8529201326
 40
0.9255717525
 40
1.0
 40
1.0
 40
1.0
 40
1.0
 10
16.1846691491
 20
11.5039707053
 30
0.0
 10
16.1788899826
 20
11.5073073086
 30
0.0
 10
16.1675860602
 20
11.5144921004
 30
0.0
 10
16.1515490451
 20
11.5267008993
 30
0.0
 10
16.1364598057
 20
11.5403159469
 30
0.0
 10
16.1223626329
 20
11.5552945536
 30
0.0
 10
16.1092889391
 20
11.5715876105
 30
0.0
 10
16.0972720741
 20
11.5891494352
 30
0.0
 10
16.0863363148
 20
11.6079291352
 30
0.0
 10
16.0765022609
 20
11.6278755177
 30
0.0
 10
16.0677905465
 20
11.6489382745
 30
0.0
 10
16.0575542913
 20
11.6788280362
 30
0.0
 10
16.0477458177
 20
11.7188145492
 30
0.0
 10
16.0420400398
 20
11.7606746715
 30
0.0
 10
16.0397336206
 20
11.795683844
 30
0.0
 10
16.0393543048
 20
11.813673235
 30
0.0
 10
16.0393543048
 20
11.8227749536
 30
0.0
  0
SPLINE
  5
2AC
100
AcDbEntity
  8
0
100
AcDbSpline
 62
7
  6
CONTINUOUS
 70
0
 71
3
 72
46
 73
42
 74
0
 42
0.0000001
 43
0.0000001
 44
0.0000000001
 40
0.0
 40
0.0
 40
0.0
 40
0.0
 40
0.0306406783
 40
0.0623205409
 40
0.0949552509
 40
0.1284708043
 40
0.162783019
 40
0.1977888689
 40
0.233377425
 40
0.2694313153
 40
0.3058278421
 40
0.3424394479
 40
0.3791364847
 40
0.4157880563
 40
0.4522641445
 40
0.4884362957
 40
0.524180258
 40
0.5593761964
 40
0.5939120134
 40
0.6276830871
 40
0.6605963459
 40
0.6925698241
 40
0.7235371619
 40
0.7534475913
 40
0.78227042
 40
0.7962722919
 40
0.8100008203
 40
0.8234585397
 40
0.8366495456
 40
0.8495800424
 40
0.8622579612
 40
0.8868892316
 40
0.9106494852
 40
0.9222468805
 40
0.9336777414
 40
0.9449623114
 40
0.9561224995
 40
0.967181863
 40
0.9781646639
 40
0.9890955815
 40
1.0
 40
1.0
 40
1.0
 40
1.0
 10
16.0393543048
 20
11.8227749536
 30
0.0
 10
16.0393543048
 20
11.8368000799
 30
0.0
 10
16.0402801295
 20
11.8653324011
 30
0.0
 10
16.0442585946
 20
11.9086361337
 30
0.0
 10
16.050834038
 20
11.9529528531
 30
0.0
 10
16.0599628594
 20
11.998042497
 30
0.0
 10
16.0715960364
 20
12.0436714757
 30
0.0
 10
16.0856682832
 20
12.0896003236
 30
0.0
 10
16.1021058478
 20
12.1355833493
 30
0.0
 10
16.120818224
 20
12.1813762186
 30
0.0
 10
16.1417053727
 20
12.2267344939
 30
0.0
 10
16.1646553072
 20
12.2714156444
 30
0.0
 10
16.1895441154
 20
12.3151807479
 30
0.0
 10
16.2162398076
 20
12.3577945829
 30
0.0
 10
16.2445975126
 20
12.3990299874
 30
0.0
 10
16.2744682868
 20
12.4386643676
 30
0.0
 10
16.3056900307
 20
12.4764875
 30
0.0
 10
16.3381000896
 20
12.5122945135
 30
0.0
 10
16.3715236056
 20
12.5458967222
 30
0.0
 10
16.4057879474
 20
12.5771115394
 30
0.0
 10
16.4407105737
 20
12.6057754201
 30
0.0
 10
16.476112883
 20
12.6317317805
 30
0.0
 10
16.5118102643
 20
12.654844646
 30
0.0
 10
16.5476211969
 20
12.6749850712
 30
0.0
 10
16.5776940531
 20
12.6893393026
 30
0.0
 10
16.6016378225
 20
12.6991907324
 30
0.0
 10
16.6193359971
 20
12.7057016317
 30
0.0
 10
16.63692412
 20
12.7113955596
 30
0.0
 10
16.6543801511
 20
12.7162624671
 30
0.0
 10
16.6716820368
 20
12.7202952268
 30
0.0
 10
16.6942949881
 20
12.7245101838
 30
0.0
 10
16.7221091015
 20
12.7277214597
 30
0.0
 10
16.7496202851
 20
12.7281000689
 30
0.0
 10
16.7709959147
 20
12.7266307862
 30
0.0
 10
16.7865881374
 20
12.7246718097
 30
0.0
 10
16.8018438901
 20
12.7218490701
 30
0.0
 10
16.8167400378
 20
12.7181642106
 30
0.0
 10
16.8312519817
 20
12.7136184081
 30
0.0
 10
16.8453563124
 20
12.7082185293
 30
0.0
 10
16.8590291999
 20
12.7019742136
 30
0.0
 10
16.8678465839
 20
12.6972512696
 30
0.0
 10
16.8721691491
 20
12.6947556355
 30
0.0
  0
SPLINE
  5
2AD
100
AcDbEntity
  8
0
100
AcDbSpline
 62
9
  6
CONTINUOUS
 70
0
 71
3
 72
35
 73
31
 74
0
 42
0.0000001
 43
0.0000001
 44
0.0000000001
 40
0.0
 40
0.0
 40
0.0
 40
0.0
 40
0.0287559867
 40
0.0583480107
 40
0.0887201391
 40
0.1198219962
 40
0.151604129
 40
0.1840082509
 40
0.2503978404
 40
0.318424716
 40
0.3874623971
 40
0.4221604481
 40
0.4568630718
 40
0.4914867696
 40
0.5259484302
 40
0.5601660707
 40
0.5940598936
 40
0.6275519282
 40
0.6605680602
 40
0.6930371534
 40
0.724893147
 40
0.7560749456
 40
0.7865272787
 40
0.8162025283
 40
0.8450596977
 40
0.8730681165
 40
0.9002054613
 40
0.92646187
 40
0.9518388186
 40
1.0
 40
1.0
 40
1.0
 40
1.0
 10
16.4524051701
 20
11.5819084622
 30
0.0
 10
16.4524051701
 20
11.593327718
 30
0.0
 10
16.4530184838
 20
11.6165018673
 30
0.0
 10
16.4556743392
 20
11.6516457543
 30
0.0
 10
16.4600752446
 20
11.6875528261
 30
0.0
 10
16.4662029189
 20
11.7240866814
 30
0.0
 10
16.4740354221
 20
11.7611183746
 30
0.0
 10
16.4868162948
 20
11.8113834315
 30
0.0
 10
16.5069207797
 20
11.8745789487
 30
0.0
 10
16.5370300581
 20
11.949623271
 30
0.0
 10
16.5668659955
 20
12.0110282109
 30
0.0
 10
16.5934345643
 20
12.0591669872
 30
0.0
 10
16.6146422789
 20
12.0946266749
 30
0.0
 10
16.6370194572
 20
12.1292478595
 30
0.0
 10
16.6604836841
 20
12.1629075767
 30
0.0
 10
16.6849529765
 20
12.1954822637
 30
0.0
 10
16.7103359743
 20
12.2268566885
 30
0.0
 10
16.7365441251
 20
12.2569154183
 30
0.0
 10
16.7634804669
 20
12.2855519798
 30
0.0
 10
16.7910495406
 20
12.3126618211
 30
0.0
 10
16.8191514607
 20
12.3381475629
 30
0.0
 10
16.8476845409
 20
12.3619180237
 30
0.0
 10
16.8765476702
 20
12.3838856902
 30
0.0
 10
16.9056349411
 20
12.4039741667
 30
0.0
 10
16.9348445384
 20
12.422107464
 30
0.0
 10
16.9640695954
 20
12.4382239094
 30
0.0
 10
16.9932064503
 20
12.4522613502
 30
0.0
 10
17.0221543605
 20
12.4641725851
 30
0.0
 10
17.0596880804
 20
12.4769311113
 30
0.0
 10
17.0882590621
 20
12.4835835189
 30
0.0
 10
17.1071719409
 20
12.4864256003
 30
0.0
  0
SPLINE
  5
2AE
100
AcDbEntity
  8
0
100
AcDbSpline
 62
9
  6
CONTINUOUS
 70
0
 71
3
 72
14
 73
10
 74
0
 42
0.0000001
 43
0.0000001
 44
0.0000000001
 40
0.0
 40
0.0
 40
0.0
 40
0.0
 40
0.2667177913
 40
0.3947290116
 40
0.5196810923
 40
0.6420855223
 40
0.7625156927
 40
0.8815997196
 40
1.0
 40
1.0
 40
1.0
 40
1.0
 10
17.1071719409
 20
12.4864256003
 30
0.0
 10
17.1230661638
 20
12.4888140614
 30
0.0
 10
17.1468869714
 20
12.4907748878
 30
0.0
 10
17.1782087869
 20
12.4896455092
 30
0.0
 10
17.2006996895
 20
12.486983457
 30
0.0
 10
17.2224331691
 20
12.4825008524
 30
0.0
 10
17.243345789
 20
12.4762052629
 30
0.0
 10
17.2633726321
 20
12.4681199569
 30
0.0
 10
17.2761092695
 20
12.461540462
 30
0.0
 10
17.2822882184
 20
12.457972877
 30
0.0
  0
SPLINE
  5
2AF
100
AcDbEntity
  8
0
100
AcDbSpline
 62
9
  6
CONTINUOUS
 70
0
 71
3
 72
53
 73
49
 74
0
 42
0.0000001
 43
0.0000001
 44
0.0000000001
 40
0.0
 40
0.0
 40
0.0
 40
0.0
 40
0.0158835756
 40
0.032103495
 40
0.0486457891
 40
0.0654959452
 40
0.0826400904
 40
0.1000639108
 40
0.1356833539
 40
0.1722135491
 40
0.2094935168
 40
0.2473508846
 40
0.2856040082
 40
0.3240650612
 40
0.3625430011
 40
0.4008468418
 40
0.4387878611
 40
0.4761832366
 40
0.5128585495
 40
0.5486507828
 40
0.5834124832
 40
0.6003676322
 40
0.617018642
 40
0.6493538375
 40
0.6650234056
 40
0.6803492299
 40
0.6953261596
 40
0.709952098
 40
0.7381457479
 40
0.7517294842
 40
0.7649794394
 40
0.7905183676
 40
0.8028523664
 40
0.8149212309
 40
0.8267511612
 40
0.8383718431
 40
0.8498158255
 40
0.8611187761
 40
0.8723188437
 40
0.8834557961
 40
0.8945706989
 40
0.9057049946
 40
0.9168997173
 40
0.9281949608
 40
0.9396287738
 40
0.9512368707
 40
0.9750924629
 40
1.0
 40
1.0
 40
1.0
 40
1.0
 10
16.4665473053
 20
11.581908462
 30
0.0
 10
16.4665508627
 20
11.5899584034
 30
0.0
 10
16.4668621374
 20
11.6062300103
 30
0.0
 10
16.4682091432
 20
11.630852038
 30
0.0
 10
16.470443081
 20
11.6559015052
 30
0.0
 10
16.4735669347
 20
11.6813272401
 30
0.0
 10
16.4775729045
 20
11.7070811781
 30
0.0
 10
16.4841255436
 20
11.742048843
 30
0.0
 10
16.4945021542
 20
11.7862727166
 30
0.0
 10
16.5102094624
 20
11.8394903112
 30
0.0
 10
16.5291523244
 20
11.892848591
 30
0.0
 10
16.5511875297
 20
11.9459508548
 30
0.0
 10
16.5761504284
 20
11.9984043118
 30
0.0
 10
16.6038581135
 20
12.0498181965
 30
0.0
 10
16.634103163
 20
12.0998115589
 30
0.0
 10
16.6666608468
 20
12.1480132989
 30
0.0
 10
16.7012911344
 20
12.1940644742
 30
0.0
 10
16.7377350641
 20
12.2376246561
 30
0.0
 10
16.7757236879
 20
12.2783703951
 30
0.0
 10
16.8149753308
 20
12.3159977847
 30
0.0
 10
16.8487724897
 20
12.344762328
 30
0.0
 10
16.8762056391
 20
12.3659378103
 30
0.0
 10
16.9033174577
 20
12.385485417
 30
0.0
 10
16.9308563947
 20
12.4033041012
 30
0.0
 10
16.9587386287
 20
12.4192153873
 30
0.0
 10
16.9794089392
 20
12.4299798935
 30
0.0
 10
17.000018458
 20
12.4396780779
 30
0.0
 10
17.027029636
 20
12.4510248009
 30
0.0
 10
17.0540986833
 20
12.4603639713
 30
0.0
 10
17.0810737365
 20
12.4674851825
 30
0.0
 10
17.1070590337
 20
12.4729378346
 30
0.0
 10
17.1328265493
 20
12.4762226873
 30
0.0
 10
17.158133328
 20
12.4771537389
 30
0.0
 10
17.1765033761
 20
12.4766868903
 30
0.0
 10
17.1944446
 20
12.4750630657
 30
0.0
 10
17.2119242248
 20
12.4722866329
 30
0.0
 10
17.2289086253
 20
12.4683602056
 30
0.0
 10
17.2453650215
 20
12.4632901814
 30
0.0
 10
17.26126252
 20
12.4570880402
 30
0.0
 10
17.2765700974
 20
12.4497639102
 30
0.0
 10
17.2912573517
 20
12.441330556
 30
0.0
 10
17.3052972616
 20
12.4318065958
 30
0.0
 10
17.3186626396
 20
12.4212096253
 30
0.0
 10
17.3313264906
 20
12.4095589514
 30
0.0
 10
17.3432670206
 20
12.3968788497
 30
0.0
 10
17.3583272587
 20
12.3784695048
 30
0.0
 10
17.375231822
 20
12.3528559523
 30
0.0
 10
17.3862005454
 20
12.3306363632
 30
0.0
 10
17.3911520386
 20
12.3190246382
 30
0.0
  0
SPLINE
  5
2B0
100
AcDbEntity
  8
0
100
AcDbSpline
 62
9
  6
CONTINUOUS
 70
0
 71
3
 72
29
 73
25
 74
0
 42
0.0000001
 43
0.0000001
 44
0.0000000001
 40
0.0
 40
0.0
 40
0.0
 40
0.0
 40
0.0625644676
 40
0.1227956184
 40
0.1810920241
 40
0.2096758153
 40
0.2379634961
 40
0.2660265407
 40
0.2939390157
 40
0.3217772235
 40
0.3496186615
 40
0.3775405013
 40
0.4056189875
 40
0.4339284218
 40
0.4625394888
 40
0.4915191269
 40
0.5209303512
 40
0.5812493147
 40
0.6439166308
 40
0.7092331205
 40
0.777405937
 40
0.8485736508
 40
0.9228014192
 40
1.0
 40
1.0
 40
1.0
 40
1.0
 10
16.7695601732
 20
11.2423844952
 30
0.0
 10
16.758698759
 20
11.2410696632
 30
0.0
 10
16.7372375403
 20
11.2395120059
 30
0.0
 10
16.705528271
 20
11.2405917913
 30
0.0
 10
16.6800200645
 20
11.2444069525
 30
0.0
 10
16.6604477389
 20
11.2491984353
 30
0.0
 10
16.6462582129
 20
11.253620622
 30
0.0
 10
16.6324858178
 20
11.2588871888
 30
0.0
 10
16.6191496714
 20
11.264991328
 30
0.0
 10
16.6062698453
 20
11.2719260019
 30
0.0
 10
16.5938640166
 20
11.2796798344
 30
0.0
 10
16.5819494584
 20
11.2882413015
 30
0.0
 10
16.5705437393
 20
11.2975991242
 30
0.0
 10
16.5596635209
 20
11.3077403244
 30
0.0
 10
16.549322936
 20
11.3186487973
 30
0.0
 10
16.5395360441
 20
11.3303094169
 30
0.0
 10
16.527142967
 20
11.3469755763
 30
0.0
 10
16.5131097347
 20
11.3697015325
 30
0.0
 10
16.4988524807
 20
11.3994448101
 30
0.0
 10
16.4870993016
 20
11.4317244834
 30
0.0
 10
16.4779074358
 20
11.4663577784
 30
0.0
 10
16.4713236315
 20
11.5031597427
 30
0.0
 10
16.4673941937
 20
11.5419191799
 30
0.0
 10
16.4665528775
 20
11.5684086734
 30
0.0
 10
16.4665473053
 20
11.581908462
 30
0.0
  0
SPLINE
  5
2B1
100
AcDbEntity
  8
0
100
AcDbSpline
 62
9
  6
CONTINUOUS
 70
0
 71
3
 72
21
 73
17
 74
0
 42
0.0000001
 43
0.0000001
 44
0.0000000001
 40
0.0
 40
0.0
 40
0.0
 40
0.0
 40
0.0539018011
 40
0.1080617213
 40
0.1627324735
 40
0.2181539915
 40
0.2745495722
 40
0.3321236227
 40
0.3910553693
 40
0.4515012552
 40
0.5135917576
 40
0.5774277239
 40
0.710584025
 40
0.8514389243
 40
0.924786154
 40
1.0
 40
1.0
 40
1.0
 40
1.0
 10
16.1846693221
 20
11.503971005
 30
0.0
 10
16.1790420117
 20
11.5072201907
 30
0.0
 10
16.168032254
 20
11.5142182883
 30
0.0
 10
16.1524082489
 20
11.5261185086
 30
0.0
 10
16.1376968901
 20
11.5394061823
 30
0.0
 10
16.1239336746
 20
11.5540438841
 30
0.0
 10
16.1111512101
 20
11.5699952461
 30
0.0
 10
16.0993822826
 20
11.5872217942
 30
0.0
 10
16.0886512924
 20
11.6056788506
 30
0.0
 10
16.0789848117
 20
11.6253222014
 30
0.0
 10
16.0704058923
 20
11.646104424
 30
0.0
 10
16.0602990047
 20
11.6756750146
 30
0.0
 10
16.0505979994
 20
11.7153262514
 30
0.0
 10
16.0449482453
 20
11.7568892389
 30
0.0
 10
16.0426599194
 20
11.7917126971
 30
0.0
 10
16.042283237
 20
11.8096252679
 30
0.0
 10
16.042283237
 20
11.8186924707
 30
0.0
  0
SPLINE
  5
2B2
100
AcDbEntity
  8
0
100
AcDbSpline
 62
9
  6
CONTINUOUS
 70
0
 71
3
 72
9
 73
5
 74
0
 42
0.0000001
 43
0.0000001
 44
0.0000000001
 40
0.0
 40
0.0
 40
0.0
 40
0.0
 40
0.494697468
 40
1.0
 40
1.0
 40
1.0
 40
1.0
 10
16.7945332455
 20
12.7227717599
 30
0.0
 10
16.7878204047
 20
12.7239661395
 30
0.0
 10
16.774150637
 20
12.7258441681
 30
0.0
 10
16.7603798848
 20
12.7266875522
 30
0.0
 10
16.7534177222
 20
12.7268654126
 30
0.0
  0
SPLINE
  5
2B3
100
AcDbEntity
  8
0
100
AcDbSpline
 62
9
  6
CONTINUOUS
 70
0
 71
3
 72
35
 73
31
 74
0
 42
0.0000001
 43
0.0000001
 44
0.0000000001
 40
0.0
 40
0.0
 40
0.0
 40
0.0
 40
0.0225980426
 40
0.0459861362
 40
0.0702338586
 40
0.0953890175
 40
0.1214818642
 40
0.1485238282
 40
0.1765115987
 40
0.2054267961
 40
0.2352388395
 40
0.265905755
 40
0.2973754819
 40
0.3295877051
 40
0.3624738343
 40
0.3959595982
 40
0.4643903507
 40
0.5342014562
 40
0.6046530894
 40
0.6749843406
 40
0.7098735922
 40
0.7444503679
 40
0.7786252527
 40
0.8123121859
 40
0.8454287506
 40
0.8778966717
 40
0.9096459087
 40
0.9406185165
 40
0.9707577494
 40
1.0
 40
1.0
 40
1.0
 40
1.0
 10
16.7485401332
 20
12.7269496356
 30
0.0
 10
16.7391774418
 20
12.7270342494
 30
0.0
 10
16.7201073191
 20
12.7263084236
 30
0.0
 10
16.691201398
 20
12.7226862594
 30
0.0
 10
16.6616458578
 20
12.716526725
 30
0.0
 10
16.6315610934
 20
12.7078634807
 30
0.0
 10
16.6010680973
 20
12.6967286358
 30
0.0
 10
16.570287265
 20
12.683173199
 30
0.0
 10
16.5393433339
 20
12.6672494555
 30
0.0
 10
16.5083590222
 20
12.6490249995
 30
0.0
 10
16.4774597187
 20
12.6285722374
 30
0.0
 10
16.4467693593
 20
12.6059748783
 30
0.0
 10
16.416411451
 20
12.5813244176
 30
0.0
 10
16.3865094494
 20
12.5547200893
 30
0.0
 10
16.3571822952
 20
12.5262704357
 30
0.0
 10
16.3187334561
 20
12.4857399904
 30
0.0
 10
16.2729233991
 20
12.43119291
 30
0.0
 10
16.222458648
 20
12.3608817978
 30
0.0
 10
16.1769101204
 20
12.2863678369
 30
0.0
 10
16.143566748
 20
12.221586533
 30
0.0
 10
16.1199789022
 20
12.1686721862
 30
0.0
 10
16.1039898241
 20
12.1288064739
 30
0.0
 10
16.0897215004
 20
12.0888217736
 30
0.0
 10
16.0772317056
 20
12.0488791132
 30
0.0
 10
16.0665719189
 20
12.0091408884
 30
0.0
 10
16.0577831467
 20
11.969768832
 30
0.0
 10
16.0509035724
 20
11.9309197325
 30
0.0
 10
16.045959148
 20
11.8927485318
 30
0.0
 10
16.0429740793
 20
11.8554163281
 30
0.0
 10
16.042283237
 20
11.830808447
 30
0.0
 10
16.042283237
 20
11.8186924707
 30
0.0
  0
SPLINE
  5
2B4
100
AcDbEntity
  8
0
100
AcDbSpline
 62
9
  6
CONTINUOUS
 70
0
 71
3
 72
15
 73
11
 74
0
 42
0.0000001
 43
0.0000001
 44
0.0000000001
 40
0.0
 40
0.0
 40
0.0
 40
0.0
 40
0.1183795069
 40
0.2374416675
 40
0.3578513659
 40
0.4802328496
 40
0.6051612674
 40
0.7331490608
 40
0.8646376649
 40
1.0
 40
1.0
 40
1.0
 40
1.0
 10
16.5947912569
 20
11.2671869994
 30
0.0
 10
16.5886126166
 20
11.2707545179
 30
0.0
 10
16.5765469822
 20
11.2784946875
 30
0.0
 10
16.5595304933
 20
11.2917931939
 30
0.0
 10
16.5436244461
 20
11.3067571814
 30
0.0
 10
16.5288742905
 20
11.3233353425
 30
0.0
 10
16.515324569
 20
11.3414796228
 30
0.0
 10
16.5030129836
 20
11.3611345243
 30
0.0
 10
16.4919724671
 20
11.3822394428
 30
0.0
 10
16.4855783159
 20
11.397014007
 30
0.0
 10
16.4825944653
 20
11.4046069094
 30
0.0
  0
SPLINE
  5
2B5
100
AcDbEntity
  8
0
100
AcDbSpline
 62
9
  6
CONTINUOUS
 70
0
 71
3
 72
12
 73
8
 74
0
 42
0.0000001
 43
0.0000001
 44
0.0000000001
 40
0.0
 40
0.0
 40
0.0
 40
0.0
 40
0.4747351735
 40
0.6013560725
 40
0.7311504137
 40
0.8640603003
 40
1.0
 40
1.0
 40
1.0
 40
1.0
 10
16.4825944653
 20
11.4046069094
 30
0.0
 10
16.47213372
 20
11.4312260099
 30
0.0
 10
16.4628665043
 20
11.466616964
 30
0.0
 10
16.4564964679
 20
11.5101928402
 30
0.0
 10
16.4541302665
 20
11.5335392914
 30
0.0
 10
16.4527129269
 20
11.557519452
 30
0.0
 10
16.4524051701
 20
11.5737186766
 30
0.0
 10
16.4524051701
 20
11.5819084622
 30
0.0
  0
SPLINE
  5
2B6
100
AcDbEntity
  8
0
100
AcDbSpline
 62
7
  6
CONTINUOUS
 70
0
 71
3
 72
14
 73
10
 74
0
 42
0.0000001
 43
0.0000001
 44
0.0000000001
 40
0.0
 40
0.0
 40
0.0
 40
0.0
 40
0.2627986493
 40
0.390102037
 40
0.5150395909
 40
0.6380245584
 40
0.7595188853
 40
0.8800104553
 40
1.0
 40
1.0
 40
1.0
 40
1.0
 10
15.5321056944
 20
12.1447546538
 30
0.0
 10
15.5363290911
 20
12.1361600319
 30
0.0
 10
15.5434054496
 20
12.1237669316
 30
0.0
 10
15.5543798912
 20
12.1085276225
 30
0.0
 10
15.5631616176
 20
12.0980302577
 30
0.0
 10
15.5725575895
 20
12.0883727654
 30
0.0
 10
15.5825483715
 20
12.0795737622
 30
0.0
 10
15.5931131541
 20
12.071654525
 30
0.0
 10
15.6005306085
 20
12.0669678376
 30
0.0
 10
15.604317345
 20
12.0647819388
 30
0.0
  0
SPLINE
  5
2B7
100
AcDbEntity
  8
0
100
AcDbSpline
 62
7
  6
CONTINUOUS
 70
0
 71
3
 72
12
 73
8
 74
0
 42
0.0000001
 43
0.0000001
 44
0.0000000001
 40
0.0
 40
0.0
 40
0.0
 40
0.0
 40
0.2640532556
 40
0.5196670029
 40
0.7653587696
 40
0.8841521915
 40
1.0
 40
1.0
 40
1.0
 40
1.0
 10
15.7972707373
 20
12.3164753377
 30
0.0
 10
15.7924614762
 20
12.3011352242
 30
0.0
 10
15.7839716141
 20
12.2706271421
 30
0.0
 10
15.7746140028
 20
12.2249415849
 30
0.0
 10
15.7698152771
 20
12.187450784
 30
0.0
 10
15.7678988599
 20
12.1582627012
 30
0.0
 10
15.7675722525
 20
12.1439751603
 30
0.0
 10
15.7675722525
 20
12.1369220131
 30
0.0
  0
SPLINE
  5
2B8
100
AcDbEntity
  8
0
100
AcDbSpline
 62
7
  6
CONTINUOUS
 70
0
 71
3
 72
12
 73
8
 74
0
 42
0.0000001
 43
0.0000001
 44
0.0000000001
 40
0.0
 40
0.0
 40
0.0
 40
0.0
 40
0.1379230483
 40
0.2722102473
 40
0.5293933134
 40
0.7717073692
 40
1.0
 40
1.0
 40
1.0
 40
1.0
 10
15.7675722525
 20
12.1369220131
 30
0.0
 10
15.7675722525
 20
12.1300501441
 30
0.0
 10
15.7678744776
 20
12.116484704
 30
0.0
 10
15.7697109265
 20
12.0901653877
 30
0.0
 10
15.7742418998
 20
12.0588488043
 30
0.0
 10
15.7834538635
 20
12.0236957535
 30
0.0
 10
15.7922542904
 20
12.0018700258
 30
0.0
 10
15.7972707373
 20
11.9916615449
 30
0.0
  0
SPLINE
  5
2B9
100
AcDbEntity
  8
0
100
AcDbSpline
 62
7
  6
CONTINUOUS
 70
0
 71
3
 72
34
 73
30
 74
0
 42
0.0000001
 43
0.0000001
 44
0.0000000001
 40
0.0
 40
0.0
 40
0.0
 40
0.0
 40
0.0215622617
 40
0.0432815205
 40
0.0653092334
 40
0.0877866969
 40
0.1108402638
 40
0.1345784342
 40
0.1590920859
 40
0.1844514449
 40
0.2107098639
 40
0.2379014527
 40
0.2660446417
 40
0.2951429931
 40
0.3561288551
 40
0.3879809008
 40
0.4206776646
 40
0.4541667511
 40
0.4883881765
 40
0.5232760422
 40
0.5587574691
 40
0.594755905
 40
0.6311894792
 40
0.7050087473
 40
0.7795237318
 40
0.8540022508
 40
0.9277309811
 40
0.9641010981
 40
1.0
 40
1.0
 40
1.0
 40
1.0
 10
16.0962901468
 20
12.9169646231
 30
0.0
 10
16.0913149253
 20
12.9198365765
 30
0.0
 10
16.0810167822
 20
12.9250800759
 30
0.0
 10
16.0647431493
 20
12.9313212528
 30
0.0
 10
16.0476820355
 20
12.9359342877
 30
0.0
 10
16.0299005923
 20
12.9388996843
 30
0.0
 10
16.0114664684
 20
12.9402104419
 30
0.0
 10
15.9924486229
 20
12.9398656983
 30
0.0
 10
15.9729176732
 20
12.9378660003
 30
0.0
 10
15.952944365
 20
12.9342254955
 30
0.0
 10
15.932602051
 20
12.9289550497
 30
0.0
 10
15.9119637798
 20
12.9220786718
 30
0.0
 10
15.8911037826
 20
12.9136207989
 30
0.0
 10
15.8626550132
 20
12.9000659516
 30
0.0
 10
15.8345496943
 20
12.883630928
 30
0.0
 10
15.8069737331
 20
12.8646926665
 30
0.0
 10
15.7861492815
 20
12.8489100058
 30
0.0
 10
15.765561716
 20
12.8318167123
 30
0.0
 10
15.7452846689
 20
12.8134742708
 30
0.0
 10
15.7253938344
 20
12.7939489842
 30
0.0
 10
15.7059598835
 20
12.7733141703
 30
0.0
 10
15.6870561021
 20
12.7516430043
 30
0.0
 10
15.6625434385
 20
12.7213456664
 30
0.0
 10
15.6336889936
 20
12.6814064238
 30
0.0
 10
15.602368379
 20
12.630923827
 30
0.0
 10
15.5746504017
 20
12.5784041501
 30
0.0
 10
15.5547986678
 20
12.5333632806
 30
0.0
 10
15.5410826287
 20
12.4969575394
 30
0.0
 10
15.5349668517
 20
12.4786946884
 30
0.0
 10
15.5321056944
 20
12.4695684466
 30
0.0
  0
SPLINE
  5
2BA
100
AcDbEntity
  8
0
100
AcDbSpline
 62
9
  6
CONTINUOUS
 70
0
 71
3
 72
42
 73
38
 74
0
 42
0.0000001
 43
0.0000001
 44
0.0000000001
 40
0.0
 40
0.0
 40
0.0
 40
0.0
 40
0.0306550236
 40
0.0623852495
 40
0.0951006902
 40
0.1287199989
 40
0.1631562858
 40
0.1983039784
 40
0.2340484342
 40
0.2702689495
 40
0.3068405709
 40
0.3436333238
 40
0.3805148102
 40
0.4173519192
 40
0.4540117749
 40
0.4903639551
 40
0.5262806927
 40
0.5616400958
 40
0.596325688
 40
0.630230354
 40
0.6632555664
 40
0.6953160046
 40
0.7263388049
 40
0.7562687109
 40
0.7850677317
 40
0.8127206562
 40
0.839235369
 40
0.8520791842
 40
0.8646546914
 40
0.8890316162
 40
0.9124717339
 40
0.9351072303
 40
0.9571037212
 40
0.9679272376
 40
0.9786658363
 40
0.9893472988
 40
1.0
 40
1.0
 40
1.0
 40
1.0
 10
15.9385885881
 20
12.0381856857
 30
0.0
 10
15.9385885881
 20
12.0482197934
 30
0.0
 10
15.9392521011
 20
12.0686444968
 30
0.0
 10
15.9421008151
 20
12.0996585991
 30
0.0
 10
15.9468129782
 20
12.1314258627
 30
0.0
 10
15.9533576195
 20
12.1637693222
 30
0.0
 10
15.9617025075
 20
12.196517014
 30
0.0
 10
15.9717985155
 20
12.2294952179
 30
0.0
 10
15.9835959283
 20
12.2625239382
 30
0.0
 10
15.9970268748
 20
12.2954262464
 30
0.0
 10
16.0120225733
 20
12.3280232462
 30
0.0
 10
16.0284984089
 20
12.3601408464
 30
0.0
 10
16.0463690554
 20
12.3916036696
 30
0.0
 10
16.0655345705
 20
12.4222436561
 30
0.0
 10
16.0858946789
 20
12.4518934494
 30
0.0
 10
16.1073364027
 20
12.4803949695
 30
0.0
 10
16.1297469402
 20
12.5075923658
 30
0.0
 10
16.1530026649
 20
12.5333409507
 30
0.0
 10
16.1769808183
 20
12.5574997614
 30
0.0
 10
16.20154985
 20
12.5799406831
 30
0.0
 10
16.2265799007
 20
12.60054059
 30
0.0
 10
16.2519344766
 20
12.6191906573
 30
0.0
 10
16.2774796763
 20
12.6357881046
 30
0.0
 10
16.3030771573
 20
12.6502454707
 30
0.0
 10
16.3285924298
 20
12.6624822571
 30
0.0
 10
16.3538872643
 20
12.6724331346
 30
0.0
 10
16.3748934972
 20
12.6788405958
 30
0.0
 10
16.3914458924
 20
12.682734842
 30
0.0
 10
16.4074674759
 20
12.6857559565
 30
0.0
 10
16.4271332041
 20
12.688068041
 30
0.0
 10
16.4502333697
 20
12.6884322969
 30
0.0
 10
16.4724637143
 20
12.6863478365
 30
0.0
 10
16.4902627038
 20
12.6825503855
 30
0.0
 10
16.5038803658
 20
12.678300382
 30
0.0
 10
16.5137463373
 20
12.6745313843
 30
0.0
 10
16.5233033908
 20
12.6701709798
 30
0.0
 10
16.5294644097
 20
12.6668717588
 30
0.0
 10
16.5324842229
 20
12.6651284712
 30
0.0
  0
SPLINE
  5
2BB
100
AcDbEntity
  8
0
100
AcDbSpline
 62
9
  6
CONTINUOUS
 70
0
 71
3
 72
41
 73
37
 74
0
 42
0.0000001
 43
0.0000001
 44
0.0000000001
 40
0.0
 40
0.0
 40
0.0
 40
0.0
 40
0.0304385915
 40
0.0619248966
 40
0.094372907
 40
0.1277049345
 40
0.1618393291
 40
0.1966770621
 40
0.2321096043
 40
0.2680226126
 40
0.3042974671
 40
0.3408112091
 40
0.3774380013
 40
0.4140512435
 40
0.4505240938
 40
0.4867316631
 40
0.5225513456
 40
0.5578651643
 40
0.5925604211
 40
0.6265316492
 40
0.6596821069
 40
0.6919250686
 40
0.7231865889
 40
0.7534059972
 40
0.7825401793
 40
0.8105633581
 40
0.8374728302
 40
0.863288204
 40
0.888057933
 40
0.9118578683
 40
0.9347968074
 40
0.9570132195
 40
0.9679071864
 40
0.9786861907
 40
0.9893750692
 40
1.0
 40
1.0
 40
1.0
 40
1.0
 10
15.9508343184
 20
12.0373276257
 30
0.0
 10
15.9508343155
 20
12.0469981276
 30
0.0
 10
15.9514601718
 20
12.0666762226
 30
0.0
 10
15.9541495346
 20
12.0965530162
 30
0.0
 10
15.9585991772
 20
12.1271479248
 30
0.0
 10
15.964781029
 20
12.1582970149
 30
0.0
 10
15.9726658323
 20
12.1898415081
 30
0.0
 10
15.982209142
 20
12.2216211024
 30
0.0
 10
15.9933655879
 20
12.2534697054
 30
0.0
 10
16.0060742198
 20
12.2852231849
 30
0.0
 10
16.020271711
 20
12.3167163282
 30
0.0
 10
16.0358823413
 20
12.3477872118
 30
0.0
 10
16.0528271677
 20
12.3782740409
 30
0.0
 10
16.0710170224
 20
12.4080195793
 30
0.0
 10
16.0903586819
 20
12.4368693082
 30
0.0
 10
16.1107514075
 20
12.4646741265
 30
0.0
 10
16.1320898316
 20
12.4912900637
 30
0.0
 10
16.1542637348
 20
12.5165790891
 30
0.0
 10
16.1771578722
 20
12.5404109504
 30
0.0
 10
16.2006548734
 20
12.562661438
 30
0.0
 10
16.2246321991
 20
12.5832168546
 30
0.0
 10
16.2489678272
 20
12.6019691566
 30
0.0
 10
16.2735347384
 20
12.618823649
 30
0.0
 10
16.2982088463
 20
12.6336903107
 30
0.0
 10
16.3228616637
 20
12.6464953239
 30
0.0
 10
16.3473695429
 20
12.6571678911
 30
0.0
 10
16.3716055224
 20
12.6656561335
 30
0.0
 10
16.3954484291
 20
12.6719089048
 30
0.0
 10
16.4187750949
 20
12.6758963972
 30
0.0
 10
16.4414680062
 20
12.6775870217
 30
0.0
 10
16.4634068314
 20
12.6769733896
 30
0.0
 10
16.4810860969
 20
12.6745154562
 30
0.0
 10
16.4946820788
 20
12.6713893952
 30
0.0
 10
16.504553667
 20
12.6684918301
 30
0.0
 10
16.5141499603
 20
12.6650287029
 30
0.0
 10
16.5203704033
 20
12.6623400278
 30
0.0
 10
16.5234257672
 20
12.6609049649
 30
0.0
  0
LINE
  5
2BC
100
AcDbEntity
  8
0
100
AcDbLine
 62
9
  6
CONTINUOUS
 10
16.0395808322
 20
11.8229384112
 11
16.0391703882
 21
11.8232252305
  0
SPLINE
  5
2BD
100
AcDbEntity
  8
0
100
AcDbSpline
 62
9
  6
CONTINUOUS
 70
0
 71
3
 72
19
 73
15
 74
0
 42
0.0000001
 43
0.0000001
 44
0.0000000001
 40
0.0
 40
0.0
 40
0.0
 40
0.0
 40
0.0536548264
 40
0.107775656
 40
0.1625712812
 40
0.2182388375
 40
0.2749574604
 40
0.3328884172
 40
0.4528787695
 40
0.579151299
 40
0.6448564938
 40
0.7123262594
 40
0.8526296471
 40
1.0
 40
1.0
 40
1.0
 40
1.0
 10
16.0391703882
 20
11.8232252305
 30
0.0
 10
16.0356471758
 20
11.8256953475
 30
0.0
 10
16.0287644497
 20
11.8309406951
 30
0.0
 10
16.0190342519
 20
11.8396365984
 30
0.0
 10
16.0098848644
 20
11.8491673118
 30
0.0
 10
16.0013382168
 20
11.8595125653
 30
0.0
 10
15.9934099264
 20
11.8706487772
 30
0.0
 10
15.9835716106
 20
11.8867038279
 30
0.0
 10
15.9729409687
 20
11.9087390496
 30
0.0
 10
15.9648142112
 20
11.9324586219
 30
0.0
 10
15.9596560517
 20
11.9526232376
 30
0.0
 10
15.9553094862
 20
11.9741287354
 30
0.0
 10
15.9517297915
 20
12.0024269205
 30
0.0
 10
15.9508343219
 20
12.0255092615
 30
0.0
 10
15.9508343184
 20
12.0373276257
 30
0.0
  0
SPLINE
  5
2BE
100
AcDbEntity
  8
0
100
AcDbSpline
 62
9
  6
CONTINUOUS
 70
0
 71
3
 72
21
 73
17
 74
0
 42
0.0000001
 43
0.0000001
 44
0.0000000001
 40
0.0
 40
0.0
 40
0.0
 40
0.0
 40
0.053885896
 40
0.1080410811
 40
0.1627150128
 40
0.2181457512
 40
0.2745559979
 40
0.3321461
 40
0.3910952256
 40
0.4515586312
 40
0.5774426144
 40
0.6431065811
 40
0.710653279
 40
0.8514982891
 40
0.9248226619
 40
1.0
 40
1.0
 40
1.0
 40
1.0
 10
16.0399065332
 20
11.8132953291
 30
0.0
 10
16.0359003544
 20
11.8156298957
 30
0.0
 10
16.0280629077
 20
11.8206547313
 30
0.0
 10
16.0169444224
 20
11.8291901823
 30
0.0
 10
16.0064743133
 20
11.8387091253
 30
0.0
 10
15.9966799004
 20
11.8491880286
 30
0.0
 10
15.9875856384
 20
11.8606017416
 30
0.0
 10
15.9792107973
 20
11.8729198522
 30
0.0
 10
15.9715754095
 20
11.8861137368
 30
0.0
 10
15.9622839571
 20
11.9050808419
 30
0.0
 10
15.954698447
 20
11.9254670045
 30
0.0
 10
15.948760215
 20
11.946964402
 30
0.0
 10
15.9437451794
 20
11.9700179065
 30
0.0
 10
15.9404847899
 20
11.9940866498
 30
0.0
 10
15.9388567172
 20
12.0189360752
 30
0.0
 10
15.9385885881
 20
12.031716826
 30
0.0
 10
15.9385885881
 20
12.0381856857
 30
0.0
  0
SPLINE
  5
2BF
100
AcDbEntity
  8
0
100
AcDbSpline
 62
7
  6
CONTINUOUS
 70
0
 71
3
 72
19
 73
15
 74
0
 42
0.0000001
 43
0.0000001
 44
0.0000000001
 40
0.0
 40
0.0
 40
0.0
 40
0.0
 40
0.1481181914
 40
0.2888144693
 40
0.3563490187
 40
0.4220379102
 40
0.5480687255
 40
0.6676419102
 40
0.725349241
 40
0.7818625936
 40
0.8373693245
 40
0.8920759211
 40
0.9462074613
 40
1.0
 40
1.0
 40
1.0
 40
1.0
 10
14.8645968929
 20
12.7211253168
 30
0.0
 10
14.8645968929
 20
12.7105668177
 30
0.0
 10
14.8654302535
 20
12.6899667862
 30
0.0
 10
14.8687706989
 20
12.6647425414
 30
0.0
 10
14.8728286709
 20
12.6456337887
 30
0.0
 10
14.877637228
 20
12.6277818915
 30
0.0
 10
14.8852103972
 20
12.60686569
 30
0.0
 10
14.8951182967
 20
12.587568236
 30
0.0
 10
14.9042750865
 20
12.5736279789
 30
0.0
 10
14.9116484501
 20
12.5640207979
 30
0.0
 10
14.9195907627
 20
12.555163302
 30
0.0
 10
14.928086145
 20
12.5470779235
 30
0.0
 10
14.9371124167
 20
12.5397835006
 30
0.0
 10
14.9434821648
 20
12.5354507
 30
0.0
 10
14.9467397233
 20
12.5334277857
 30
0.0
  0
SPLINE
  5
2C0
100
AcDbEntity
  8
0
100
AcDbSpline
 62
7
  6
CONTINUOUS
 70
0
 71
3
 72
35
 73
31
 74
0
 42
0.0000001
 43
0.0000001
 44
0.0000000001
 40
0.0
 40
0.0
 40
0.0
 40
0.0
 40
0.0305747978
 40
0.0622167929
 40
0.0948359802
 40
0.128350251
 40
0.1626751722
 40
0.1977093886
 40
0.2333399811
 40
0.2694485696
 40
0.3425870208
 40
0.4161175896
 40
0.4889975865
 40
0.5602127841
 40
0.5949081036
 40
0.6288434436
 40
0.6619221534
 40
0.6940571218
 40
0.7251759711
 40
0.7552205339
 40
0.7841511328
 40
0.8119483102
 40
0.838615415
 40
0.8641828977
 40
0.888708781
 40
0.9122842162
 40
0.9350312361
 40
0.9571060647
 40
0.9786927762
 40
1.0
 40
1.0
 40
1.0
 40
1.0
 10
14.8645968929
 20
12.7211253168
 30
0.0
 10
14.8645968929
 20
12.7295209305
 30
0.0
 10
14.8651478161
 20
12.7466089499
 30
0.0
 10
14.8675128857
 20
12.7725558096
 30
0.0
 10
14.8714254942
 20
12.799130864
 30
0.0
 10
14.8768605961
 20
12.8261872396
 30
0.0
 10
14.8837912612
 20
12.8535835196
 30
0.0
 10
14.8921781513
 20
12.8811767248
 30
0.0
 10
14.9019790006
 20
12.9088201767
 30
0.0
 10
14.9169236842
 20
12.9457002083
 30
0.0
 10
14.9387836121
 20
12.9909526287
 30
0.0
 10
14.9695048008
 20
13.0429050287
 30
0.0
 10
15.0041864866
 20
13.0916565522
 30
0.0
 10
15.036062031
 20
13.1290914713
 30
0.0
 10
15.0629508765
 20
13.1565241064
 30
0.0
 10
15.0834521349
 20
13.175507409
 30
0.0
 10
15.1043493665
 20
13.1929774593
 30
0.0
 10
15.12553454
 20
13.2088399665
 30
0.0
 10
15.1468943913
 20
13.2230120583
 30
0.0
 10
15.1683172144
 20
13.2354177589
 30
0.0
 10
15.1896904892
 20
13.2459906599
 30
0.0
 10
15.2109018728
 20
13.2546751844
 30
0.0
 10
15.2318415375
 20
13.2614214932
 30
0.0
 10
15.2523991691
 20
13.2661951506
 30
0.0
 10
15.2724684124
 20
13.2689627061
 30
0.0
 10
15.2919427729
 20
13.2697106006
 30
0.0
 10
15.3107180705
 20
13.2684227756
 30
0.0
 10
15.328692551
 20
13.2651065554
 30
0.0
 10
15.3457603431
 20
13.2597697236
 30
0.0
 10
15.3565102087
 20
13.2548666672
 30
0.0
 10
15.3616684598
 20
13.2521054392
 30
0.0
  0
SPLINE
  5
2C1
100
AcDbEntity
  8
0
100
AcDbSpline
 62
7
  6
CONTINUOUS
 70
0
 71
3
 72
21
 73
17
 74
0
 42
0.0000001
 43
0.0000001
 44
0.0000000001
 40
0.0
 40
0.0
 40
0.0
 40
0.0
 40
0.0566472944
 40
0.1133825053
 40
0.17041922
 40
0.2279382681
 40
0.2860775182
 40
0.3449603143
 40
0.4047346187
 40
0.465536375
 40
0.5274830662
 40
0.5906827693
 40
0.7211250407
 40
0.8575019836
 40
0.928007757
 40
1.0
 40
1.0
 40
1.0
 40
1.0
 10
17.9700399989
 20
11.9835346687
 30
0.0
 10
17.9757183961
 20
11.9802562446
 30
0.0
 10
17.9868125326
 20
11.9732108354
 30
0.0
 10
18.0025375124
 20
11.9612655147
 30
0.0
 10
18.0172952916
 20
11.9479914009
 30
0.0
 10
18.0310412053
 20
11.9334496976
 30
0.0
 10
18.0437404699
 20
11.917711275
 30
0.0
 10
18.0553557276
 20
11.9008402279
 30
0.0
 10
18.0658699919
 20
11.8829054331
 30
0.0
 10
18.0752740837
 20
11.8639692238
 30
0.0
 10
18.0835617055
 20
11.8440891206
 30
0.0
 10
18.0932236264
 20
11.8161101227
 30
0.0
 10
18.1024318475
 20
11.7789467553
 30
0.0
 10
18.1077691538
 20
11.7402004544
 30
0.0
 10
18.1099136632
 20
11.7079839882
 30
0.0
 10
18.1102654854
 20
11.6914870437
 30
0.0
 10
18.1102654854
 20
11.6831540383
 30
0.0
  0
SPLINE
  5
2C2
100
AcDbEntity
  8
0
100
AcDbSpline
 62
7
  6
CONTINUOUS
 70
0
 71
3
 72
44
 73
40
 74
0
 42
0.0000001
 43
0.0000001
 44
0.0000000001
 40
0.0
 40
0.0
 40
0.0
 40
0.0
 40
0.0305974325
 40
0.0621262343
 40
0.0945113524
 40
0.1276936461
 40
0.1616041362
 40
0.1961511837
 40
0.2312341487
 40
0.2667451827
 40
0.3025707303
 40
0.338591488
 40
0.3746859319
 40
0.410731121
 40
0.4466052655
 40
0.4821884738
 40
0.5173657862
 40
0.5520274279
 40
0.5860726181
 40
0.6194090883
 40
0.6519580691
 40
0.6836530128
 40
0.7144453379
 40
0.7443027846
 40
0.7732151367
 40
0.8011927021
 40
0.8282705637
 40
0.8545063893
 40
0.8673360715
 40
0.8799878475
 40
0.8924746153
 40
0.9048103915
 40
0.9170115666
 40
0.9290952138
 40
0.9529545616
 40
0.9647711686
 40
0.9765349283
 40
0.9882696148
 40
1.0
 40
1.0
 40
1.0
 40
1.0
 10
18.1102654854
 20
11.6831540383
 30
0.0
 10
18.1102654854
 20
11.6704827327
 30
0.0
 10
18.1094318889
 20
11.6447485597
 30
0.0
 10
18.1058473119
 20
11.6057527953
 30
0.0
 10
18.0999350416
 20
11.5659591177
 30
0.0
 10
18.0917402705
 20
11.5255673036
 30
0.0
 10
18.0813123192
 20
11.4847700338
 30
0.0
 10
18.0687116111
 20
11.4437675548
 30
0.0
 10
18.0540046859
 20
11.4027684666
 30
0.0
 10
18.0372729499
 20
11.3619809829
 30
0.0
 10
18.0186042221
 20
11.3216150642
 30
0.0
 10
17.9980977651
 20
11.2818791859
 30
0.0
 10
17.9758609644
 20
11.2429804025
 30
0.0
 10
17.9520098052
 20
11.2051217205
 30
0.0
 10
17.926668733
 20
11.1685006097
 30
0.0
 10
17.8999670501
 20
11.1333090667
 30
0.0
 10
17.8720423522
 20
11.0997297092
 30
0.0
 10
17.8430333109
 20
11.0679386533
 30
0.0
 10
17.8130857018
 20
11.0380994073
 30
0.0
 10
17.7823427936
 20
11.01036851
 30
0.0
 10
17.7509526679
 20
10.9848878473
 30
0.0
 10
17.7190579882
 20
10.9617925275
 30
0.0
 10
17.686803252
 20
10.9412030965
 30
0.0
 10
17.6543260276
 20
10.9232346594
 30
0.0
 10
17.6217636605
 20
10.907990587
 30
0.0
 10
17.5892473286
 20
10.8955713093
 30
0.0
 10
17.5569118852
 20
10.8860721309
 30
0.0
 10
17.5300251437
 20
10.8806274192
 30
0.0
 10
17.5087797575
 20
10.877861677
 30
0.0
 10
17.4931009449
 20
10.8765892357
 30
0.0
 10
17.4775822354
 20
10.8761132365
 30
0.0
 10
17.462246114
 20
10.8764428958
 30
0.0
 10
17.4471154335
 20
10.8775882327
 30
0.0
 10
17.4273419486
 20
10.8802012403
 30
0.0
 10
17.4079734745
 20
10.8844688262
 30
0.0
 10
17.3892385053
 20
10.8904140781
 30
0.0
 10
17.3755855187
 20
10.8956842411
 30
0.0
 10
17.3623170599
 20
10.9017711995
 30
0.0
 10
17.3537470646
 20
10.9063681921
 30
0.0
 10
17.3495399989
 20
10.9087971426
 30
0.0
  0
SPLINE
  5
2C3
100
AcDbEntity
  8
0
100
AcDbSpline
 62
9
  6
CONTINUOUS
 70
0
 71
3
 72
42
 73
38
 74
0
 42
0.0000001
 43
0.0000001
 44
0.0000000001
 40
0.0
 40
0.0
 40
0.0
 40
0.0
 40
0.0306562632
 40
0.0623856467
 40
0.0950998168
 40
0.1287191851
 40
0.1631557968
 40
0.1983032817
 40
0.2340474384
 40
0.2702678767
 40
0.3068395081
 40
0.3436320667
 40
0.3805134393
 40
0.417350296
 40
0.4540101156
 40
0.4903620065
 40
0.5262787629
 40
0.5616378603
 40
0.596323576
 40
0.630227925
 40
0.6632533362
 40
0.6953134118
 40
0.7263364361
 40
0.7562659334
 40
0.7850651973
 40
0.8127177085
 40
0.839232671
 40
0.8646452395
 40
0.8890223678
 40
0.9124621392
 40
0.9350977643
 40
0.9461690515
 40
0.9571038326
 40
0.9679273235
 40
0.9786659646
 40
0.9893473581
 40
1.0
 40
1.0
 40
1.0
 40
1.0
 10
17.2210302412
 20
11.1928478414
 30
0.0
 10
17.2210302412
 20
11.2055031926
 30
0.0
 10
17.2218667589
 20
11.2312626454
 30
0.0
 10
17.2254598369
 20
11.270376697
 30
0.0
 10
17.2314026093
 20
11.3104401677
 30
0.0
 10
17.2396567643
 20
11.3512307533
 30
0.0
 10
17.2501806329
 20
11.392531784
 30
0.0
 10
17.2629139267
 20
11.4341231185
 30
0.0
 10
17.2777922196
 20
11.4757782429
 30
0.0
 10
17.2947314604
 20
11.5172737358
 30
0.0
 10
17.3136431587
 20
11.558384662
 30
0.0
 10
17.3344226736
 20
11.5988904252
 30
0.0
 10
17.3569601298
 20
11.6385709093
 30
0.0
 10
17.3811318393
 20
11.6772130067
 30
0.0
 10
17.4068088433
 20
11.7146070706
 30
0.0
 10
17.4338513464
 20
11.7505520845
 30
0.0
 10
17.4621142333
 20
11.7848533906
 30
0.0
 10
17.491444618
 20
11.8173263412
 30
0.0
 10
17.5216844929
 20
11.8477956692
 30
0.0
 10
17.5526712937
 20
11.876096908
 30
0.0
 10
17.5842377632
 20
11.9020780506
 30
0.0
 10
17.6162153138
 20
11.9255981197
 30
0.0
 10
17.6484314374
 20
11.9465316823
 30
0.0
 10
17.6807153718
 20
11.96476376
 30
0.0
 10
17.7128935317
 20
11.9801979349
 30
0.0
 10
17.7447966313
 20
11.9927466253
 30
0.0
 10
17.7762539996
 20
12.0023436359
 30
0.0
 10
17.807100335
 20
12.0089290217
 30
0.0
 10
17.8371712714
 20
12.0124666362
 30
0.0
 10
17.8663034793
 20
12.01292476
 30
0.0
 10
17.8898466721
 20
12.0107174731
 30
0.0
 10
17.9079814651
 20
12.0073875701
 30
0.0
 10
17.9211493727
 20
12.0041458025
 30
0.0
 10
17.9339634043
 20
12.0001465721
 30
0.0
 10
17.9464063927
 20
11.9953946438
 30
0.0
 10
17.9584596082
 20
11.9898952339
 30
0.0
 10
17.9662294548
 20
11.9857338711
 30
0.0
 10
17.9700378825
 20
11.9835351305
 30
0.0
  0
SPLINE
  5
2C4
100
AcDbEntity
  8
0
100
AcDbSpline
 62
9
  6
CONTINUOUS
 70
0
 71
3
 72
22
 73
18
 74
0
 42
0.0000001
 43
0.0000001
 44
0.0000000001
 40
0.0
 40
0.0
 40
0.0
 40
0.0
 40
0.0538988698
 40
0.1080560683
 40
0.1627240566
 40
0.2181422133
 40
0.2745349428
 40
0.3321057189
 40
0.391034159
 40
0.4514778724
 40
0.5135648686
 40
0.5773964165
 40
0.6430535879
 40
0.7105975803
 40
0.8514510998
 40
0.9247940139
 40
1.0
 40
1.0
 40
1.0
 40
1.0
 10
17.3495403281
 20
10.9087977127
 30
0.0
 10
17.3444613366
 20
10.9117300624
 30
0.0
 10
17.3345240279
 20
10.918045405
 30
0.0
 10
17.3204233984
 20
10.9287869166
 30
0.0
 10
17.3071457482
 20
10.9407795036
 30
0.0
 10
17.2947230429
 20
10.9539899499
 30
0.0
 10
17.2831872333
 20
10.9683874456
 30
0.0
 10
17.2725649323
 20
10.9839348558
 30
0.0
 10
17.2628792426
 20
11.0005929686
 30
0.0
 10
17.2541556827
 20
11.0183225451
 30
0.0
 10
17.246412486
 20
11.0370788849
 30
0.0
 10
17.2396661242
 20
11.0568155777
 30
0.0
 10
17.2339346423
 20
11.0774868891
 30
0.0
 10
17.2275728122
 20
11.1066325418
 30
0.0
 10
17.2234355314
 20
11.1370697991
 30
0.0
 10
17.2213703348
 20
11.1684980082
 30
0.0
 10
17.2210302412
 20
11.1846647137
 30
0.0
 10
17.2210302412
 20
11.1928478414
 30
0.0
  0
SPLINE
  5
2C5
100
AcDbEntity
  8
0
100
AcDbSpline
 62
9
  6
CONTINUOUS
 70
0
 71
3
 72
60
 73
56
 74
0
 42
0.0000001
 43
0.0000001
 44
0.0000000001
 40
0.0
 40
0.0
 40
0.0
 40
0.0
 40
0.0160802619
 40
0.0325448599
 40
0.0493754637
 40
0.0665532358
 40
0.0840597024
 40
0.1018752566
 40
0.1199782593
 40
0.1383440006
 40
0.1757549616
 40
0.2138931996
 40
0.2525249725
 40
0.2914057387
 40
0.3302864586
 40
0.3689181779
 40
0.4070565445
 40
0.4444673871
 40
0.4628329725
 40
0.4809360662
 40
0.5162537799
 40
0.5502528844
 40
0.5667160326
 40
0.5828004529
 40
0.5984947002
 40
0.6137912679
 40
0.6431666668
 40
0.6572567335
 40
0.6709535751
 40
0.6842687943
 40
0.6972195961
 40
0.7098275821
 40
0.7221197419
 40
0.7341288289
 40
0.745892158
 40
0.7574521288
 40
0.7688555816
 40
0.7801524878
 40
0.7913955303
 40
0.8026385761
 40
0.8139355033
 40
0.8253389769
 40
0.8368989382
 40
0.8486622017
 40
0.8606711978
 40
0.872963401
 40
0.8855717076
 40
0.8985227989
 40
0.9118377344
 40
0.925533346
 40
0.9396225905
 40
0.9541148484
 40
0.9690146877
 40
0.9843144034
 40
1.0
 40
1.0
 40
1.0
 40
1.0
 10
17.2775987841
 20
11.1928478416
 30
0.0
 10
17.277602928
 20
11.2006950629
 30
0.0
 10
17.2779483844
 20
11.2165786022
 30
0.0
 10
17.2794376703
 20
11.2406337831
 30
0.0
 10
17.2819076318
 20
11.2651466628
 30
0.0
 10
17.2853603078
 20
11.2900534702
 30
0.0
 10
17.2897827288
 20
11.3152942957
 30
0.0
 10
17.2951631407
 20
11.340809692
 30
0.0
 10
17.301488564
 20
11.366539389
 30
0.0
 10
17.3112193024
 20
11.4012603099
 30
0.0
 10
17.325671307
 20
11.4447861916
 30
0.0
 10
17.3463738309
 20
11.4965517592
 30
0.0
 10
17.3703466828
 20
11.5476797778
 30
0.0
 10
17.3973600803
 20
11.5976797307
 30
0.0
 10
17.4271546233
 20
11.6460739566
 30
0.0
 10
17.4594462656
 20
11.6923991391
 30
0.0
 10
17.4939256785
 20
11.7362105769
 30
0.0
 10
17.5243937152
 20
11.7704894042
 30
0.0
 10
17.5495972962
 20
11.7962775178
 30
0.0
 10
17.5748812349
 20
11.8205329891
 30
0.0
 10
17.6071143508
 20
11.8485322707
 30
0.0
 10
17.6406199257
 20
11.8736961691
 30
0.0
 10
17.6676906836
 20
11.8916485916
 30
0.0
 10
17.6878264167
 20
11.9038593227
 30
0.0
 10
17.7079654604
 20
11.9149291757
 30
0.0
 10
17.7343943289
 20
11.9279567381
 30
0.0
 10
17.7609867354
 20
11.9388392814
 30
0.0
 10
17.7875742355
 20
11.9473181916
 30
0.0
 10
17.8070039064
 20
11.9523447358
 30
0.0
 10
17.8261507452
 20
11.9561113382
 30
0.0
 10
17.8449689893
 20
11.9586113279
 30
0.0
 10
17.8634137898
 20
11.9598365643
 30
0.0
 10
17.8814406903
 20
11.959781378
 30
0.0
 10
17.89900602
 20
11.9584479525
 30
0.0
 10
17.9160669998
 20
11.9558364307
 30
0.0
 10
17.9325811178
 20
11.9519510413
 30
0.0
 10
17.9485081076
 20
11.9468034593
 30
0.0
 10
17.9638074726
 20
11.9404031799
 30
0.0
 10
17.978440246
 20
11.9327655846
 30
0.0
 10
17.9923710925
 20
11.9239121698
 30
0.0
 10
18.0055635806
 20
11.9138626336
 30
0.0
 10
18.0179850921
 20
11.9026433175
 30
0.0
 10
18.0296070852
 20
11.8902844858
 30
0.0
 10
18.0403993196
 20
11.8768151935
 30
0.0
 10
18.0503369999
 20
11.8622701109
 30
0.0
 10
18.0593983301
 20
11.8466858319
 30
0.0
 10
18.0675592619
 20
11.8300989908
 30
0.0
 10
18.0748030889
 20
11.812551688
 30
0.0
 10
18.0811147941
 20
11.7940873753
 30
0.0
 10
18.0864779726
 20
11.7747495433
 30
0.0
 10
18.0908807716
 20
11.7545831535
 30
0.0
 10
18.0943119594
 20
11.7336339584
 30
0.0
 10
18.0967589635
 20
11.7119532431
 30
0.0
 10
18.0982249442
 20
11.6896017613
 30
0.0
 10
18.0985461542
 20
11.6744787299
 30
0.0
 10
18.0985497563
 20
11.6668241064
 30
0.0
  0
SPLINE
  5
2C6
100
AcDbEntity
  8
0
100
AcDbSpline
 62
9
  6
CONTINUOUS
 70
0
 71
3
 72
60
 73
56
 74
0
 42
0.0000001
 43
0.0000001
 44
0.0000000001
 40
0.0
 40
0.0
 40
0.0
 40
0.0
 40
0.0160802619
 40
0.0325448599
 40
0.0493754637
 40
0.0665532358
 40
0.0840597024
 40
0.1018752566
 40
0.1199782593
 40
0.1383440006
 40
0.1757549616
 40
0.2138931996
 40
0.2525249725
 40
0.2914057387
 40
0.3302864586
 40
0.3689181779
 40
0.4070565445
 40
0.4444673871
 40
0.4628329725
 40
0.4809360662
 40
0.5162537799
 40
0.5502528844
 40
0.5667160326
 40
0.5828004529
 40
0.5984947002
 40
0.6137912679
 40
0.6431666668
 40
0.6572567335
 40
0.6709535751
 40
0.6842687943
 40
0.6972195961
 40
0.7098275821
 40
0.7221197419
 40
0.7341288289
 40
0.745892158
 40
0.7574521288
 40
0.7688555816
 40
0.7801524878
 40
0.7913955303
 40
0.8026385761
 40
0.8139355033
 40
0.8253389769
 40
0.8368989382
 40
0.8486622017
 40
0.8606711978
 40
0.872963401
 40
0.8855717076
 40
0.8985227989
 40
0.9118377344
 40
0.925533346
 40
0.9396225905
 40
0.9541148484
 40
0.9690146877
 40
0.9843144034
 40
1.0
 40
1.0
 40
1.0
 40
1.0
 10
18.0985497563
 20
11.6668241064
 30
0.0
 10
18.0985456124
 20
11.6589768852
 30
0.0
 10
18.098200156
 20
11.6430933459
 30
0.0
 10
18.0967108701
 20
11.6190381649
 30
0.0
 10
18.0942409086
 20
11.5945252852
 30
0.0
 10
18.0907882326
 20
11.5696184779
 30
0.0
 10
18.0863658116
 20
11.5443776523
 30
0.0
 10
18.0809853997
 20
11.5188622561
 30
0.0
 10
18.0746599764
 20
11.493132559
 30
0.0
 10
18.064929238
 20
11.4584116381
 30
0.0
 10
18.0504772334
 20
11.4148857564
 30
0.0
 10
18.0297747095
 20
11.3631201888
 30
0.0
 10
18.0058018576
 20
11.3119921703
 30
0.0
 10
17.9787884601
 20
11.2619922173
 30
0.0
 10
17.9489939171
 20
11.2135979915
 30
0.0
 10
17.9167022748
 20
11.167272809
 30
0.0
 10
17.8822228619
 20
11.1234613711
 30
0.0
 10
17.8517548252
 20
11.0891825438
 30
0.0
 10
17.8265512442
 20
11.0633944302
 30
0.0
 10
17.8012673055
 20
11.039138959
 30
0.0
 10
17.7690341896
 20
11.0111396773
 30
0.0
 10
17.7355286146
 20
10.9859757789
 30
0.0
 10
17.7084578568
 20
10.9680233564
 30
0.0
 10
17.6883221237
 20
10.9558126254
 30
0.0
 10
17.66818308
 20
10.9447427724
 30
0.0
 10
17.6417542115
 20
10.9317152099
 30
0.0
 10
17.615161805
 20
10.9208326667
 30
0.0
 10
17.5885743049
 20
10.9123537564
 30
0.0
 10
17.569144634
 20
10.9073272123
 30
0.0
 10
17.5499977952
 20
10.9035606098
 30
0.0
 10
17.5311795511
 20
10.9010606201
 30
0.0
 10
17.5127347506
 20
10.8998353837
 30
0.0
 10
17.49470785
 20
10.8998905701
 30
0.0
 10
17.4771425204
 20
10.9012239956
 30
0.0
 10
17.4600815405
 20
10.9038355173
 30
0.0
 10
17.4435674226
 20
10.9077209067
 30
0.0
 10
17.4276404328
 20
10.9128684887
 30
0.0
 10
17.4123410678
 20
10.9192687681
 30
0.0
 10
17.3977082944
 20
10.9269063634
 30
0.0
 10
17.3837774479
 20
10.9357597782
 30
0.0
 10
17.3705849598
 20
10.9458093145
 30
0.0
 10
17.3581634483
 20
10.9570286305
 30
0.0
 10
17.3465414552
 20
10.9693874623
 30
0.0
 10
17.3357492208
 20
10.9828567545
 30
0.0
 10
17.3258115405
 20
10.9974018371
 30
0.0
 10
17.3167502103
 20
11.0129861161
 30
0.0
 10
17.3085892785
 20
11.0295729573
 30
0.0
 10
17.3013454515
 20
11.0471202601
 30
0.0
 10
17.2950337463
 20
11.0655845727
 30
0.0
 10
17.2896705678
 20
11.0849224047
 30
0.0
 10
17.2852677688
 20
11.1050887945
 30
0.0
 10
17.281836581
 20
11.1260379896
 30
0.0
 10
17.2793895769
 20
11.1477187049
 30
0.0
 10
17.2779235962
 20
11.1700701867
 30
0.0
 10
17.2776023862
 20
11.1851932182
 30
0.0
 10
17.2775987841
 20
11.1928478416
 30
0.0
  0
SPLINE
  5
2C7
100
AcDbEntity
  8
0
100
AcDbSpline
 62
7
  6
CONTINUOUS
 70
0
 71
3
 72
21
 73
17
 74
0
 42
0.0000001
 43
0.0000001
 44
0.0000000001
 40
0.0
 40
0.0
 40
0.0
 40
0.0
 40
0.0752144211
 40
0.1485621303
 40
0.2894176939
 40
0.4225741306
 40
0.4864099608
 40
0.548500178
 40
0.6089456113
 40
0.6678767926
 40
0.7254503221
 40
0.7818455754
 40
0.8372669684
 40
0.8919377499
 40
0.9460978429
 40
1.0
 40
1.0
 40
1.0
 40
1.0
 10
13.9188415731
 20
12.5588466213
 30
0.0
 10
13.9188415731
 20
12.541931199
 30
0.0
 10
13.9195443398
 20
12.5085142185
 30
0.0
 10
13.9238136097
 20
12.4435490504
 30
0.0
 10
13.9343541933
 20
12.3660111312
 30
0.0
 10
13.9524531091
 20
12.2920400047
 30
0.0
 10
13.9713092842
 20
12.236875185
 30
0.0
 10
13.9873147008
 20
12.1981056099
 30
0.0
 10
14.005349052
 20
12.1614608675
 30
0.0
 10
14.0253694018
 20
12.1270294423
 30
0.0
 10
14.0473262043
 20
12.0948937832
 30
0.0
 10
14.0711739306
 20
12.0651371942
 30
0.0
 10
14.0968513782
 20
12.0378314277
 30
0.0
 10
14.1242977341
 20
12.01304441
 30
0.0
 10
14.153446738
 20
11.9908459895
 30
0.0
 10
14.1739870664
 20
11.9777922226
 30
0.0
 10
14.1844856294
 20
11.9717315085
 30
0.0
  0
SPLINE
  5
2C8
100
AcDbEntity
  8
0
100
AcDbSpline
 62
7
  6
CONTINUOUS
 70
0
 71
3
 72
15
 73
11
 74
0
 42
0.0000001
 43
0.0000001
 44
0.0000000001
 40
0.0
 40
0.0
 40
0.0
 40
0.0
 40
0.1326911357
 40
0.2624520811
 40
0.3896028723
 40
0.5145030458
 40
0.6375480447
 40
0.7591708178
 40
0.8798293622
 40
1.0
 40
1.0
 40
1.0
 40
1.0
 10
14.4932871444
 20
11.8888922499
 30
0.0
 10
14.4810049067
 20
11.8882095013
 30
0.0
 10
14.4566620043
 20
11.8876088679
 30
0.0
 10
14.420548048
 20
11.8890882976
 30
0.0
 10
14.3853345548
 20
11.8929536294
 30
0.0
 10
14.3510953081
 20
11.8991966489
 30
0.0
 10
14.3179023433
 20
11.9078114955
 30
0.0
 10
14.2858242742
 20
11.9187785299
 30
0.0
 10
14.2549297491
 20
11.9320725046
 30
0.0
 10
14.2351483651
 20
11.9424820693
 30
0.0
 10
14.2255001371
 20
11.9480518089
 30
0.0
  0
SPLINE
  5
2C9
100
AcDbEntity
  8
0
100
AcDbSpline
 62
7
  6
CONTINUOUS
 70
0
 71
3
 72
13
 73
9
 74
0
 42
0.0000001
 43
0.0000001
 44
0.0000000001
 40
0.0
 40
0.0
 40
0.0
 40
0.0
 40
0.1164348425
 40
0.2355949484
 40
0.4814833838
 40
0.6079828892
 40
0.7366710281
 40
1.0
 40
1.0
 40
1.0
 40
1.0
 10
15.8584354739
 20
13.3479905668
 30
0.0
 10
15.8584354739
 20
13.3341789343
 30
0.0
 10
15.8578522247
 20
13.3062291103
 30
0.0
 10
15.8544225235
 20
13.2492073844
 30
0.0
 10
15.8476138524
 20
13.1912368493
 30
0.0
 10
15.8376485945
 20
13.1326316165
 30
0.0
 10
15.825312956
 20
13.0723650081
 30
0.0
 10
15.8137605114
 20
13.0272795647
 30
0.0
 10
15.8051008981
 20
12.9972675249
 30
0.0
  0
SPLINE
  5
2CA
100
AcDbEntity
  8
0
100
AcDbSpline
 62
7
  6
CONTINUOUS
 70
0
 71
3
 72
26
 73
22
 74
0
 42
0.0000001
 43
0.0000001
 44
0.0000000001
 40
0.0
 40
0.0
 40
0.0
 40
0.0
 40
0.0790844217
 40
0.1563631093
 40
0.2316218383
 40
0.3046705461
 40
0.3753536224
 40
0.4435487171
 40
0.5091790761
 40
0.5722123769
 40
0.632674791
 40
0.6906498836
 40
0.7462926893
 40
0.7998271061
 40
0.8515552071
 40
0.8768660096
 40
0.9018706966
 40
0.9266258865
 40
0.9511909065
 40
0.9756276588
 40
1.0
 40
1.0
 40
1.0
 40
1.0
 10
15.3891525316
 20
12.2768234796
 30
0.0
 10
15.3724969767
 20
12.2595187585
 30
0.0
 10
15.3387678395
 20
12.2260608839
 30
0.0
 10
15.2864430228
 20
12.1790047493
 30
0.0
 10
15.2331943774
 20
12.1358460793
 30
0.0
 10
15.179299144
 20
12.0968185439
 30
0.0
 10
15.1250437498
 20
12.0621229292
 30
0.0
 10
15.0707080791
 20
12.0319485527
 30
0.0
 10
15.0165796298
 20
12.0064493004
 30
0.0
 10
14.9629361171
 20
11.9857693075
 30
0.0
 10
14.9100594803
 20
11.9700134209
 30
0.0
 10
14.8582213325
 20
11.9592802412
 30
0.0
 10
14.8076927141
 20
11.9536259265
 30
0.0
 10
14.7587424415
 20
11.9531024284
 30
0.0
 10
14.7191851006
 20
11.9569784437
 30
0.0
 10
14.6887084236
 20
11.9626824803
 30
0.0
 10
14.6665724541
 20
11.968199325
 30
0.0
 10
14.6450271287
 20
11.9749773404
 30
0.0
 10
14.6241007357
 20
11.9830086729
 30
0.0
 10
14.6038241002
 20
11.9922846331
 30
0.0
 10
14.5907489889
 20
11.9992929594
 30
0.0
 10
14.5843387216
 20
12.0029938043
 30
0.0
  0
SPLINE
  5
2CB
100
AcDbEntity
  8
0
100
AcDbSpline
 62
7
  6
CONTINUOUS
 70
0
 71
3
 72
22
 73
18
 74
0
 42
0.0000001
 43
0.0000001
 44
0.0000000001
 40
0.0
 40
0.0
 40
0.0
 40
0.0
 40
0.0538988235
 40
0.1080559519
 40
0.1627238426
 40
0.2181418866
 40
0.2745345112
 40
0.3321051758
 40
0.3910335229
 40
0.4514771737
 40
0.5135640877
 40
0.5773955641
 40
0.6430527167
 40
0.7105967779
 40
0.8514507856
 40
0.9247939045
 40
1.0
 40
1.0
 40
1.0
 40
1.0
 10
15.639829811
 20
13.831175188
 30
0.0
 10
15.648469541
 20
13.8261872055
 30
0.0
 10
15.6653736256
 20
13.8154446613
 30
0.0
 10
15.6893598138
 20
13.7971729902
 30
0.0
 10
15.7119461032
 20
13.7767731861
 30
0.0
 10
15.733078074
 20
13.7543016884
 30
0.0
 10
15.7527013424
 20
13.7298108894
 30
0.0
 10
15.7707707251
 20
13.7033640219
 30
0.0
 10
15.7872468516
 20
13.6750277322
 30
0.0
 10
15.8020862947
 20
13.6448687748
 30
0.0
 10
15.8152581271
 20
13.6129632336
 30
0.0
 10
15.8267342482
 20
13.5793900162
 30
0.0
 10
15.8364839609
 20
13.544226908
 30
0.0
 10
15.8473060105
 20
13.4946483384
 30
0.0
 10
15.8543438454
 20
13.4428725955
 30
0.0
 10
15.8578569396
 20
13.389411177
 30
0.0
 10
15.8584354739
 20
13.3619105797
 30
0.0
 10
15.8584354739
 20
13.3479905668
 30
0.0
  0
SPLINE
  5
2CC
100
AcDbEntity
  8
0
100
AcDbSpline
 62
7
  6
CONTINUOUS
 70
0
 71
3
 72
15
 73
11
 74
0
 42
0.0000001
 43
0.0000001
 44
0.0000000001
 40
0.0
 40
0.0
 40
0.0
 40
0.0
 40
0.11974086
 40
0.2400143562
 40
0.3613433351
 40
0.4842260792
 40
0.6091278917
 40
0.7364782544
 40
0.8666576519
 40
1.0
 40
1.0
 40
1.0
 40
1.0
 10
15.5079362895
 20
14.1694414971
 30
0.0
 10
15.5180564116
 20
14.1635993419
 30
0.0
 10
15.5378703431
 20
14.1510501464
 30
0.0
 10
15.5660516162
 20
14.1297920576
 30
0.0
 10
15.5926562932
 20
14.1061251125
 30
0.0
 10
15.6176241827
 20
14.0801107432
 30
0.0
 10
15.6409012279
 20
14.0518100617
 30
0.0
 10
15.6624312244
 20
14.021284971
 30
0.0
 10
15.6821707803
 20
13.9886108934
 30
0.0
 10
15.6939605889
 20
13.9657311431
 30
0.0
 10
15.6995500002
 20
13.9539800081
 30
0.0
  0
SPLINE
  5
2CD
100
AcDbEntity
  8
0
100
AcDbSpline
 62
7
  6
CONTINUOUS
 70
0
 71
3
 72
45
 73
41
 74
0
 42
0.0000001
 43
0.0000001
 44
0.0000000001
 40
0.0
 40
0.0
 40
0.0
 40
0.0
 40
0.0106523708
 40
0.0213335888
 40
0.0320720354
 40
0.0428952704
 40
0.053829905
 40
0.0649011852
 40
0.0761324582
 40
0.087545351
 40
0.1109852369
 40
0.135361896
 40
0.1479372407
 40
0.160781094
 40
0.1872955467
 40
0.2009811106
 40
0.2149531663
 40
0.2437518486
 40
0.2736812725
 40
0.3047036353
 40
0.3367633204
 40
0.369788009
 40
0.4036917243
 40
0.4383766674
 40
0.4737349132
 40
0.5096507589
 40
0.5460016122
 40
0.5826603937
 40
0.6194961742
 40
0.6563763965
 40
0.6931678719
 40
0.7297384357
 40
0.7659580458
 40
0.801701122
 40
0.8368476681
 40
0.8712836911
 40
0.9049026194
 40
0.9376152552
 40
0.9693433074
 40
1.0
 40
1.0
 40
1.0
 40
1.0
 10
15.4669264105
 20
14.1931185992
 30
0.0
 10
15.4590548179
 20
14.1976627898
 30
0.0
 10
15.4429951089
 20
14.2062628022
 30
0.0
 10
15.4180809726
 20
14.2176252397
 30
0.0
 10
15.3923628854
 20
14.2274460211
 30
0.0
 10
15.3658778892
 20
14.2357119217
 30
0.0
 10
15.3386614369
 20
14.242409941
 30
0.0
 10
15.3107514017
 20
14.247530374
 30
0.0
 10
15.2821860621
 20
14.2510697605
 30
0.0
 10
15.242935221
 20
14.2536987258
 30
0.0
 10
15.1923022942
 20
14.2528968714
 30
0.0
 10
15.1410426354
 20
14.2468683367
 30
0.0
 10
15.0992785253
 20
14.2389920382
 30
0.0
 10
15.0561327196
 20
14.2288375226
 30
0.0
 10
15.0127841091
 20
14.2156151153
 30
0.0
 10
14.9694298578
 20
14.1995644959
 30
0.0
 10
14.9249091208
 20
14.1811422697
 30
0.0
 10
14.8689287975
 20
14.1542923335
 30
0.0
 10
14.8022058923
 20
14.1166058445
 30
0.0
 10
14.7356186696
 20
14.0733388249
 30
0.0
 10
14.669527197
 20
14.0247239608
 30
0.0
 10
14.6042842971
 20
13.9710236979
 30
0.0
 10
14.5402396437
 20
13.9125284098
 30
0.0
 10
14.4777398106
 20
13.8495511981
 30
0.0
 10
14.4171178894
 20
13.7824348278
 30
0.0
 10
14.3587052466
 20
13.7115373779
 30
0.0
 10
14.3028113726
 20
13.6372456292
 30
0.0
 10
14.2497439958
 20
13.5599561004
 30
0.0
 10
14.1997832435
 20
13.4800902182
 30
0.0
 10
14.1532049078
 20
13.3980754395
 30
0.0
 10
14.1102551461
 20
13.3143575761
 30
0.0
 10
14.0711702896
 20
13.229386501
 30
0.0
 10
14.036158015
 20
13.1436224748
 30
0.0
 10
14.0054088463
 20
13.0575271073
 30
0.0
 10
13.9790896607
 20
12.9715645625
 30
0.0
 10
13.9573400191
 20
12.8862006564
 30
0.0
 10
13.9402793576
 20
12.8018928987
 30
0.0
 10
13.9279970546
 20
12.7190884637
 30
0.0
 10
13.9205700158
 20
12.6382457828
 30
0.0
 10
13.9188415731
 20
12.5850043266
 30
0.0
 10
13.9188415731
 20
12.5588466213
 30
0.0
  0
SPLINE
  5
2CE
100
AcDbEntity
  8
0
100
AcDbSpline
 62
7
  6
CONTINUOUS
 70
0
 71
3
 72
24
 73
20
 74
0
 42
0.0000001
 43
0.0000001
 44
0.0000000001
 40
0.0
 40
0.0
 40
0.0
 40
0.0
 40
0.1328585566
 40
0.1978679309
 40
0.2620210139
 40
0.3254126131
 40
0.3881577177
 40
0.4503536138
 40
0.5121172784
 40
0.5735455411
 40
0.6041658858
 40
0.6347376331
 40
0.6957529844
 40
0.7262241601
 40
0.7566793203
 40
0.8175388468
 40
0.8783291121
 40
0.93908619
 40
1.0
 40
1.0
 40
1.0
 40
1.0
 10
14.9772249291
 20
11.9931672937
 30
0.0
 10
14.9441517047
 20
11.9757250343
 30
0.0
 10
14.8935405071
 20
11.9521623844
 30
0.0
 10
14.8242609506
 20
11.9268106849
 30
0.0
 10
14.7723207265
 20
11.9112303539
 30
0.0
 10
14.7201238557
 20
11.899088016
 30
0.0
 10
14.6677764851
 20
11.8905199526
 30
0.0
 10
14.6154104909
 20
11.8856686015
 30
0.0
 10
14.5631974909
 20
11.8846872153
 30
0.0
 10
14.5199342216
 20
11.8872023101
 30
0.0
 10
14.4856568865
 20
11.8912710869
 30
0.0
 10
14.4516902447
 20
11.8967185035
 30
0.0
 10
14.4181288622
 20
11.9042650819
 30
0.0
 10
14.3851875033
 20
11.9139197561
 30
0.0
 10
14.3527355698
 20
11.9249772087
 30
0.0
 10
14.3131510554
 20
11.9414264948
 30
0.0
 10
14.267593736
 20
11.9652308117
 30
0.0
 10
14.2243162505
 20
11.9929901859
 30
0.0
 10
14.1971926049
 20
12.0139753507
 30
0.0
 10
14.1841026319
 20
12.0250451481
 30
0.0
  0
SPLINE
  5
2CF
100
AcDbEntity
  8
0
100
AcDbSpline
 62
7
  6
CONTINUOUS
 70
0
 71
3
 72
24
 73
20
 74
0
 42
0.0000001
 43
0.0000001
 44
0.0000000001
 40
0.0
 40
0.0
 40
0.0
 40
0.0
 40
0.0609934419
 40
0.1218204235
 40
0.1826726601
 40
0.2436000834
 40
0.2740914206
 40
0.3045960895
 40
0.3656715368
 40
0.4269049485
 40
0.4883686557
 40
0.5501601483
 40
0.6123577702
 40
0.6750757292
 40
0.7384144659
 40
0.8024738033
 40
0.8673720078
 40
0.933200681
 40
1.0
 40
1.0
 40
1.0
 40
1.0
 10
15.4206221857
 20
14.1667598399
 30
0.0
 10
15.4364958152
 20
14.1610513022
 30
0.0
 10
15.4677285375
 20
14.1482854145
 30
0.0
 10
15.5127181424
 20
14.1251643293
 30
0.0
 10
15.5555030755
 20
14.0982121346
 30
0.0
 10
15.5891121207
 20
14.0727426122
 30
0.0
 10
15.6146310059
 20
14.0506872495
 30
0.0
 10
15.6392135941
 20
14.027533078
 30
0.0
 10
15.6681268076
 20
13.9966348864
 30
0.0
 10
15.6997399221
 20
13.9567684061
 30
0.0
 10
15.7282034525
 20
13.9143592868
 30
0.0
 10
15.753497729
 20
13.8696853863
 30
0.0
 10
15.7756179795
 20
13.8229775123
 30
0.0
 10
15.7946011915
 20
13.7744537533
 30
0.0
 10
15.8105075666
 20
13.724299485
 30
0.0
 10
15.8233976846
 20
13.6726683171
 30
0.0
 10
15.8333340736
 20
13.6196901652
 30
0.0
 10
15.8403855131
 20
13.5654914555
 30
0.0
 10
15.8431849972
 20
13.5288984629
 30
0.0
 10
15.8441339589
 20
13.5104482338
 30
0.0
  0
SPLINE
  5
2D0
100
AcDbEntity
  8
0
100
AcDbSpline
 62
7
  6
CONTINUOUS
 70
0
 71
3
 72
42
 73
38
 74
0
 42
0.0000001
 43
0.0000001
 44
0.0000000001
 40
0.0
 40
0.0
 40
0.0
 40
0.0
 40
0.0306563109
 40
0.0623858125
 40
0.0951000885
 40
0.1287195005
 40
0.163156138
 40
0.1983036465
 40
0.2340478141
 40
0.2702682418
 40
0.3068398469
 40
0.3436323676
 40
0.3805136925
 40
0.417350499
 40
0.4540102681
 40
0.4903621129
 40
0.5262788286
 40
0.5616378981
 40
0.5963235989
 40
0.6302279443
 40
0.6632533603
 40
0.6953134466
 40
0.726336485
 40
0.7562659979
 40
0.7850652764
 40
0.8127178002
 40
0.8392327704
 40
0.8646453415
 40
0.8890224649
 40
0.9124622247
 40
0.9350978324
 40
0.9461691098
 40
0.9571038813
 40
0.9679273615
 40
0.9786659904
 40
0.9893473714
 40
1.0
 40
1.0
 40
1.0
 40
1.0
 10
14.3657330588
 20
12.4861784256
 30
0.0
 10
14.3657330588
 20
12.5077057984
 30
0.0
 10
14.3671560437
 20
12.5515239381
 30
0.0
 10
14.3732680497
 20
12.6180589442
 30
0.0
 10
14.3833770437
 20
12.6862089473
 30
0.0
 10
14.3974177953
 20
12.755595741
 30
0.0
 10
14.4153194707
 20
12.8258507551
 30
0.0
 10
14.4369794226
 20
12.8965995795
 30
0.0
 10
14.462288153
 20
12.9674568729
 30
0.0
 10
14.4911025939
 20
13.0380426085
 30
0.0
 10
14.5232723069
 20
13.107974126
 30
0.0
 10
14.5586191998
 20
13.1768762325
 30
0.0
 10
14.5969564531
 20
13.2443744695
 30
0.0
 10
14.6380736011
 20
13.3101063781
 30
0.0
 10
14.681751341
 20
13.3737153141
 30
0.0
 10
14.7277518328
 20
13.4348593742
 30
0.0
 10
14.7758282685
 20
13.4932074201
 30
0.0
 10
14.8257205683
 20
13.5484453766
 30
0.0
 10
14.8771599686
 20
13.6002750999
 30
0.0
 10
14.9298699369
 20
13.6484168242
 30
0.0
 10
14.9835659596
 20
13.6926119729
 30
0.0
 10
15.0379612594
 20
13.7326207324
 30
0.0
 10
15.0927623885
 20
13.7682297316
 30
0.0
 10
15.1476788688
 20
13.799243386
 30
0.0
 10
15.202415423
 20
13.8254976776
 30
0.0
 10
15.2566840811
 20
13.8468436338
 30
0.0
 10
15.3101945255
 20
13.8631686421
 30
0.0
 10
15.3626655631
 20
13.8743707498
 30
0.0
 10
15.4138176033
 20
13.8803884569
 30
0.0
 10
15.4633728141
 20
13.8811678294
 30
0.0
 10
15.5034208569
 20
13.8774132113
 30
0.0
 10
15.5342689661
 20
13.8717489557
 30
0.0
 10
15.5566681816
 20
13.8662346239
 30
0.0
 10
15.5784654415
 20
13.8594318163
 30
0.0
 10
15.5996315376
 20
13.8513486239
 30
0.0
 10
15.620134615
 20
13.8419939351
 30
0.0
 10
15.6333514938
 20
13.8349153203
 30
0.0
 10
15.639829811
 20
13.831175188
 30
0.0
  0
SPLINE
  5
2D1
100
AcDbEntity
  8
0
100
AcDbSpline
 62
7
  6
CONTINUOUS
 70
0
 71
3
 72
42
 73
38
 74
0
 42
0.0000001
 43
0.0000001
 44
0.0000000001
 40
0.0
 40
0.0
 40
0.0
 40
0.0
 40
0.0303773297
 40
0.0617905586
 40
0.0941578363
 40
0.1274057949
 40
0.1614524212
 40
0.1961988264
 40
0.2315389537
 40
0.2673609354
 40
0.3035480421
 40
0.3399787128
 40
0.3765293347
 40
0.4130748466
 40
0.449490547
 40
0.4856526718
 40
0.521440602
 40
0.5567371597
 40
0.5914311771
 40
0.6254173974
 40
0.6585998788
 40
0.6908914602
 40
0.722218002
 40
0.7525176409
 40
0.7817456593
 40
0.80987404
 40
0.8368966592
 40
0.8499998314
 40
0.8628349763
 40
0.8877209118
 40
0.9116304956
 40
0.9346650231
 40
0.9569563666
 40
0.9678773665
 40
0.9786752944
 40
0.9893744074
 40
1.0
 40
1.0
 40
1.0
 40
1.0
 10
13.9598537664
 20
12.5351682205
 30
0.0
 10
13.9598537664
 20
12.5606143699
 30
0.0
 10
13.9614890352
 20
12.6123854582
 30
0.0
 10
13.9685233736
 20
12.6909829889
 30
0.0
 10
13.9801605169
 20
12.7714621191
 30
0.0
 10
13.9963301164
 20
12.8534000333
 30
0.0
 10
14.0169537098
 20
12.9363846547
 30
0.0
 10
14.0419211251
 20
13.019995966
 30
0.0
 10
14.0711104848
 20
13.1038034632
 30
0.0
 10
14.1043679424
 20
13.1873803739
 30
0.0
 10
14.1415261277
 20
13.2702987686
 30
0.0
 10
14.1823935219
 20
13.3521354139
 30
0.0
 10
14.2267617046
 20
13.4324710682
 30
0.0
 10
14.2744040301
 20
13.5108946454
 30
0.0
 10
14.3250753615
 20
13.5870057656
 30
0.0
 10
14.3785188967
 20
13.6604136908
 30
0.0
 10
14.4344581594
 20
13.7307452113
 30
0.0
 10
14.4926112647
 20
13.7976378534
 30
0.0
 10
14.5526764506
 20
13.8607535095
 30
0.0
 10
14.6143523478
 20
13.9197650864
 30
0.0
 10
14.6773187578
 20
13.9743765101
 30
0.0
 10
14.7412608293
 20
14.0243027448
 30
0.0
 10
14.8058476731
 20
14.0692956135
 30
0.0
 10
14.8707571242
 20
14.1091176846
 30
0.0
 10
14.9356562567
 20
14.1435730525
 30
0.0
 10
15.0002194153
 20
14.1724749327
 30
0.0
 10
15.0540160189
 20
14.1920128883
 30
0.0
 10
15.0965561272
 20
14.2046413801
 30
0.0
 10
15.1378421368
 20
14.2150738084
 30
0.0
 10
15.1886691382
 20
14.2245304999
 30
0.0
 10
15.248683
 20
14.230003966
 30
0.0
 10
15.306778998
 20
14.229450082
 30
0.0
 10
15.3536764125
 20
14.2239070855
 30
0.0
 10
15.3897941459
 20
14.2164292138
 30
0.0
 10
15.4160325434
 20
14.20936636
 30
0.0
 10
15.4415648252
 20
14.200823597
 30
0.0
 10
15.4581408789
 20
14.1941305374
 30
0.0
 10
15.4662873769
 20
14.190544792
 30
0.0
  0
SPLINE
  5
2D2
100
AcDbEntity
  8
0
100
AcDbSpline
 62
7
  6
CONTINUOUS
 70
0
 71
3
 72
22
 73
18
 74
0
 42
0.0000001
 43
0.0000001
 44
0.0000000001
 40
0.0
 40
0.0
 40
0.0
 40
0.0
 40
0.0536146809
 40
0.1077411383
 40
0.1625771587
 40
0.2183077948
 40
0.2751035554
 40
0.3331154447
 40
0.3924769185
 40
0.4533029252
 40
0.515684235
 40
0.5796937997
 40
0.645389779
 40
0.7128155267
 40
0.8529210229
 40
0.9256153779
 40
1.0
 40
1.0
 40
1.0
 40
1.0
 10
14.1860453265
 20
11.9738195169
 30
0.0
 10
14.1770041367
 20
11.9804577439
 30
0.0
 10
14.159347518
 20
11.9945108728
 30
0.0
 10
14.1344112725
 20
12.0176862032
 30
0.0
 10
14.1109716252
 20
12.0429820752
 30
0.0
 10
14.089079125
 20
12.0703446304
 30
0.0
 10
14.068780518
 20
12.099719016
 30
0.0
 10
14.0501118735
 20
12.1310407839
 30
0.0
 10
14.0331109132
 20
12.1642464386
 30
0.0
 10
14.0178147327
 20
12.1992689284
 30
0.0
 10
14.0042482214
 20
12.2360335163
 30
0.0
 10
13.9924385605
 20
12.2744648484
 30
0.0
 10
13.9824120399
 20
12.3144877097
 30
0.0
 10
13.9713009434
 20
12.3705770253
 30
0.0
 10
13.9640630943
 20
12.4288500066
 30
0.0
 10
13.9604493035
 20
12.4888318842
 30
0.0
 10
13.9598537664
 20
12.5196065725
 30
0.0
 10
13.9598537664
 20
12.5351682205
 30
0.0
  0
SPLINE
  5
2D3
100
AcDbEntity
  8
0
100
AcDbSpline
 62
7
  6
CONTINUOUS
 70
0
 71
3
 72
22
 73
18
 74
0
 42
0.0000001
 43
0.0000001
 44
0.0000000001
 40
0.0
 40
0.0
 40
0.0
 40
0.0
 40
0.053898968
 40
0.108056214
 40
0.1627242398
 40
0.2181424909
 40
0.2745354184
 40
0.3321064775
 40
0.3910351257
 40
0.4514788482
 40
0.5135657649
 40
0.5773971651
 40
0.6430541169
 40
0.7105978592
 40
0.8514510111
 40
0.9247939341
 40
1.0
 40
1.0
 40
1.0
 40
1.0
 10
14.5348373562
 20
12.0315730406
 30
0.0
 10
14.5261977388
 20
12.0365611234
 30
0.0
 10
14.5092938921
 20
12.0473038496
 30
0.0
 10
14.4853079838
 20
12.0655756398
 30
0.0
 10
14.4627220648
 20
12.0859756483
 30
0.0
 10
14.4415904387
 20
12.1084473144
 30
0.0
 10
14.4219674067
 20
12.1329382197
 30
0.0
 10
14.4038983598
 20
12.1593852539
 30
0.0
 10
14.38742251
 20
12.1877215816
 30
0.0
 10
14.3725832624
 20
12.2178804358
 30
0.0
 10
14.3594118106
 20
12.2497858588
 30
0.0
 10
14.3479360095
 20
12.2833588498
 30
0.0
 10
14.3381865065
 20
12.3185216201
 30
0.0
 10
14.3273647926
 20
12.3680996161
 30
0.0
 10
14.3203270887
 20
12.4198747238
 30
0.0
 10
14.3168140996
 20
12.4733355508
 30
0.0
 10
14.3162355841
 20
12.5008359019
 30
0.0
 10
14.3162355841
 20
12.5147558059
 30
0.0
  0
SPLINE
  5
2D4
100
AcDbEntity
  8
0
100
AcDbSpline
 62
7
  6
CONTINUOUS
 70
0
 71
3
 72
18
 73
14
 74
0
 42
0.0000001
 43
0.0000001
 44
0.0000000001
 40
0.0
 40
0.0
 40
0.0
 40
0.0
 40
0.1460378597
 40
0.2855870347
 40
0.352896351
 40
0.4185765847
 40
0.5451582644
 40
0.6657905045
 40
0.7811280937
 40
0.8371215595
 40
0.8921597993
 40
0.9463973386
 40
1.0
 40
1.0
 40
1.0
 40
1.0
 10
13.9876427656
 20
12.5512122067
 30
0.0
 10
13.9876427656
 20
12.5230142132
 30
0.0
 10
13.9896323024
 20
12.4678459775
 30
0.0
 10
13.9975507284
 20
12.4000810752
 30
0.0
 10
14.0071579084
 20
12.3483239382
 30
0.0
 10
14.0185861896
 20
12.2995097853
 30
0.0
 10
14.0366074473
 20
12.2417249219
 30
0.0
 10
14.064554122
 20
12.1773874774
 30
0.0
 10
14.0930508548
 20
12.128560472
 30
0.0
 10
14.1186692661
 20
12.093112659
 30
0.0
 10
14.1390643843
 20
12.0685359818
 30
0.0
 10
14.1607842607
 20
12.0457578369
 30
0.0
 10
14.1761998935
 20
12.0317286549
 30
0.0
 10
14.1841027793
 20
12.0250453713
 30
0.0
  0
SPLINE
  5
2D5
100
AcDbEntity
  8
0
100
AcDbSpline
 62
7
  6
CONTINUOUS
 70
0
 71
3
 72
22
 73
18
 74
0
 42
0.0000001
 43
0.0000001
 44
0.0000000001
 40
0.0
 40
0.0
 40
0.0
 40
0.0
 40
0.0538988235
 40
0.1080559519
 40
0.1627238426
 40
0.2181418866
 40
0.2745345112
 40
0.3321051758
 40
0.3910335229
 40
0.4514771737
 40
0.5135640877
 40
0.5773955641
 40
0.6430527167
 40
0.7105967779
 40
0.8514507856
 40
0.9247939045
 40
1.0
 40
1.0
 40
1.0
 40
1.0
 10
14.5843387216
 20
12.0029938043
 30
0.0
 10
14.5756989917
 20
12.0079817868
 30
0.0
 10
14.5587949071
 20
12.018724331
 30
0.0
 10
14.5348087189
 20
12.0369960022
 30
0.0
 10
14.5122224295
 20
12.0573958063
 30
0.0
 10
14.4910904587
 20
12.0798673039
 30
0.0
 10
14.4714671902
 20
12.104358103
 30
0.0
 10
14.4533978076
 20
12.1308049705
 30
0.0
 10
14.436921681
 20
12.1591412602
 30
0.0
 10
14.422082238
 20
12.1893002175
 30
0.0
 10
14.4089104056
 20
12.2212057587
 30
0.0
 10
14.3974342844
 20
12.2547789762
 30
0.0
 10
14.3876845717
 20
12.2899420844
 30
0.0
 10
14.3768625222
 20
12.339520654
 30
0.0
 10
14.3698246873
 20
12.3912963969
 30
0.0
 10
14.366311593
 20
12.4447578154
 30
0.0
 10
14.3657330588
 20
12.4722584127
 30
0.0
 10
14.3657330588
 20
12.4861784256
 30
0.0
  0
SPLINE
  5
2D6
100
AcDbEntity
  8
0
100
AcDbSpline
 62
7
  6
CONTINUOUS
 70
0
 71
3
 72
42
 73
38
 74
0
 42
0.0000001
 43
0.0000001
 44
0.0000000001
 40
0.0
 40
0.0
 40
0.0
 40
0.0
 40
0.030656316
 40
0.0623857955
 40
0.0951000235
 40
0.1287193905
 40
0.1631560001
 40
0.1983035764
 40
0.2340479309
 40
0.2702684996
 40
0.3068401103
 40
0.3436325924
 40
0.3805139024
 40
0.4173507163
 40
0.4540105123
 40
0.490362407
 40
0.5262791828
 40
0.5616382905
 40
0.5963239872
 40
0.6302282955
 40
0.6632536468
 40
0.6953136682
 40
0.7263366448
 40
0.7562661046
 40
0.7850653323
 40
0.8127178064
 40
0.8392327292
 40
0.8646452656
 40
0.8890223691
 40
0.9124621254
 40
0.9350977421
 40
0.9461690274
 40
0.9571038057
 40
0.9679272968
 40
0.9786659433
 40
0.9893473461
 40
1.0
 40
1.0
 40
1.0
 40
1.0
 10
14.3162355841
 20
12.5147558059
 30
0.0
 10
14.3162355841
 20
12.5362832328
 30
0.0
 10
14.317658569
 20
12.5801014635
 30
0.0
 10
14.3237705921
 20
12.6466365796
 30
0.0
 10
14.3338795976
 20
12.714786663
 30
0.0
 10
14.3479203776
 20
12.7841735334
 30
0.0
 10
14.365822065
 20
12.8544287163
 30
0.0
 10
14.3874821532
 20
12.9251778485
 30
0.0
 10
14.4127910883
 20
12.9960355508
 30
0.0
 10
14.4416056889
 20
13.0666216676
 30
0.0
 10
14.4737755713
 20
13.1365533903
 30
0.0
 10
14.5091225989
 20
13.2054555938
 30
0.0
 10
14.5474599857
 20
13.2729539272
 30
0.0
 10
14.5885772999
 20
13.3386859628
 30
0.0
 10
14.6322552503
 20
13.4022950459
 30
0.0
 10
14.6782559876
 20
13.4634392669
 30
0.0
 10
14.7263327033
 20
13.5217874468
 30
0.0
 10
14.7762252469
 20
13.5770255083
 30
0.0
 10
14.8276648905
 20
13.6288552289
 30
0.0
 10
14.8803750208
 20
13.6769969143
 30
0.0
 10
14.9340712054
 20
13.7211919395
 30
0.0
 10
14.9884666284
 20
13.7612005723
 30
0.0
 10
15.0432679004
 20
13.7968094023
 30
0.0
 10
15.0981845146
 20
13.8278228851
 30
0.0
 10
15.1529212122
 20
13.8540769594
 30
0.0
 10
15.2071899973
 20
13.8754226852
 30
0.0
 10
15.2607005706
 20
13.8917474072
 30
0.0
 10
15.3131717305
 20
13.902949209
 30
0.0
 10
15.3643238956
 20
13.9089665512
 30
0.0
 10
15.4138792222
 20
13.9097455221
 30
0.0
 10
15.4539273307
 20
13.9059904923
 30
0.0
 10
15.484775478
 20
13.9003259424
 30
0.0
 10
15.5071746987
 20
13.8948113243
 30
0.0
 10
15.5289719471
 20
13.8880082184
 30
0.0
 10
15.5501380358
 20
13.8799247601
 30
0.0
 10
15.5706410972
 20
13.8705697964
 30
0.0
 10
15.5838579329
 20
13.8634909553
 30
0.0
 10
15.5903362271
 20
13.8597507124
 30
0.0
  0
SPLINE
  5
2D7
100
AcDbEntity
  8
0
100
AcDbSpline
 62
7
  6
CONTINUOUS
 70
0
 71
3
 72
40
 73
36
 74
0
 42
0.0000001
 43
0.0000001
 44
0.0000000001
 40
0.0
 40
0.0
 40
0.0
 40
0.0
 40
0.0106488254
 40
0.0213969988
 40
0.043273692
 40
0.0658056362
 40
0.0891337397
 40
0.1133690564
 40
0.138594925
 40
0.1648655562
 40
0.1922107504
 40
0.2206356826
 40
0.2501259182
 40
0.2806474778
 40
0.3121512422
 40
0.3445731577
 40
0.3778377027
 40
0.4118582704
 40
0.4465398883
 40
0.4817798247
 40
0.5174696568
 40
0.5534960391
 40
0.5897423752
 40
0.6260896285
 40
0.6624180455
 40
0.6986077751
 40
0.7345405772
 40
0.770100276
 40
0.8051756567
 40
0.8396598755
 40
0.8734517583
 40
0.9064572686
 40
0.938598852
 40
0.9698060391
 40
1.0
 40
1.0
 40
1.0
 40
1.0
 10
15.4206215086
 20
14.1667584853
 30
0.0
 10
15.4125830257
 20
14.1696493271
 30
0.0
 10
15.3962526355
 20
14.174975541
 30
0.0
 10
15.3626592957
 20
14.1837879257
 30
0.0
 10
15.3189452748
 20
14.1912713216
 30
0.0
 10
15.2646073614
 20
14.1945504932
 30
0.0
 10
15.2083347417
 20
14.1921756823
 30
0.0
 10
15.1504112552
 20
14.1841816051
 30
0.0
 10
15.0911206735
 20
14.1706097078
 30
0.0
 10
15.0307492868
 20
14.1515441439
 30
0.0
 10
14.9695925928
 20
14.1270768543
 30
0.0
 10
14.9079444449
 20
14.0973386789
 30
0.0
 10
14.8461077288
 20
14.0624726223
 30
0.0
 10
14.7843810987
 20
14.0226561124
 30
0.0
 10
14.7230689917
 20
13.9780821613
 30
0.0
 10
14.6624695664
 20
13.9289733017
 30
0.0
 10
14.6028821957
 20
13.8755695821
 30
0.0
 10
14.5445985477
 20
13.8181354921
 30
0.0
 10
14.4879063899
 20
13.7569535069
 30
0.0
 10
14.4330848181
 20
13.6923254204
 30
0.0
 10
14.3804037373
 20
13.6245703945
 30
0.0
 10
14.3301240401
 20
13.5540218328
 30
0.0
 10
14.2824921523
 20
13.4810291561
 30
0.0
 10
14.2377454931
 20
13.4059510544
 30
0.0
 10
14.1961019684
 20
13.32915994
 30
0.0
 10
14.1577708648
 20
13.2510327748
 30
0.0
 10
14.1229370523
 20
13.1719576417
 30
0.0
 10
14.0917771623
 20
13.0923223602
 30
0.0
 10
14.0644396126
 20
13.0125215626
 30
0.0
 10
14.0410660368
 20
12.9329466338
 30
0.0
 10
14.0217641741
 20
12.8539937464
 30
0.0
 10
14.0066355097
 20
12.7760476248
 30
0.0
 10
13.9957496834
 20
12.6994868078
 30
0.0
 10
13.9891710514
 20
12.624700031
 30
0.0
 10
13.9876427656
 20
12.575433815
 30
0.0
 10
13.9876427656
 20
12.5512122067
 30
0.0
  0
ENDSEC
  0
SECTION
  2
OBJECTS
  0
DICTIONARY
  5
C
100
AcDbDictionary
280
0
281
1
  3
ACAD_GROUP
350
D
  3
ACAD_MLINESTYLE
350
17
  3
ACAD_LAYOUT
350
1A
  3
ACAD_PLOTSETTINGS
350
19
  3
ACAD_PLOTSTYLENAME
350
E
  0
DICTIONARY
  5
D
102
{ACAD_REACTORS
330
C
102
}
100
AcDbDictionary
280
0
281
1
  0
ACDBDICTIONARYWDFLT
  5
E
102
{ACAD_REACTORS
330
C
102
}
100
AcDbDictionary
281
1
  3
Normal
350
F
100
AcDbDictionaryWithDefault
340
F
  0
DICTIONARY
  5
17
102
{ACAD_REACTORS
330
C
102
}
100
AcDbDictionary
280
0
281
1
  3
Standard
350
18
  0
DICTIONARY
  5
19
102
{ACAD_REACTORS
330
C
102
}
100
AcDbDictionary
281
1
  0
DICTIONARY
  5
1A
102
{ACAD_REACTORS
330
C
102
}
100
AcDbDictionary
281
1
  3
Model
350
2D8
  3
Layout1
350
2D9
  0
ACDBPLACEHOLDER
  5
F
102
{ACAD_REACTORS
330
E
102
}
  0
MLINESTYLE
  5
18
102
{ACAD_REACTORS
330
17
102
}
100
AcDbMlineStyle
  2
STANDARD
 70
0
  3

 62
256
 51
90.0
 52
90.0
 71
2
 49
0.5
 62
256
  6
BYLAYER
 49
-0.5
 62
256
  6
BYLAYER
  0
LAYOUT
  5
2D8
102
{ACAD_REACTORS
330
1A
102
}
100
AcDbPlotSettings
  1

  2
none_device
  4
ANSI_C_(22.00_x_17.00_Inches)
  6

 40
0.0
 41
0.0
 42
0.0
 43
0.0
 44
558.8
 45
431.8
 46
0.0
 47
0.0
 48
0.0
 49
0.0
140
0.0
141
0.0
142
1.0
143
1.0
 70
1024
 72
0
 73
0
 74
0
  7

 75
0
147
1.0
148
0.0
149
0.0
100
AcDbLayout
  1
Model
 70
0
 71
0
 10
0.0
 20
0.0
 11
22.0
 21
17.0
 12
0.0
 22
0.0
 32
0.0
 14
0.0
 24
0.0
 34
0.0
 15
0.0
 25
0.0
 35
0.0
146
0.0
 13
0.0
 23
0.0
 33
0.0
 16
1.0
 26
0.0
 36
0.0
 17
0.0
 27
1.0
 37
0.0
 76
0
330
224
345
0
346
0
  0
LAYOUT
  5
2D9
102
{ACAD_REACTORS
330
1A
102
}
100
AcDbPlotSettings
  1

  2
none_device
  4
ANSI_C_(22.00_x_17.00_Inches)
  6

 40
0.0
 41
0.0
 42
0.0
 43
0.0
 44
558.8
 45
431.8
 46
0.0
 47
0.0
 48
0.0
 49
0.0
140
0.0
141
0.0
142
1.0
143
1.0
 70
0
 72
0
 73
0
 74
0
  7

 75
0
147
1.0
148
0.0
149
0.0
100
AcDbLayout
  1
Layout1
 70
0
 71
1
 10
0.0
 20
0.0
 11
22.0
 21
17.0
 12
0.0
 22
0.0
 32
0.0
 14
0.0
 24
0.0
 34
0.0
 15
0.0
 25
0.0
 35
0.0
146
0.0
 13
0.0
 23
0.0
 33
0.0
 16
1.0
 26
0.0
 36
0.0
 17
0.0
 27
1.0
 37
0.0
 76
0
330
225
345
0
346
0
  0
ENDSEC
  0
EOF
