999
DXF file: 0850cl-xx.dxf
999
Pro/ENGINEER 2015070 by Parametric Technology Corporation
  0
SECTION
  2
HEADER
  9
$ACADVER
  1
AC1021
  9
$DWGCODEPAGE
  3
ANSI_936
  9
$EXTMAX
 10
22.0
 20
17.0
 30
0.0
  9
$EXTMIN
 10
0.0
 20
0.0
 30
0.0
  9
$LIMMIN
 10
0.0
 20
0.0
  9
$LIMMAX
 10
22.0
 20
17.0
  9
$VIEWCTR
 10
11.0
 20
8.5
  9
$VIEWSIZE
 40
17.0
  9
$CLAYER
  8
0
  9
$LTSCALE
 40
1.21
  9
$CELTYPE
  6
BYLAYER
  9
$DIMSCALE
 40
1.0
  9
$DIMASZ
 40
0.125
  9
$DIMEXO
 40
0.0625
  9
$DIMDLI
 40
0.836
  9
$DIMEXE
 40
0.125
  9
$DIMCEN
 40
0.198
  9
$DIMLFAC
 40
1.0
  9
$DIMBLK
  1
_FILLED
  9
$DIMTXT
 40
0.12
  9
$DIMTOL
 70
1
  9
$DIMLIM
 70
0
  9
$DIMTFAC
 40
1.0
  9
$DIMTP
 40
0.001
  9
$DIMTM
 40
0.001
  9
$DIMGAP
 40
0.09
  9
$DIMDSEP
 70
46
  9
$PDMODE
 70
3
  9
$PDSIZE
 40
0.125
  9
$HANDSEED
  5
598
  9
$TILEMODE
 70
1
  9
$MEASUREMENT
 70
0
  9
$INSUNITS
 70
1
  0
ENDSEC
  0
SECTION
  2
CLASSES
  0
CLASS
  1
ACDBDICTIONARYWDFLT
  2
AcDbDictionaryWithDefault
  3
AutoCAD 2000
 90
0
 91
1
280
0
281
0
  0
CLASS
  1
ACDBPLACEHOLDER
  2
AcDbPlaceHolder
  3
AutoCAD 2000
 90
0
 91
1
280
0
281
0
  0
CLASS
  1
LAYOUT
  2
AcDbLayout
  3
AutoCAD 2000
 90
0
 91
0
280
0
281
0
  0
ENDSEC
  0
SECTION
  2
TABLES
  0
TABLE
  2
VPORT
  5
8
100
AcDbSymbolTable
 70
2
  0
VPORT
  5
1F4
100
AcDbSymbolTableRecord
100
AcDbViewportTableRecord
  2
*ACTIVE
 70
0
 10
0.0
 20
0.0
 11
1.0
 21
1.0
 12
11.0
 22
8.5
 13
0.0
 23
0.0
 14
1.0
 24
1.0
 15
0.0
 25
0.0
 16
0.0
 26
0.0
 36
1.0
 17
0.0
 27
0.0
 37
0.0
 40
17.0
 41
1.2941176471
 42
50.0
 43
0.0
 44
0.0
 50
0.0
 51
0.0
 71
0
 72
100
 73
1
 74
1
 75
0
 76
0
 77
0
 78
0
  0
ENDTAB
  0
TABLE
  2
LTYPE
  5
5
100
AcDbSymbolTable
 70
6
  0
LTYPE
  5
14
100
AcDbSymbolTableRecord
100
AcDbLinetypeTableRecord
  2
BYBLOCK
 70
0
  3

 72
65
 73
0
 40
0.0
  0
LTYPE
  5
15
100
AcDbSymbolTableRecord
100
AcDbLinetypeTableRecord
  2
BYLAYER
 70
0
  3

 72
65
 73
0
 40
0.0
  0
LTYPE
  5
16
100
AcDbSymbolTableRecord
100
AcDbLinetypeTableRecord
  2
CONTINUOUS
 70
64
  3
Solid line
 72
65
 73
0
 40
0.0
  0
LTYPE
  5
1F5
100
AcDbSymbolTableRecord
100
AcDbLinetypeTableRecord
  2
CENTER
 70
64
  3
____ _ ____ _ ____ _ ____ _ ____ _ ____ _ ____
 72
65
 73
4
 40
0.6
 49
0.375
 74
0
 49
-0.075
 74
0
 49
0.075
 74
0
 49
-0.075
 74
0
  0
LTYPE
  5
1F6
100
AcDbSymbolTableRecord
100
AcDbLinetypeTableRecord
  2
HIDDEN
 70
64
  3
- - - - - - - - - - - - - - - - - - - -
 72
65
 73
2
 40
0.2
 49
0.1
 74
0
 49
-0.1
 74
0
  0
LTYPE
  5
1F7
100
AcDbSymbolTableRecord
100
AcDbLinetypeTableRecord
  2
PHANTOM
 70
64
  3
_____ _ _ _____ _ _ _____ _ _ _____
 72
65
 73
6
 40
0.8
 49
0.45
 74
0
 49
-0.05
 74
0
 49
0.1
 74
0
 49
-0.05
 74
0
 49
0.1
 74
0
 49
-0.05
 74
0
  0
LTYPE
  5
1F8
100
AcDbSymbolTableRecord
100
AcDbLinetypeTableRecord
  2
DOT
 70
64
  3
. . . . . . . . . . . . . . . . . . . .
 72
65
 73
2
 40
0.2
 49
0.1
 74
0
 49
-0.1
 74
0
  0
LTYPE
  5
1F9
100
AcDbSymbolTableRecord
100
AcDbLinetypeTableRecord
  2
DASHED
 70
64
  3
- - - - - - - - - - - - - - - - - - - -
 72
65
 73
2
 40
0.2
 49
0.1
 74
0
 49
-0.1
 74
0
  0
ENDTAB
  0
TABLE
  2
LAYER
  5
2
100
AcDbSymbolTable
 70
36
  0
LAYER
  5
10
100
AcDbSymbolTableRecord
100
AcDbLayerTableRecord
  2
0
 70
0
 62
7
  6
CONTINUOUS
370
-3
390
F
  0
LAYER
  5
1FA
100
AcDbSymbolTableRecord
100
AcDbLayerTableRecord
  2
DEFAULT_1
 70
0
 62
7
  6
CENTER
370
-3
390
F
  0
LAYER
  5
1FB
100
AcDbSymbolTableRecord
100
AcDbLayerTableRecord
  2
DEFAULT_2
 70
0
 62
8
  6
HIDDEN
370
-3
390
F
  0
LAYER
  5
1FC
100
AcDbSymbolTableRecord
100
AcDbLayerTableRecord
  2
DEFAULT_3
 70
0
 62
7
  6
PHANTOM
370
-3
390
F
  0
LAYER
  5
1FD
100
AcDbSymbolTableRecord
100
AcDbLayerTableRecord
  2
0850AC-XX
 70
0
 62
7
  6
CONTINUOUS
370
-3
390
F
  0
LAYER
  5
1FE
100
AcDbSymbolTableRecord
100
AcDbLayerTableRecord
  2
12601
 70
0
 62
7
  6
CONTINUOUS
370
-3
390
F
  0
LAYER
  5
1FF
100
AcDbSymbolTableRecord
100
AcDbLayerTableRecord
  2
14129
 70
0
 62
7
  6
CONTINUOUS
370
-3
390
F
  0
LAYER
  5
200
100
AcDbSymbolTableRecord
100
AcDbLayerTableRecord
  2
14130
 70
0
 62
7
  6
CONTINUOUS
370
-3
390
F
  0
LAYER
  5
201
100
AcDbSymbolTableRecord
100
AcDbLayerTableRecord
  2
14132
 70
0
 62
7
  6
CONTINUOUS
370
-3
390
F
  0
LAYER
  5
202
100
AcDbSymbolTableRecord
100
AcDbLayerTableRecord
  2
14665
 70
0
 62
7
  6
CONTINUOUS
370
-3
390
F
  0
LAYER
  5
203
100
AcDbSymbolTableRecord
100
AcDbLayerTableRecord
  2
INTF_12601
 70
0
 62
7
  6
CONTINUOUS
370
-3
390
F
  0
LAYER
  5
204
100
AcDbSymbolTableRecord
100
AcDbLayerTableRecord
  2
INTF_14129
 70
0
 62
7
  6
CONTINUOUS
370
-3
390
F
  0
LAYER
  5
205
100
AcDbSymbolTableRecord
100
AcDbLayerTableRecord
  2
INTF_14130
 70
0
 62
7
  6
CONTINUOUS
370
-3
390
F
  0
LAYER
  5
206
100
AcDbSymbolTableRecord
100
AcDbLayerTableRecord
  2
INTF_14132
 70
0
 62
7
  6
CONTINUOUS
370
-3
390
F
  0
LAYER
  5
207
100
AcDbSymbolTableRecord
100
AcDbLayerTableRecord
  2
INTF_14665
 70
0
 62
7
  6
CONTINUOUS
370
-3
390
F
  0
LAYER
  5
208
100
AcDbSymbolTableRecord
100
AcDbLayerTableRecord
  2
MSBR-2
 70
0
 62
7
  6
CONTINUOUS
370
-3
390
F
  0
LAYER
  5
209
100
AcDbSymbolTableRecord
100
AcDbLayerTableRecord
  2
MSBR-3
 70
0
 62
7
  6
CONTINUOUS
370
-3
390
F
  0
LAYER
  5
20A
100
AcDbSymbolTableRecord
100
AcDbLayerTableRecord
  2
MSBR-4
 70
0
 62
7
  6
CONTINUOUS
370
-3
390
F
  0
LAYER
  5
20B
100
AcDbSymbolTableRecord
100
AcDbLayerTableRecord
  2
MSBR-5
 70
0
 62
7
  6
CONTINUOUS
370
-3
390
F
  0
LAYER
  5
20C
100
AcDbSymbolTableRecord
100
AcDbLayerTableRecord
  2
___SHELL
 70
0
 62
7
  6
CONTINUOUS
370
-3
390
F
  0
ENDTAB
  0
TABLE
  2
STYLE
  5
3
100
AcDbSymbolTable
 70
1
  0
STYLE
  5
11
100
AcDbSymbolTableRecord
100
AcDbTextStyleTableRecord
  2
STANDARD
 70
0
 40
0.0
 41
1.0
 50
0.0
 71
0
 42
0.2
  3
txt
  4

  0
STYLE
  5
20D
100
AcDbSymbolTableRecord
100
AcDbTextStyleTableRecord
  2
TEXTSTYLE_1
 70
0
 40
0.0
 41
0.8
 50
0.0
 71
0
 42
0.2
  3
gdt
  4

  0
ENDTAB
  0
TABLE
  2
VIEW
  5
6
100
AcDbSymbolTable
 70
0
  0
ENDTAB
  0
TABLE
  2
UCS
  5
7
100
AcDbSymbolTable
 70
0
  0
ENDTAB
  0
TABLE
  2
APPID
  5
9
100
AcDbSymbolTable
 70
1
  0
APPID
  5
20E
100
AcDbSymbolTableRecord
100
AcDbRegAppTableRecord
  2
ACAD
 70
0
  0
ENDTAB
  0
TABLE
  2
BLOCK_RECORD
  5
1
100
AcDbSymbolTable
 70
0
  0
BLOCK_RECORD
  5
20F
100
AcDbSymbolTableRecord
100
AcDbBlockTableRecord
  2
*Model_Space
  0
BLOCK_RECORD
  5
210
100
AcDbSymbolTableRecord
100
AcDbBlockTableRecord
  2
*Paper_Space
  0
ENDTAB
  0
TABLE
  2
DIMSTYLE
  5
A
100
AcDbSymbolTable
 70
1
100
AcDbDimStyleTable
 71
0
  0
DIMSTYLE
105
211
100
AcDbSymbolTableRecord
100
AcDbDimStyleTableRecord
  2
STANDARD
 70
0
  3

  4

 40
1.0
 41
0.125
 42
0.0625
 43
0.38
 44
0.125
 45
0.0
 46
0.0
 47
0.001
 48
0.001
140
0.12
141
0.09
142
0.0
143
25.4
144
1.0
145
0.0
146
1.0
147
0.09
 71
1.0
 72
0.0
 73
1
 74
1
 75
0
 76
0
 77
0
 78
4
170
0
171
2
172
0
173
0
174
0
175
0
176
0
177
0
178
0
270
2
271
3
272
3
273
2
274
2
275
0
280
0
281
0
282
0
283
1
284
4
285
0
286
0
287
3
288
0
340
11
278
46
  0
ENDTAB
  0
ENDSEC
  0
SECTION
  2
BLOCKS
  0
BLOCK
  5
20
100
AcDbEntity
  8
0
100
AcDbBlockBegin
  2
*Model_Space
 70
0
 10
0.0
 20
0.0
 30
0.0
  3
*Model_Space
  1

  0
ENDBLK
  5
21
100
AcDbEntity
  8
0
100
AcDbBlockEnd
  0
BLOCK
  5
1C
100
AcDbEntity
  8
0
100
AcDbBlockBegin
  2
*Paper_Space
 70
0
 10
0.0
 20
0.0
 30
0.0
  3
*Paper_Space
  1

  0
ENDBLK
  5
1D
100
AcDbEntity
  8
0
100
AcDbBlockEnd
  0
ENDSEC
  0
SECTION
  2
ENTITIES
  0
LINE
  5
212
100
AcDbEntity
  8
0
100
AcDbLine
 62
7
  6
CONTINUOUS
 10
0.0
 20
0.0
 11
0.0
 21
17.0
  0
LINE
  5
213
100
AcDbEntity
  8
0
100
AcDbLine
 62
7
  6
CONTINUOUS
 10
0.0
 20
0.0
 11
22.0
 21
0.0
  0
LINE
  5
214
100
AcDbEntity
  8
0
100
AcDbLine
 62
7
  6
CONTINUOUS
 10
0.0
 20
17.0
 11
22.0
 21
17.0
  0
LINE
  5
215
100
AcDbEntity
  8
0
100
AcDbLine
 62
7
  6
CONTINUOUS
 10
22.0
 20
0.0
 11
22.0
 21
17.0
  0
LINE
  5
216
100
AcDbEntity
  8
0
100
AcDbLine
 62
7
  6
CONTINUOUS
 10
12.6844438543
 20
5.756109958
 11
12.6844438543
 21
4.5951106006
  0
LINE
  5
217
100
AcDbEntity
  8
0
100
AcDbLine
 62
9
  6
CONTINUOUS
 10
12.7244438543
 20
5.7961102793
 11
12.7244438543
 21
4.5551102793
  0
LINE
  5
218
100
AcDbEntity
  8
0
100
AcDbLine
 62
7
  6
CONTINUOUS
 10
16.4124438543
 20
3.9106102793
 11
16.6884438543
 21
3.9106102793
  0
LINE
  5
219
100
AcDbEntity
  8
0
100
AcDbLine
 62
7
  6
CONTINUOUS
 10
16.3784438543
 20
3.9546102793
 11
16.4124438543
 21
3.9546102793
  0
LINE
  5
21A
100
AcDbEntity
  8
0
100
AcDbLine
 62
7
  6
CONTINUOUS
 10
13.7344438543
 20
5.8531044587
 11
13.7344438543
 21
4.4981160998
  0
LINE
  5
21B
100
AcDbEntity
  8
0
100
AcDbLine
 62
9
  6
CONTINUOUS
 10
13.7444438543
 20
5.8631102792
 11
13.7444438543
 21
4.4881102793
  0
LINE
  5
21C
100
AcDbEntity
  8
0
100
AcDbLine
 62
7
  6
CONTINUOUS
 10
13.7444438543
 20
4.4881102793
 11
14.3244438543
 21
4.4881102793
  0
LINE
  5
21D
100
AcDbEntity
  8
0
100
AcDbLine
 62
7
  6
CONTINUOUS
 10
12.7244438543
 20
4.5551102793
 11
13.7344438543
 21
4.5551102793
  0
LINE
  5
21E
100
AcDbEntity
  8
0
100
AcDbLine
 62
7
  6
CONTINUOUS
 10
14.6665902331
 20
4.6836102793
 11
15.2834438543
 21
4.6836102793
  0
LINE
  5
21F
100
AcDbEntity
  8
0
100
AcDbLine
 62
9
  6
CONTINUOUS
 10
14.3244438543
 20
4.4881102793
 11
14.3244438543
 21
5.8631102792
  0
LINE
  5
220
100
AcDbEntity
  8
0
100
AcDbLine
 62
7
  6
CONTINUOUS
 10
14.3344438543
 20
5.8531102793
 11
14.3344438543
 21
4.4981102793
  0
LINE
  5
221
100
AcDbEntity
  8
0
100
AcDbLine
 62
7
  6
CONTINUOUS
 10
16.6884438543
 20
4.7717654818
 11
16.7324438543
 21
4.7729176624
  0
LINE
  5
222
100
AcDbEntity
  8
0
100
AcDbLine
 62
7
  6
CONTINUOUS
 10
15.2834438543
 20
4.7606102793
 11
16.1686781052
 21
4.7606102793
  0
LINE
  5
223
100
AcDbEntity
  8
0
100
AcDbLine
 62
9
  6
CONTINUOUS
 10
14.5007932222
 20
5.6031709444
 11
14.5007932222
 21
4.7480496141
  0
LINE
  5
224
100
AcDbEntity
  8
0
100
AcDbLine
 62
7
  6
CONTINUOUS
 10
15.2834438543
 20
4.9767032658
 11
14.9084438543
 21
4.9767032658
  0
LINE
  5
225
100
AcDbEntity
  8
0
100
AcDbLine
 62
9
  6
CONTINUOUS
 10
14.6568804558
 20
5.6600019787
 11
14.6568804558
 21
4.6912185798
  0
LINE
  5
226
100
AcDbEntity
  8
0
100
AcDbLine
 62
9
  6
CONTINUOUS
 10
14.6665902331
 20
5.6676102793
 11
14.6665902331
 21
4.6836102793
  0
LINE
  5
227
100
AcDbEntity
  8
0
100
AcDbLine
 62
7
  6
CONTINUOUS
 10
14.9084438543
 20
4.9767032658
 11
14.9084438543
 21
5.3745172927
  0
LINE
  5
228
100
AcDbEntity
  8
0
100
AcDbLine
 62
7
  6
CONTINUOUS
 10
14.9084438543
 20
5.3745172927
 11
15.2834438543
 21
5.3745172927
  0
LINE
  5
229
100
AcDbEntity
  8
0
100
AcDbLine
 62
7
  6
CONTINUOUS
 10
15.2834438543
 20
5.5906102793
 11
16.1600226229
 21
5.5906102793
  0
LINE
  5
22A
100
AcDbEntity
  8
0
100
AcDbLine
 62
7
  6
CONTINUOUS
 10
14.6665902331
 20
5.6676102793
 11
15.2834438543
 21
5.6676102793
  0
LINE
  5
22B
100
AcDbEntity
  8
0
100
AcDbLine
 62
7
  6
CONTINUOUS
 10
16.6884438543
 20
5.5794550767
 11
16.7324438543
 21
5.5783028961
  0
LINE
  5
22C
100
AcDbEntity
  8
0
100
AcDbLine
 62
7
  6
CONTINUOUS
 10
15.2834438543
 20
4.6836105506
 11
15.2834438543
 21
5.6676100079
  0
LINE
  5
22D
100
AcDbEntity
  8
0
100
AcDbLine
 62
7
  6
CONTINUOUS
 10
12.7244438543
 20
5.7961102793
 11
13.7344438543
 21
5.7961102793
  0
LINE
  5
22E
100
AcDbEntity
  8
0
100
AcDbLine
 62
7
  6
CONTINUOUS
 10
13.7444438543
 20
5.8631102793
 11
14.3244438543
 21
5.8631102793
  0
LINE
  5
22F
100
AcDbEntity
  8
0
100
AcDbLine
 62
7
  6
CONTINUOUS
 10
16.3784438543
 20
6.3966102793
 11
16.4124438543
 21
6.3966102793
  0
LINE
  5
230
100
AcDbEntity
  8
0
100
AcDbLine
 62
7
  6
CONTINUOUS
 10
16.4124438543
 20
6.4406102793
 11
16.6884438543
 21
6.4406102793
  0
LINE
  5
231
100
AcDbEntity
  8
0
100
AcDbLine
 62
7
  6
CONTINUOUS
 10
16.2324438543
 20
5.8606095472
 11
16.2324438543
 21
4.4906110113
  0
LINE
  5
232
100
AcDbEntity
  8
0
100
AcDbLine
 62
7
  6
CONTINUOUS
 10
16.3784438543
 20
6.396599905
 11
16.3784438543
 21
3.9546206535
  0
LINE
  5
233
100
AcDbEntity
  8
0
100
AcDbLine
 62
7
  6
CONTINUOUS
 10
16.4124438543
 20
6.4405997751
 11
16.4124438543
 21
3.9106207834
  0
LINE
  5
234
100
AcDbEntity
  8
0
100
AcDbLine
 62
7
  6
CONTINUOUS
 10
16.6884438543
 20
3.9106207834
 11
16.6884438543
 21
6.4405997751
  0
LINE
  5
235
100
AcDbEntity
  8
0
100
AcDbLine
 62
7
  6
CONTINUOUS
 10
16.7324438543
 20
4.7729180811
 11
16.7324438543
 21
5.5783024774
  0
LINE
  5
236
100
AcDbEntity
  8
0
100
AcDbLine
 62
7
  6
CONTINUOUS
 10
5.3467242021
 20
9.0819131503
 11
6.5077242021
 21
9.0819131503
  0
LINE
  5
237
100
AcDbEntity
  8
0
100
AcDbLine
 62
9
  6
CONTINUOUS
 10
5.3067242021
 20
9.1219131503
 11
6.5477242021
 21
9.1219131503
  0
LINE
  5
238
100
AcDbEntity
  8
0
100
AcDbLine
 62
7
  6
CONTINUOUS
 10
4.6622242021
 20
12.8099131503
 11
4.6622242021
 21
13.0859131503
  0
LINE
  5
239
100
AcDbEntity
  8
0
100
AcDbLine
 62
7
  6
CONTINUOUS
 10
4.7062242021
 20
12.7759131503
 11
4.7062242021
 21
12.8099131503
  0
LINE
  5
23A
100
AcDbEntity
  8
0
100
AcDbLine
 62
7
  6
CONTINUOUS
 10
5.2497242016
 20
10.1319131503
 11
6.6047242027
 21
10.1319131503
  0
LINE
  5
23B
100
AcDbEntity
  8
0
100
AcDbLine
 62
9
  6
CONTINUOUS
 10
5.2397242021
 20
10.1419131503
 11
6.6147242021
 21
10.1419131503
  0
LINE
  5
23C
100
AcDbEntity
  8
0
100
AcDbLine
 62
7
  6
CONTINUOUS
 10
5.2397242021
 20
10.1419131503
 11
5.2397242021
 21
10.7219131503
  0
LINE
  5
23D
100
AcDbEntity
  8
0
100
AcDbLine
 62
7
  6
CONTINUOUS
 10
5.3067242021
 20
10.1319131503
 11
5.3067242021
 21
9.1219131503
  0
LINE
  5
23E
100
AcDbEntity
  8
0
100
AcDbLine
 62
7
  6
CONTINUOUS
 10
5.4352242021
 20
11.3059131503
 11
5.4352242021
 21
11.064059529
  0
LINE
  5
23F
100
AcDbEntity
  8
0
100
AcDbLine
 62
7
  6
CONTINUOUS
 10
5.4772242021
 20
11.3059131503
 11
5.4772242021
 21
11.6809131503
  0
LINE
  5
240
100
AcDbEntity
  8
0
100
AcDbLine
 62
7
  6
CONTINUOUS
 10
5.5122242021
 20
11.6809131503
 11
5.5122242021
 21
12.5647002701
  0
LINE
  5
241
100
AcDbEntity
  8
0
100
AcDbLine
 62
7
  6
CONTINUOUS
 10
5.5233794047
 20
13.0859131503
 11
5.5245315853
 21
13.1299131503
  0
LINE
  5
242
100
AcDbEntity
  8
0
100
AcDbLine
 62
9
  6
CONTINUOUS
 10
6.6147242021
 20
10.7219131503
 11
5.2397242021
 21
10.7219131503
  0
LINE
  5
243
100
AcDbEntity
  8
0
100
AcDbLine
 62
7
  6
CONTINUOUS
 10
6.6047242028
 20
10.7319131503
 11
5.2497242015
 21
10.7319131503
  0
LINE
  5
244
100
AcDbEntity
  8
0
100
AcDbLine
 62
9
  6
CONTINUOUS
 10
5.499663537
 20
10.8982625182
 11
6.3547848672
 21
10.8982625182
  0
LINE
  5
245
100
AcDbEntity
  8
0
100
AcDbLine
 62
9
  6
CONTINUOUS
 10
5.4428325027
 20
11.0543497518
 11
6.4116159015
 21
11.0543497518
  0
LINE
  5
246
100
AcDbEntity
  8
0
100
AcDbLine
 62
9
  6
CONTINUOUS
 10
5.4352242021
 20
11.064059529
 11
6.4192242021
 21
11.064059529
  0
LINE
  5
247
100
AcDbEntity
  8
0
100
AcDbLine
 62
7
  6
CONTINUOUS
 10
6.4192242021
 20
11.3059131503
 11
6.3772242021
 21
11.3059131503
  0
LINE
  5
248
100
AcDbEntity
  8
0
100
AcDbLine
 62
7
  6
CONTINUOUS
 10
5.4772242021
 20
11.3059131503
 11
5.4352242021
 21
11.3059131503
  0
LINE
  5
249
100
AcDbEntity
  8
0
100
AcDbLine
 62
7
  6
CONTINUOUS
 10
6.329916819
 20
13.1299131503
 11
6.3310689995
 21
13.0859131503
  0
LINE
  5
24A
100
AcDbEntity
  8
0
100
AcDbLine
 62
7
  6
CONTINUOUS
 10
6.3422242021
 20
12.5647002701
 11
6.3422242021
 21
11.6809131503
  0
LINE
  5
24B
100
AcDbEntity
  8
0
100
AcDbLine
 62
7
  6
CONTINUOUS
 10
6.3772242021
 20
11.3059131503
 11
6.3772242021
 21
11.6809131503
  0
LINE
  5
24C
100
AcDbEntity
  8
0
100
AcDbLine
 62
7
  6
CONTINUOUS
 10
6.4192242021
 20
11.064059529
 11
6.4192242021
 21
11.3059131503
  0
LINE
  5
24D
100
AcDbEntity
  8
0
100
AcDbLine
 62
7
  6
CONTINUOUS
 10
6.5477242021
 20
9.1219131503
 11
6.5477242021
 21
10.1319131503
  0
LINE
  5
24E
100
AcDbEntity
  8
0
100
AcDbLine
 62
7
  6
CONTINUOUS
 10
6.3772242021
 20
11.6809131503
 11
5.4772242021
 21
11.6809131503
  0
LINE
  5
24F
100
AcDbEntity
  8
0
100
AcDbLine
 62
7
  6
CONTINUOUS
 10
6.6147242021
 20
10.7219131503
 11
6.6147242021
 21
10.1419131503
  0
LINE
  5
250
100
AcDbEntity
  8
0
100
AcDbLine
 62
7
  6
CONTINUOUS
 10
7.1482242021
 20
12.8099131503
 11
7.1482242021
 21
12.7759131503
  0
LINE
  5
251
100
AcDbEntity
  8
0
100
AcDbLine
 62
7
  6
CONTINUOUS
 10
7.1922242021
 20
13.0859131503
 11
7.1922242021
 21
12.8099131503
  0
LINE
  5
252
100
AcDbEntity
  8
0
100
AcDbLine
 62
7
  6
CONTINUOUS
 10
5.2422242021
 20
12.6299131503
 11
6.6122242021
 21
12.6299131503
  0
LINE
  5
253
100
AcDbEntity
  8
0
100
AcDbLine
 62
7
  6
CONTINUOUS
 10
4.7062242021
 20
12.7759131503
 11
7.1482242021
 21
12.7759131503
  0
LINE
  5
254
100
AcDbEntity
  8
0
100
AcDbLine
 62
7
  6
CONTINUOUS
 10
4.6622242021
 20
12.8099131503
 11
7.1922242021
 21
12.8099131503
  0
LINE
  5
255
100
AcDbEntity
  8
0
100
AcDbLine
 62
7
  6
CONTINUOUS
 10
7.1922242021
 20
13.0859131503
 11
4.6622242021
 21
13.0859131503
  0
LINE
  5
256
100
AcDbEntity
  8
0
100
AcDbLine
 62
7
  6
CONTINUOUS
 10
6.329916819
 20
13.1299131503
 11
5.5245315853
 21
13.1299131503
  0
LINE
  5
257
100
AcDbEntity
  8
0
100
AcDbLine
 62
7
  6
CONTINUOUS
 10
13.5236000533
 20
10.6983622103
 11
13.3284385817
 21
10.8110387385
  0
LINE
  5
258
100
AcDbEntity
  8
0
100
AcDbLine
 62
7
  6
CONTINUOUS
 10
13.5696416838
 20
10.7225868862
 11
13.5456000533
 21
10.7364673281
  0
LINE
  5
259
100
AcDbEntity
  8
0
100
AcDbLine
 62
7
  6
CONTINUOUS
 10
13.7231892772
 20
10.8399433749
 11
13.7169901935
 21
10.8424829226
  0
LINE
  5
25A
100
AcDbEntity
  8
0
100
AcDbLine
 62
7
  6
CONTINUOUS
 10
13.6525616299
 20
10.8658493225
 11
13.6509579721
 21
10.8667064254
  0
LINE
  5
25B
100
AcDbEntity
  8
0
100
AcDbLine
 62
7
  6
CONTINUOUS
 10
13.7577123224
 20
10.6903561108
 11
13.7470887398
 21
10.691937058
  0
LINE
  5
25C
100
AcDbEntity
  8
0
100
AcDbLine
 62
7
  6
CONTINUOUS
 10
13.6715502951
 20
10.7043217803
 11
13.6703717811
 21
10.7045981002
  0
LINE
  5
25D
100
AcDbEntity
  8
0
100
AcDbLine
 62
7
  6
CONTINUOUS
 10
13.7999400261
 20
10.8273039582
 11
13.7887468835
 21
10.8306623923
  0
LINE
  5
25E
100
AcDbEntity
  8
0
100
AcDbLine
 62
7
  6
CONTINUOUS
 10
15.6989109455
 20
10.109285442
 11
15.2887890124
 21
10.3460694505
  0
LINE
  5
25F
100
AcDbEntity
  8
0
100
AcDbLine
 62
7
  6
CONTINUOUS
 10
16.4536598623
 20
9.7508958878
 11
15.5909896284
 21
10.2489587796
  0
LINE
  5
260
100
AcDbEntity
  8
0
100
AcDbLine
 62
7
  6
CONTINUOUS
 10
13.9392849074
 20
11.1930400667
 11
13.9425888904
 21
11.1907757101
  0
LINE
  5
261
100
AcDbEntity
  8
0
100
AcDbLine
 62
7
  6
CONTINUOUS
 10
15.1440377284
 20
10.6553855985
 11
14.7084236092
 21
10.9068875275
  0
LINE
  5
262
100
AcDbEntity
  8
0
100
AcDbLine
 62
7
  6
CONTINUOUS
 10
14.6362255577
 20
10.986853399
 11
14.9013906006
 21
10.8337602901
  0
LINE
  5
263
100
AcDbEntity
  8
0
100
AcDbLine
 62
7
  6
CONTINUOUS
 10
14.6362255577
 20
11.0374830334
 11
14.0546660705
 21
11.3732465599
  0
LINE
  5
264
100
AcDbEntity
  8
0
100
AcDbLine
 62
7
  6
CONTINUOUS
 10
14.6362255577
 20
10.986853399
 11
14.6362255577
 21
11.3116671918
  0
LINE
  5
265
100
AcDbEntity
  8
0
100
AcDbLine
 62
7
  6
CONTINUOUS
 10
14.767747419
 20
12.0000497328
 11
14.7664873853
 21
11.9590389028
  0
LINE
  5
266
100
AcDbEntity
  8
0
100
AcDbLine
 62
7
  6
CONTINUOUS
 10
14.0881840716
 20
11.2815070641
 11
14.0819843924
 21
11.2840455781
  0
LINE
  5
267
100
AcDbEntity
  8
0
100
AcDbLine
 62
7
  6
CONTINUOUS
 10
14.9013906006
 20
11.1585740829
 11
14.6362255577
 21
11.3116671918
  0
LINE
  5
268
100
AcDbEntity
  8
0
100
AcDbLine
 62
7
  6
CONTINUOUS
 10
14.5726742534
 20
12.0994181734
 11
14.5798060852
 21
12.0932569445
  0
LINE
  5
269
100
AcDbEntity
  8
0
100
AcDbLine
 62
7
  6
CONTINUOUS
 10
15.0309765833
 20
11.7679748694
 11
14.4696660705
 21
12.0920476451
  0
LINE
  5
26A
100
AcDbEntity
  8
0
100
AcDbLine
 62
7
  6
CONTINUOUS
 10
15.6366049878
 20
11.5072270885
 11
15.2004236092
 21
11.7590565248
  0
LINE
  5
26B
100
AcDbEntity
  8
0
100
AcDbLine
 62
7
  6
CONTINUOUS
 10
14.590250098
 20
12.2721562879
 11
14.5890830433
 21
12.2728006946
  0
LINE
  5
26C
100
AcDbEntity
  8
0
100
AcDbLine
 62
7
  6
CONTINUOUS
 10
17.0741598623
 20
10.8256334139
 11
16.211489588
 21
11.323696329
  0
LINE
  5
26D
100
AcDbEntity
  8
0
100
AcDbLine
 62
9
  6
CONTINUOUS
 10
16.3864082565
 20
11.3000719247
 11
16.3864109455
 21
11.3000703722
  0
LINE
  5
26E
100
AcDbEntity
  8
0
100
AcDbLine
 62
7
  6
CONTINUOUS
 10
16.3864109455
 20
11.3000703722
 11
15.9762890124
 21
11.5368543807
  0
LINE
  5
26F
100
AcDbEntity
  8
0
100
AcDbLine
 62
7
  6
CONTINUOUS
 10
14.5102320369
 20
12.2930988394
 11
14.4985199309
 21
12.2964909886
  0
LINE
  5
270
100
AcDbEntity
  8
0
100
AcDbLine
 62
7
  6
CONTINUOUS
 10
14.7958427163
 20
12.6086991837
 11
14.8035992868
 21
12.6017326148
  0
LINE
  5
271
100
AcDbEntity
  8
0
100
AcDbLine
 62
7
  6
CONTINUOUS
 10
14.8950239552
 20
12.7145067862
 11
14.8992152261
 21
12.7093971177
  0
LINE
  5
272
100
AcDbEntity
  8
0
100
AcDbLine
 62
7
  6
CONTINUOUS
 10
14.6918393305
 20
12.7043918674
 11
14.6923621335
 21
12.7040854942
  0
LINE
  5
273
100
AcDbEntity
  8
0
100
AcDbLine
 62
7
  6
CONTINUOUS
 10
14.7476972102
 20
12.6622054725
 11
14.7521076867
 21
12.6589671064
  0
LINE
  5
274
100
AcDbEntity
  8
0
100
AcDbLine
 62
7
  6
CONTINUOUS
 10
14.8420510305
 20
12.7732084006
 11
14.8434565139
 21
12.7718097927
  0
LINE
  5
275
100
AcDbEntity
  8
0
100
AcDbLine
 62
7
  6
CONTINUOUS
 10
14.7906416838
 20
12.8374209222
 11
14.7666000533
 21
12.8513013641
  0
LINE
  5
276
100
AcDbEntity
  8
0
100
AcDbLine
 62
7
  6
CONTINUOUS
 10
14.7886000533
 20
12.8894064819
 11
14.5934385817
 21
13.00208301
  0
ARC
  5
277
100
AcDbEntity
  8
0
100
AcDbCircle
 62
7
  6
CONTINUOUS
 10
5.263026867
 20
4.2614210756
 40
0.0735
100
AcDbArc
 50
355.9075447434
 51
112.0924552565
  0
ARC
  5
278
100
AcDbEntity
  8
0
100
AcDbCircle
 62
7
  6
CONTINUOUS
 10
5.1631465648
 20
4.3430927935
 40
0.0735
100
AcDbArc
 50
349.362090198
 51
105.5470007111
  0
ARC
  5
279
100
AcDbEntity
  8
0
100
AcDbCircle
 62
7
  6
CONTINUOUS
 10
5.0732271831
 20
4.4356176499
 40
0.0735
100
AcDbArc
 50
342.8166356526
 51
99.0015461656
  0
ARC
  5
27A
100
AcDbEntity
  8
0
100
AcDbCircle
 62
7
  6
CONTINUOUS
 10
4.9944409586
 20
4.5377894419
 40
0.0735
100
AcDbArc
 50
336.2711811071
 51
92.4560916202
  0
ARC
  5
27B
100
AcDbEntity
  8
0
100
AcDbCircle
 62
7
  6
CONTINUOUS
 10
4.9944409586
 20
4.5377894419
 40
0.0735
100
AcDbArc
 50
149.7257265616
 51
194.3338696078
  0
ARC
  5
27C
100
AcDbEntity
  8
0
100
AcDbCircle
 62
7
  6
CONTINUOUS
 10
4.9944409586
 20
4.5377894419
 40
0.0735
100
AcDbArc
 50
236.0272288056
 51
279.0015461656
  0
ARC
  5
27D
100
AcDbEntity
  8
0
100
AcDbCircle
 62
7
  6
CONTINUOUS
 10
5.0732271831
 20
4.4356176499
 40
0.0735
100
AcDbArc
 50
156.2711811071
 51
205.4479829078
  0
ARC
  5
27E
100
AcDbEntity
  8
0
100
AcDbCircle
 62
7
  6
CONTINUOUS
 10
5.0732271831
 20
4.4356176499
 40
0.0735
100
AcDbArc
 50
242.3516896494
 51
285.5470007111
  0
ARC
  5
27F
100
AcDbEntity
  8
0
100
AcDbCircle
 62
7
  6
CONTINUOUS
 10
5.1631465648
 20
4.3430927935
 40
0.0735
100
AcDbArc
 50
162.8166356526
 51
210.4264037418
  0
ARC
  5
280
100
AcDbEntity
  8
0
100
AcDbCircle
 62
7
  6
CONTINUOUS
 10
5.1631465648
 20
4.3430927935
 40
0.0735
100
AcDbArc
 50
247.1439967536
 51
292.0924552565
  0
ARC
  5
281
100
AcDbEntity
  8
0
100
AcDbCircle
 62
7
  6
CONTINUOUS
 10
5.263026867
 20
4.2614210756
 40
0.0735
100
AcDbArc
 50
169.362090198
 51
213.7948658049
  0
ARC
  5
282
100
AcDbEntity
  8
0
100
AcDbCircle
 62
7
  6
CONTINUOUS
 10
5.263026867
 20
4.2614210756
 40
0.0735
100
AcDbArc
 50
250.0740725999
 51
298.637909802
  0
ARC
  5
283
100
AcDbEntity
  8
0
100
AcDbCircle
 62
7
  6
CONTINUOUS
 10
4.9278149901
 20
4.648276204
 40
0.0735
100
AcDbArc
 50
329.7257265616
 51
85.9106370747
  0
ARC
  5
284
100
AcDbEntity
  8
0
100
AcDbCircle
 62
7
  6
CONTINUOUS
 10
4.8742178491
 20
4.7656375722
 40
0.0735
100
AcDbArc
 50
323.1802720162
 51
79.3651825293
  0
ARC
  5
285
100
AcDbEntity
  8
0
100
AcDbCircle
 62
7
  6
CONTINUOUS
 10
4.8343482563
 20
4.8883435616
 40
0.0735
100
AcDbArc
 50
316.6348174706
 51
72.8197279838
  0
ARC
  5
286
100
AcDbEntity
  8
0
100
AcDbCircle
 62
7
  6
CONTINUOUS
 10
4.8087259728
 20
5.014794512
 40
0.0735
100
AcDbArc
 50
310.0893629252
 51
66.2742734383
  0
ARC
  5
287
100
AcDbEntity
  8
0
100
AcDbCircle
 62
7
  6
CONTINUOUS
 10
4.7976850242
 20
5.1433419419
 40
0.0735
100
AcDbArc
 50
303.5439083802
 51
59.7288188929
  0
ARC
  5
288
100
AcDbEntity
  8
0
100
AcDbCircle
 62
7
  6
CONTINUOUS
 10
4.7976850242
 20
5.1433419419
 40
0.0735
100
AcDbArc
 50
116.9984538344
 51
166.175255635
  0
ARC
  5
289
100
AcDbEntity
  8
0
100
AcDbCircle
 62
7
  6
CONTINUOUS
 10
4.7976850242
 20
5.1433419419
 40
0.0735
100
AcDbArc
 50
202.962863178
 51
246.2742734383
  0
ARC
  5
28A
100
AcDbEntity
  8
0
100
AcDbCircle
 62
7
  6
CONTINUOUS
 10
4.8087259728
 20
5.014794512
 40
0.0735
100
AcDbArc
 50
123.5439083802
 51
172.7207101805
  0
ARC
  5
28B
100
AcDbEntity
  8
0
100
AcDbCircle
 62
7
  6
CONTINUOUS
 10
4.8087259728
 20
5.014794512
 40
0.0735
100
AcDbArc
 50
207.5672392537
 51
252.8197279838
  0
ARC
  5
28C
100
AcDbEntity
  8
0
100
AcDbCircle
 62
7
  6
CONTINUOUS
 10
4.8343482563
 20
4.8883435616
 40
0.0735
100
AcDbArc
 50
130.0893629252
 51
174.2455449694
  0
ARC
  5
28D
100
AcDbEntity
  8
0
100
AcDbCircle
 62
7
  6
CONTINUOUS
 10
4.8343482563
 20
4.8883435616
 40
0.0735
100
AcDbArc
 50
210.1883807286
 51
259.3651825293
  0
ARC
  5
28E
100
AcDbEntity
  8
0
100
AcDbCircle
 62
7
  6
CONTINUOUS
 10
4.8742178491
 20
4.7656375722
 40
0.0735
100
AcDbArc
 50
136.6348174706
 51
179.5913169803
  0
ARC
  5
28F
100
AcDbEntity
  8
0
100
AcDbCircle
 62
7
  6
CONTINUOUS
 10
4.8742178491
 20
4.7656375722
 40
0.0735
100
AcDbArc
 50
219.7992314655
 51
265.9106370747
  0
ARC
  5
290
100
AcDbEntity
  8
0
100
AcDbCircle
 62
7
  6
CONTINUOUS
 10
4.9278149901
 20
4.648276204
 40
0.0735
100
AcDbArc
 50
143.1802720162
 51
186.4015358737
  0
ARC
  5
291
100
AcDbEntity
  8
0
100
AcDbCircle
 62
7
  6
CONTINUOUS
 10
4.9278149901
 20
4.648276204
 40
0.0735
100
AcDbArc
 50
228.4185860362
 51
272.4560916202
  0
ARC
  5
292
100
AcDbEntity
  8
0
100
AcDbCircle
 62
7
  6
CONTINUOUS
 10
5.8627138459
 20
4.0474531918
 40
0.0735
100
AcDbArc
 50
28.6348174707
 51
144.8197279838
  0
ARC
  5
293
100
AcDbEntity
  8
0
100
AcDbCircle
 62
7
  6
CONTINUOUS
 10
5.7345341245
 20
4.0621604447
 40
0.0735
100
AcDbArc
 50
22.089362925
 51
138.2742734383
  0
ARC
  5
294
100
AcDbEntity
  8
0
100
AcDbCircle
 62
7
  6
CONTINUOUS
 10
5.6088664129
 20
4.0913832191
 40
0.0735
100
AcDbArc
 50
15.5439083795
 51
131.7288188929
  0
ARC
  5
295
100
AcDbEntity
  8
0
100
AcDbCircle
 62
7
  6
CONTINUOUS
 10
5.487348982
 20
4.1347405512
 40
0.0735
100
AcDbArc
 50
8.9984538348
 51
125.1833643474
  0
ARC
  5
296
100
AcDbEntity
  8
0
100
AcDbCircle
 62
7
  6
CONTINUOUS
 10
5.3715659973
 20
4.1916672121
 40
0.0735
100
AcDbArc
 50
2.4529992888
 51
118.637909802
  0
ARC
  5
297
100
AcDbEntity
  8
0
100
AcDbCircle
 62
7
  6
CONTINUOUS
 10
5.3715659973
 20
4.1916672121
 40
0.0735
100
AcDbArc
 50
175.9075447434
 51
218.9547863329
  0
ARC
  5
298
100
AcDbEntity
  8
0
100
AcDbCircle
 62
7
  6
CONTINUOUS
 10
5.3715659973
 20
4.1916672121
 40
0.0735
100
AcDbArc
 50
256.0065625468
 51
305.1833643474
  0
ARC
  5
299
100
AcDbEntity
  8
0
100
AcDbCircle
 62
7
  6
CONTINUOUS
 10
5.487348982
 20
4.1347405512
 40
0.0735
100
AcDbArc
 50
182.4529992888
 51
225.5457381551
  0
ARC
  5
29A
100
AcDbEntity
  8
0
100
AcDbCircle
 62
7
  6
CONTINUOUS
 10
5.487348982
 20
4.1347405512
 40
0.0735
100
AcDbArc
 50
267.5020800621
 51
311.7288188929
  0
ARC
  5
29B
100
AcDbEntity
  8
0
100
AcDbCircle
 62
7
  6
CONTINUOUS
 10
5.6088664129
 20
4.0913832191
 40
0.0735
100
AcDbArc
 50
188.9984538348
 51
233.3647934694
  0
ARC
  5
29C
100
AcDbEntity
  8
0
100
AcDbCircle
 62
7
  6
CONTINUOUS
 10
5.6088664129
 20
4.0913832191
 40
0.0735
100
AcDbArc
 50
275.2600350804
 51
318.2742734383
  0
ARC
  5
29D
100
AcDbEntity
  8
0
100
AcDbCircle
 62
7
  6
CONTINUOUS
 10
5.7345341245
 20
4.0621604447
 40
0.0735
100
AcDbArc
 50
195.5439083795
 51
244.7207101805
  0
ARC
  5
29E
100
AcDbEntity
  8
0
100
AcDbCircle
 62
7
  6
CONTINUOUS
 10
5.7345341245
 20
4.0621604447
 40
0.0735
100
AcDbArc
 50
281.7348271609
 51
324.8197279838
  0
ARC
  5
29F
100
AcDbEntity
  8
0
100
AcDbCircle
 62
7
  6
CONTINUOUS
 10
5.8627138459
 20
4.0474531918
 40
0.0735
100
AcDbArc
 50
202.089362925
 51
250.1459688816
  0
ARC
  5
2A0
100
AcDbEntity
  8
0
100
AcDbCircle
 62
7
  6
CONTINUOUS
 10
5.8627138459
 20
4.0474531918
 40
0.0735
100
AcDbArc
 50
286.6867010129
 51
331.3651825293
  0
ARC
  5
2A1
100
AcDbEntity
  8
0
100
AcDbCircle
 62
7
  6
CONTINUOUS
 10
4.8013693463
 20
5.2723100388
 40
0.0735
100
AcDbArc
 50
296.9984538344
 51
53.1833643474
  0
ARC
  5
2A2
100
AcDbEntity
  8
0
100
AcDbCircle
 62
7
  6
CONTINUOUS
 10
4.8197309081
 20
5.4000175066
 40
0.0735
100
AcDbArc
 50
290.4529992885
 51
46.637909802
  0
ARC
  5
2A3
100
AcDbEntity
  8
0
100
AcDbCircle
 62
7
  6
CONTINUOUS
 10
4.8525303387
 20
5.5247994829
 40
0.0735
100
AcDbArc
 50
283.9075447441
 51
40.0924552565
  0
ARC
  5
2A4
100
AcDbEntity
  8
0
100
AcDbCircle
 62
7
  6
CONTINUOUS
 10
4.8993400474
 20
5.6450292439
 40
0.0735
100
AcDbArc
 50
277.362090198
 51
33.5470007111
  0
ARC
  5
2A5
100
AcDbEntity
  8
0
100
AcDbCircle
 62
7
  6
CONTINUOUS
 10
4.9595497979
 20
5.7591394109
 40
0.0735
100
AcDbArc
 50
270.8166356523
 51
27.0015461656
  0
ARC
  5
2A6
100
AcDbEntity
  8
0
100
AcDbCircle
 62
7
  6
CONTINUOUS
 10
4.8197309081
 20
5.4000175066
 40
0.0735
100
AcDbArc
 50
189.3415584364
 51
233.1833643474
  0
ARC
  5
2A7
100
AcDbEntity
  8
0
100
AcDbCircle
 62
7
  6
CONTINUOUS
 10
4.8013693463
 20
5.2723100388
 40
0.0735
100
AcDbArc
 50
110.4529992885
 51
155.2521665626
  0
ARC
  5
2A8
100
AcDbEntity
  8
0
100
AcDbCircle
 62
7
  6
CONTINUOUS
 10
4.8525303387
 20
5.5247994829
 40
0.0735
100
AcDbArc
 50
180.7030247125
 51
226.637909802
  0
ARC
  5
2A9
100
AcDbEntity
  8
0
100
AcDbCircle
 62
7
  6
CONTINUOUS
 10
4.8197309081
 20
5.4000175066
 40
0.0735
100
AcDbArc
 50
103.9075447441
 51
147.1369406402
  0
ARC
  5
2AA
100
AcDbEntity
  8
0
100
AcDbCircle
 62
7
  6
CONTINUOUS
 10
4.8993400474
 20
5.6450292439
 40
0.0735
100
AcDbArc
 50
170.9156534559
 51
220.0924552565
  0
ARC
  5
2AB
100
AcDbEntity
  8
0
100
AcDbCircle
 62
7
  6
CONTINUOUS
 10
4.8525303387
 20
5.5247994829
 40
0.0735
100
AcDbArc
 50
97.362090198
 51
140.2700026351
  0
ARC
  5
2AC
100
AcDbEntity
  8
0
100
AcDbCircle
 62
7
  6
CONTINUOUS
 10
4.9595497979
 20
5.7591394109
 40
0.0735
100
AcDbArc
 50
168.0835725983
 51
213.5470007111
  0
ARC
  5
2AD
100
AcDbEntity
  8
0
100
AcDbCircle
 62
7
  6
CONTINUOUS
 10
4.8993400474
 20
5.6450292439
 40
0.0735
100
AcDbArc
 50
90.8166356523
 51
134.8841619637
  0
ARC
  5
2AE
100
AcDbEntity
  8
0
100
AcDbCircle
 62
7
  6
CONTINUOUS
 10
4.9595497979
 20
5.7591394109
 40
0.0735
100
AcDbArc
 50
84.2711811071
 51
133.4479829078
  0
ARC
  5
2AF
100
AcDbEntity
  8
0
100
AcDbCircle
 62
7
  6
CONTINUOUS
 10
4.8013693463
 20
5.2723100388
 40
0.0735
100
AcDbArc
 50
196.8222328816
 51
239.7288188929
  0
ARC
  5
2B0
100
AcDbEntity
  8
0
100
AcDbCircle
 62
7
  6
CONTINUOUS
 10
5.0323746642
 20
5.8656423832
 40
0.0735
100
AcDbArc
 50
264.2711811071
 51
20.4560916202
  0
ARC
  5
2B1
100
AcDbEntity
  8
0
100
AcDbCircle
 62
7
  6
CONTINUOUS
 10
5.1168652628
 20
5.9631497318
 40
0.0735
100
AcDbArc
 50
257.7257265616
 51
13.9106370747
  0
ARC
  5
2B2
100
AcDbEntity
  8
0
100
AcDbCircle
 62
7
  6
CONTINUOUS
 10
5.2119201293
 20
6.0503902993
 40
0.0735
100
AcDbArc
 50
251.1802720162
 51
7.3651825293
  0
ARC
  5
2B3
100
AcDbEntity
  8
0
100
AcDbCircle
 62
7
  6
CONTINUOUS
 10
5.0323746642
 20
5.8656423832
 40
0.0735
100
AcDbArc
 50
163.5991537808
 51
207.0015461656
  0
ARC
  5
2B4
100
AcDbEntity
  8
0
100
AcDbCircle
 62
7
  6
CONTINUOUS
 10
5.1168652628
 20
5.9631497318
 40
0.0735
100
AcDbArc
 50
157.5261066799
 51
200.4560916202
  0
ARC
  5
2B5
100
AcDbEntity
  8
0
100
AcDbCircle
 62
7
  6
CONTINUOUS
 10
5.0323746642
 20
5.8656423832
 40
0.0735
100
AcDbArc
 50
77.7257265616
 51
125.3409743689
  0
ARC
  5
2B6
100
AcDbEntity
  8
0
100
AcDbCircle
 62
7
  6
CONTINUOUS
 10
5.2119201293
 20
6.0503902993
 40
0.0735
100
AcDbArc
 50
150.1678938899
 51
193.9106370747
  0
ARC
  5
2B7
100
AcDbEntity
  8
0
100
AcDbCircle
 62
7
  6
CONTINUOUS
 10
5.1168652628
 20
5.9631497318
 40
0.0735
100
AcDbArc
 50
71.1802720162
 51
116.1979838627
  0
ARC
  5
2B8
100
AcDbEntity
  8
0
100
AcDbCircle
 62
7
  6
CONTINUOUS
 10
5.2119201293
 20
6.0503902993
 40
0.0735
100
AcDbArc
 50
64.6348174707
 51
108.0449212565
  0
ARC
  5
2B9
100
AcDbEntity
  8
0
100
AcDbCircle
 62
7
  6
CONTINUOUS
 10
5.3163000784
 20
6.1262267714
 40
0.0735
100
AcDbArc
 50
244.6348174707
 51
0.8197279838
  0
ARC
  5
2BA
100
AcDbEntity
  8
0
100
AcDbCircle
 62
7
  6
CONTINUOUS
 10
5.4286443577
 20
6.1896705037
 40
0.0735
100
AcDbArc
 50
238.0893629252
 51
354.2742734383
  0
ARC
  5
2BB
100
AcDbEntity
  8
0
100
AcDbCircle
 62
7
  6
CONTINUOUS
 10
5.5474883878
 20
6.2398944102
 40
0.0735
100
AcDbArc
 50
231.5439083801
 51
347.7288188929
  0
ARC
  5
2BC
100
AcDbEntity
  8
0
100
AcDbCircle
 62
7
  6
CONTINUOUS
 10
5.6712828549
 20
6.2762437454
 40
0.0735
100
AcDbArc
 50
224.9984538343
 51
341.1833643474
  0
ARC
  5
2BD
100
AcDbEntity
  8
0
100
AcDbCircle
 62
7
  6
CONTINUOUS
 10
5.798413909
 20
6.2982446402
 40
0.0735
100
AcDbArc
 50
218.4529992889
 51
334.637909802
  0
ARC
  5
2BE
100
AcDbEntity
  8
0
100
AcDbCircle
 62
7
  6
CONTINUOUS
 10
5.798413909
 20
6.2982446402
 40
0.0735
100
AcDbArc
 50
31.9075447435
 51
77.2516421347
  0
ARC
  5
2BF
100
AcDbEntity
  8
0
100
AcDbCircle
 62
7
  6
CONTINUOUS
 10
5.3163000784
 20
6.1262267714
 40
0.0735
100
AcDbArc
 50
141.7327326842
 51
187.3651825293
  0
ARC
  5
2C0
100
AcDbEntity
  8
0
100
AcDbCircle
 62
7
  6
CONTINUOUS
 10
5.4286443577
 20
6.1896705037
 40
0.0735
100
AcDbArc
 50
132.3686836016
 51
180.8197279838
  0
ARC
  5
2C1
100
AcDbEntity
  8
0
100
AcDbCircle
 62
7
  6
CONTINUOUS
 10
5.3163000784
 20
6.1262267714
 40
0.0735
100
AcDbArc
 50
58.0893629252
 51
101.0246250126
  0
ARC
  5
2C2
100
AcDbEntity
  8
0
100
AcDbCircle
 62
7
  6
CONTINUOUS
 10
5.5474883878
 20
6.2398944102
 40
0.0735
100
AcDbArc
 50
128.3034559475
 51
174.2742734383
  0
ARC
  5
2C3
100
AcDbEntity
  8
0
100
AcDbCircle
 62
7
  6
CONTINUOUS
 10
5.4286443577
 20
6.1896705037
 40
0.0735
100
AcDbArc
 50
51.5439083801
 51
95.329301354
  0
ARC
  5
2C4
100
AcDbEntity
  8
0
100
AcDbCircle
 62
7
  6
CONTINUOUS
 10
5.6712828549
 20
6.2762437454
 40
0.0735
100
AcDbArc
 50
124.1153813808
 51
167.7288188929
  0
ARC
  5
2C5
100
AcDbEntity
  8
0
100
AcDbCircle
 62
7
  6
CONTINUOUS
 10
5.5474883878
 20
6.2398944102
 40
0.0735
100
AcDbArc
 50
44.9984538343
 51
91.2781004273
  0
ARC
  5
2C6
100
AcDbEntity
  8
0
100
AcDbCircle
 62
7
  6
CONTINUOUS
 10
5.798413909
 20
6.2982446402
 40
0.0735
100
AcDbArc
 50
118.2893719124
 51
161.1833643474
  0
ARC
  5
2C7
100
AcDbEntity
  8
0
100
AcDbCircle
 62
7
  6
CONTINUOUS
 10
5.6712828549
 20
6.2762437454
 40
0.0735
100
AcDbArc
 50
38.4529992889
 51
86.5699990332
  0
ARC
  5
2C8
100
AcDbEntity
  8
0
100
AcDbCircle
 62
7
  6
CONTINUOUS
 10
6.482882407
 20
4.1916672121
 40
0.0735
100
AcDbArc
 50
61.362090198
 51
177.5470007111
  0
ARC
  5
2C9
100
AcDbEntity
  8
0
100
AcDbCircle
 62
7
  6
CONTINUOUS
 10
6.3670994223
 20
4.1347405512
 40
0.0735
100
AcDbArc
 50
54.8166356527
 51
171.0015461656
  0
ARC
  5
2CA
100
AcDbEntity
  8
0
100
AcDbCircle
 62
7
  6
CONTINUOUS
 10
6.2455819914
 20
4.0913832191
 40
0.0735
100
AcDbArc
 50
48.2711811068
 51
164.4560916202
  0
ARC
  5
2CB
100
AcDbEntity
  8
0
100
AcDbCircle
 62
7
  6
CONTINUOUS
 10
6.1199142798
 20
4.0621604447
 40
0.0735
100
AcDbArc
 50
41.725726562
 51
157.9106370747
  0
ARC
  5
2CC
100
AcDbEntity
  8
0
100
AcDbCircle
 62
7
  6
CONTINUOUS
 10
5.9917345584
 20
4.0474531918
 40
0.0735
100
AcDbArc
 50
35.1802720164
 51
151.3651825293
  0
ARC
  5
2CD
100
AcDbEntity
  8
0
100
AcDbCircle
 62
7
  6
CONTINUOUS
 10
5.9917345584
 20
4.0474531918
 40
0.0735
100
AcDbArc
 50
208.6348174707
 51
253.277720438
  0
ARC
  5
2CE
100
AcDbEntity
  8
0
100
AcDbCircle
 62
7
  6
CONTINUOUS
 10
5.9917345584
 20
4.0474531918
 40
0.0735
100
AcDbArc
 50
289.7862050212
 51
337.9106370747
  0
ARC
  5
2CF
100
AcDbEntity
  8
0
100
AcDbCircle
 62
7
  6
CONTINUOUS
 10
6.1199142798
 20
4.0621604447
 40
0.0735
100
AcDbArc
 50
215.1802720164
 51
258.2740231084
  0
ARC
  5
2D0
100
AcDbEntity
  8
0
100
AcDbCircle
 62
7
  6
CONTINUOUS
 10
6.1199142798
 20
4.0621604447
 40
0.0735
100
AcDbArc
 50
295.2792898195
 51
344.4560916202
  0
ARC
  5
2D1
100
AcDbEntity
  8
0
100
AcDbCircle
 62
7
  6
CONTINUOUS
 10
6.2455819914
 20
4.0913832191
 40
0.0735
100
AcDbArc
 50
221.725726562
 51
264.7633284434
  0
ARC
  5
2D2
100
AcDbEntity
  8
0
100
AcDbCircle
 62
7
  6
CONTINUOUS
 10
6.2455819914
 20
4.0913832191
 40
0.0735
100
AcDbArc
 50
306.6156161887
 51
351.0015461656
  0
ARC
  5
2D3
100
AcDbEntity
  8
0
100
AcDbCircle
 62
7
  6
CONTINUOUS
 10
6.3670994223
 20
4.1347405512
 40
0.0735
100
AcDbArc
 50
228.2711811068
 51
272.5001281337
  0
ARC
  5
2D4
100
AcDbEntity
  8
0
100
AcDbCircle
 62
7
  6
CONTINUOUS
 10
6.3670994223
 20
4.1347405512
 40
0.0735
100
AcDbArc
 50
314.4273222653
 51
357.5470007111
  0
ARC
  5
2D5
100
AcDbEntity
  8
0
100
AcDbCircle
 62
7
  6
CONTINUOUS
 10
6.482882407
 20
4.1916672121
 40
0.0735
100
AcDbArc
 50
234.8166356527
 51
283.9934374532
  0
ARC
  5
2D6
100
AcDbEntity
  8
0
100
AcDbCircle
 62
7
  6
CONTINUOUS
 10
6.482882407
 20
4.1916672121
 40
0.0735
100
AcDbArc
 50
321.039393628
 51
4.0924552565
  0
CIRCLE
  5
2D7
100
AcDbEntity
  8
0
100
AcDbCircle
 62
7
  6
CONTINUOUS
 10
5.9272242021
 20
5.1756102793
 40
1.265
  0
CIRCLE
  5
2D8
100
AcDbEntity
  8
0
100
AcDbCircle
 62
7
  6
CONTINUOUS
 10
5.9272242021
 20
5.1756102793
 40
1.221
  0
CIRCLE
  5
2D9
100
AcDbEntity
  8
0
100
AcDbCircle
 62
7
  6
CONTINUOUS
 10
5.9272242021
 20
5.1756102793
 40
1.201
  0
CIRCLE
  5
2DA
100
AcDbEntity
  8
0
100
AcDbCircle
 62
7
  6
CONTINUOUS
 10
5.9272242021
 20
5.1756102793
 40
1.056
  0
CIRCLE
  5
2DB
100
AcDbEntity
  8
0
100
AcDbCircle
 62
7
  6
CONTINUOUS
 10
5.9272242021
 20
5.1756102793
 40
0.6875
  0
CIRCLE
  5
2DC
100
AcDbEntity
  8
0
100
AcDbCircle
 62
9
  6
CONTINUOUS
 10
5.9272242021
 20
5.1756102793
 40
0.6775000005
  0
CIRCLE
  5
2DD
100
AcDbEntity
  8
0
100
AcDbCircle
 62
7
  6
CONTINUOUS
 10
5.9272242021
 20
5.1756102793
 40
0.6205
  0
CIRCLE
  5
2DE
100
AcDbEntity
  8
0
100
AcDbCircle
 62
9
  6
CONTINUOUS
 10
5.9272242021
 20
5.1756102793
 40
0.5804999994
  0
ARC
  5
2DF
100
AcDbEntity
  8
0
100
AcDbCircle
 62
7
  6
CONTINUOUS
 10
6.8600074457
 20
4.5377894419
 40
0.0735
100
AcDbArc
 50
87.5439083798
 51
203.7288188929
  0
ARC
  5
2E0
100
AcDbEntity
  8
0
100
AcDbCircle
 62
7
  6
CONTINUOUS
 10
6.7812212211
 20
4.4356176499
 40
0.0735
100
AcDbArc
 50
80.9984538344
 51
197.1833643474
  0
ARC
  5
2E1
100
AcDbEntity
  8
0
100
AcDbCircle
 62
7
  6
CONTINUOUS
 10
6.6913018394
 20
4.3430927935
 40
0.0735
100
AcDbArc
 50
74.452999289
 51
190.637909802
  0
ARC
  5
2E2
100
AcDbEntity
  8
0
100
AcDbCircle
 62
7
  6
CONTINUOUS
 10
6.5914215372
 20
4.2614210756
 40
0.0735
100
AcDbArc
 50
67.9075447435
 51
184.0924552565
  0
ARC
  5
2E3
100
AcDbEntity
  8
0
100
AcDbCircle
 62
7
  6
CONTINUOUS
 10
6.5914215372
 20
4.2614210756
 40
0.0735
100
AcDbArc
 50
241.362090198
 51
290.0359406275
  0
ARC
  5
2E4
100
AcDbEntity
  8
0
100
AcDbCircle
 62
7
  6
CONTINUOUS
 10
6.5914215372
 20
4.2614210756
 40
0.0735
100
AcDbArc
 50
326.245482492
 51
10.637909802
  0
ARC
  5
2E5
100
AcDbEntity
  8
0
100
AcDbCircle
 62
7
  6
CONTINUOUS
 10
6.6913018394
 20
4.3430927935
 40
0.0735
100
AcDbArc
 50
247.9075447434
 51
292.9493890558
  0
ARC
  5
2E6
100
AcDbEntity
  8
0
100
AcDbCircle
 62
7
  6
CONTINUOUS
 10
6.6913018394
 20
4.3430927935
 40
0.0735
100
AcDbArc
 50
329.7047193658
 51
17.1833643474
  0
ARC
  5
2E7
100
AcDbEntity
  8
0
100
AcDbCircle
 62
7
  6
CONTINUOUS
 10
6.7812212211
 20
4.4356176499
 40
0.0735
100
AcDbArc
 50
254.452999289
 51
297.7032113284
  0
ARC
  5
2E8
100
AcDbEntity
  8
0
100
AcDbCircle
 62
7
  6
CONTINUOUS
 10
6.7812212211
 20
4.4356176499
 40
0.0735
100
AcDbArc
 50
334.5520170922
 51
23.7288188929
  0
ARC
  5
2E9
100
AcDbEntity
  8
0
100
AcDbCircle
 62
7
  6
CONTINUOUS
 10
6.8600074457
 20
4.5377894419
 40
0.0735
100
AcDbArc
 50
260.9984538344
 51
303.9617357548
  0
ARC
  5
2EA
100
AcDbEntity
  8
0
100
AcDbCircle
 62
7
  6
CONTINUOUS
 10
6.8600074457
 20
4.5377894419
 40
0.0735
100
AcDbArc
 50
345.5744635648
 51
30.2742734383
  0
ARC
  5
2EB
100
AcDbEntity
  8
0
100
AcDbCircle
 62
7
  6
CONTINUOUS
 10
7.05676338
 20
5.1433419419
 40
0.0735
100
AcDbArc
 50
120.2711811071
 51
236.4560916202
  0
ARC
  5
2EC
100
AcDbEntity
  8
0
100
AcDbCircle
 62
7
  6
CONTINUOUS
 10
7.0457224315
 20
5.014794512
 40
0.0735
100
AcDbArc
 50
113.7257265612
 51
229.9106370747
  0
ARC
  5
2ED
100
AcDbEntity
  8
0
100
AcDbCircle
 62
7
  6
CONTINUOUS
 10
7.0201001479
 20
4.8883435616
 40
0.0735
100
AcDbArc
 50
107.1802720164
 51
223.3651825293
  0
ARC
  5
2EE
100
AcDbEntity
  8
0
100
AcDbCircle
 62
7
  6
CONTINUOUS
 10
6.9802305551
 20
4.7656375722
 40
0.0735
100
AcDbArc
 50
100.634817471
 51
216.8197279838
  0
ARC
  5
2EF
100
AcDbEntity
  8
0
100
AcDbCircle
 62
7
  6
CONTINUOUS
 10
6.9266334142
 20
4.648276204
 40
0.0735
100
AcDbArc
 50
94.0893629252
 51
210.2742734383
  0
ARC
  5
2F0
100
AcDbEntity
  8
0
100
AcDbCircle
 62
7
  6
CONTINUOUS
 10
7.05676338
 20
5.1433419419
 40
0.0735
100
AcDbArc
 50
13.824744365
 51
63.0015461656
  0
ARC
  5
2F1
100
AcDbEntity
  8
0
100
AcDbCircle
 62
7
  6
CONTINUOUS
 10
6.9266334142
 20
4.648276204
 40
0.0735
100
AcDbArc
 50
267.5439083798
 51
311.5042384939
  0
ARC
  5
2F2
100
AcDbEntity
  8
0
100
AcDbCircle
 62
7
  6
CONTINUOUS
 10
6.9266334142
 20
4.648276204
 40
0.0735
100
AcDbArc
 50
353.5725100637
 51
36.8197279838
  0
ARC
  5
2F3
100
AcDbEntity
  8
0
100
AcDbCircle
 62
7
  6
CONTINUOUS
 10
6.9802305551
 20
4.7656375722
 40
0.0735
100
AcDbArc
 50
274.0893629252
 51
320.0931733221
  0
ARC
  5
2F4
100
AcDbEntity
  8
0
100
AcDbCircle
 62
7
  6
CONTINUOUS
 10
6.9802305551
 20
4.7656375722
 40
0.0735
100
AcDbArc
 50
0.4473736443
 51
43.3651825293
  0
ARC
  5
2F5
100
AcDbEntity
  8
0
100
AcDbCircle
 62
7
  6
CONTINUOUS
 10
7.0201001479
 20
4.8883435616
 40
0.0735
100
AcDbArc
 50
280.634817471
 51
329.8116192714
  0
ARC
  5
2F6
100
AcDbEntity
  8
0
100
AcDbCircle
 62
7
  6
CONTINUOUS
 10
7.0201001479
 20
4.8883435616
 40
0.0735
100
AcDbArc
 50
5.8267963723
 51
49.9106370747
  0
ARC
  5
2F7
100
AcDbEntity
  8
0
100
AcDbCircle
 62
7
  6
CONTINUOUS
 10
7.0457224315
 20
5.014794512
 40
0.0735
100
AcDbArc
 50
287.1802720164
 51
332.4562719317
  0
ARC
  5
2F8
100
AcDbEntity
  8
0
100
AcDbCircle
 62
7
  6
CONTINUOUS
 10
7.0457224315
 20
5.014794512
 40
0.0735
100
AcDbArc
 50
7.2792898195
 51
56.4560916202
  0
ARC
  5
2F9
100
AcDbEntity
  8
0
100
AcDbCircle
 62
7
  6
CONTINUOUS
 10
7.05676338
 20
5.1433419419
 40
0.0735
100
AcDbArc
 50
293.7257265612
 51
337.0167286073
  0
ARC
  5
2FA
100
AcDbEntity
  8
0
100
AcDbCircle
 62
7
  6
CONTINUOUS
 10
5.9272242021
 20
6.3056102793
 40
0.0735
100
AcDbArc
 50
211.9075447434
 51
328.0924552565
  0
ARC
  5
2FB
100
AcDbEntity
  8
0
100
AcDbCircle
 62
7
  6
CONTINUOUS
 10
6.0560344953
 20
6.2982446402
 40
0.0735
100
AcDbArc
 50
205.3620901981
 51
321.5470007111
  0
ARC
  5
2FC
100
AcDbEntity
  8
0
100
AcDbCircle
 62
7
  6
CONTINUOUS
 10
6.1831655493
 20
6.2762437454
 40
0.0735
100
AcDbArc
 50
198.8166356526
 51
315.0015461656
  0
ARC
  5
2FD
100
AcDbEntity
  8
0
100
AcDbCircle
 62
7
  6
CONTINUOUS
 10
6.3069600165
 20
6.2398944102
 40
0.0735
100
AcDbArc
 50
192.2711811072
 51
308.4560916202
  0
ARC
  5
2FE
100
AcDbEntity
  8
0
100
AcDbCircle
 62
7
  6
CONTINUOUS
 10
6.4258040465
 20
6.1896705037
 40
0.0735
100
AcDbArc
 50
185.7257265612
 51
301.9106370747
  0
ARC
  5
2FF
100
AcDbEntity
  8
0
100
AcDbCircle
 62
7
  6
CONTINUOUS
 10
5.9272242021
 20
6.3056102793
 40
0.0735
100
AcDbArc
 50
111.114905622
 51
154.6379098019
  0
ARC
  5
300
100
AcDbEntity
  8
0
100
AcDbCircle
 62
7
  6
CONTINUOUS
 10
6.0560344953
 20
6.2982446402
 40
0.0735
100
AcDbArc
 50
102.7877216372
 51
148.0924552565
  0
ARC
  5
301
100
AcDbEntity
  8
0
100
AcDbCircle
 62
7
  6
CONTINUOUS
 10
5.9272242021
 20
6.3056102793
 40
0.0735
100
AcDbArc
 50
25.3620901981
 51
68.9033842898
  0
ARC
  5
302
100
AcDbEntity
  8
0
100
AcDbCircle
 62
7
  6
CONTINUOUS
 10
6.1831655493
 20
6.2762437454
 40
0.0735
100
AcDbArc
 50
93.4533584978
 51
141.5470007111
  0
ARC
  5
303
100
AcDbEntity
  8
0
100
AcDbCircle
 62
7
  6
CONTINUOUS
 10
6.0560344953
 20
6.2982446402
 40
0.0735
100
AcDbArc
 50
18.8166356526
 51
61.6942393193
  0
ARC
  5
304
100
AcDbEntity
  8
0
100
AcDbCircle
 62
7
  6
CONTINUOUS
 10
6.3069600165
 20
6.2398944102
 40
0.0735
100
AcDbArc
 50
88.7453721898
 51
135.0015461656
  0
ARC
  5
305
100
AcDbEntity
  8
0
100
AcDbCircle
 62
7
  6
CONTINUOUS
 10
6.1831655493
 20
6.2762437454
 40
0.0735
100
AcDbArc
 50
12.2711811072
 51
55.8581900537
  0
ARC
  5
306
100
AcDbEntity
  8
0
100
AcDbCircle
 62
7
  6
CONTINUOUS
 10
6.4258040465
 20
6.1896705037
 40
0.0735
100
AcDbArc
 50
84.708750466
 51
128.4560916202
  0
ARC
  5
307
100
AcDbEntity
  8
0
100
AcDbCircle
 62
7
  6
CONTINUOUS
 10
6.3069600165
 20
6.2398944102
 40
0.0735
100
AcDbArc
 50
5.7257265612
 51
51.7047970285
  0
ARC
  5
308
100
AcDbEntity
  8
0
100
AcDbCircle
 62
7
  6
CONTINUOUS
 10
6.4258040465
 20
6.1896705037
 40
0.0735
100
AcDbArc
 50
359.1802720164
 51
47.581564446
  0
ARC
  5
309
100
AcDbEntity
  8
0
100
AcDbCircle
 62
7
  6
CONTINUOUS
 10
6.8948986063
 20
5.7591394109
 40
0.0735
100
AcDbArc
 50
152.9984538343
 51
269.1833643474
  0
ARC
  5
30A
100
AcDbEntity
  8
0
100
AcDbCircle
 62
7
  6
CONTINUOUS
 10
6.9551083569
 20
5.6450292439
 40
0.0735
100
AcDbArc
 50
146.4529992891
 51
262.637909802
  0
ARC
  5
30B
100
AcDbEntity
  8
0
100
AcDbCircle
 62
7
  6
CONTINUOUS
 10
7.0019180655
 20
5.5247994829
 40
0.0735
100
AcDbArc
 50
139.9075447435
 51
256.0924552565
  0
ARC
  5
30C
100
AcDbEntity
  8
0
100
AcDbCircle
 62
7
  6
CONTINUOUS
 10
7.0347174962
 20
5.4000175066
 40
0.0735
100
AcDbArc
 50
133.3620901975
 51
249.5470007111
  0
ARC
  5
30D
100
AcDbEntity
  8
0
100
AcDbCircle
 62
7
  6
CONTINUOUS
 10
7.053079058
 20
5.2723100388
 40
0.0735
100
AcDbArc
 50
126.8166356529
 51
243.0015461656
  0
ARC
  5
30E
100
AcDbEntity
  8
0
100
AcDbCircle
 62
7
  6
CONTINUOUS
 10
7.053079058
 20
5.2723100388
 40
0.0735
100
AcDbArc
 50
300.2711811071
 51
343.2016240497
  0
ARC
  5
30F
100
AcDbEntity
  8
0
100
AcDbCircle
 62
7
  6
CONTINUOUS
 10
6.8948986063
 20
5.7591394109
 40
0.0735
100
AcDbArc
 50
46.5520170922
 51
95.7288188929
  0
ARC
  5
310
100
AcDbEntity
  8
0
100
AcDbCircle
 62
7
  6
CONTINUOUS
 10
6.9551083569
 20
5.6450292439
 40
0.0735
100
AcDbArc
 50
45.1819803924
 51
89.1833643474
  0
ARC
  5
311
100
AcDbEntity
  8
0
100
AcDbCircle
 62
7
  6
CONTINUOUS
 10
6.8948986063
 20
5.7591394109
 40
0.0735
100
AcDbArc
 50
326.4529992891
 51
12.0556992339
  0
ARC
  5
312
100
AcDbEntity
  8
0
100
AcDbCircle
 62
7
  6
CONTINUOUS
 10
7.0019180655
 20
5.5247994829
 40
0.0735
100
AcDbArc
 50
39.7158405659
 51
82.637909802
  0
ARC
  5
313
100
AcDbEntity
  8
0
100
AcDbCircle
 62
7
  6
CONTINUOUS
 10
6.9551083569
 20
5.6450292439
 40
0.0735
100
AcDbArc
 50
319.9075447435
 51
9.0843465441
  0
ARC
  5
314
100
AcDbEntity
  8
0
100
AcDbCircle
 62
7
  6
CONTINUOUS
 10
7.0347174962
 20
5.4000175066
 40
0.0735
100
AcDbArc
 50
32.8151382592
 51
76.0924552565
  0
ARC
  5
315
100
AcDbEntity
  8
0
100
AcDbCircle
 62
7
  6
CONTINUOUS
 10
7.0019180655
 20
5.5247994829
 40
0.0735
100
AcDbArc
 50
313.3620901975
 51
359.2348630741
  0
ARC
  5
316
100
AcDbEntity
  8
0
100
AcDbCircle
 62
7
  6
CONTINUOUS
 10
7.053079058
 20
5.2723100388
 40
0.0735
100
AcDbArc
 50
24.7108983696
 51
69.5470007111
  0
ARC
  5
317
100
AcDbEntity
  8
0
100
AcDbCircle
 62
7
  6
CONTINUOUS
 10
7.0347174962
 20
5.4000175066
 40
0.0735
100
AcDbArc
 50
306.8166356529
 51
350.6561517573
  0
ARC
  5
318
100
AcDbEntity
  8
0
100
AcDbCircle
 62
7
  6
CONTINUOUS
 10
6.5381483259
 20
6.1262267714
 40
0.0735
100
AcDbArc
 50
179.1802720164
 51
295.3651825293
  0
ARC
  5
319
100
AcDbEntity
  8
0
100
AcDbCircle
 62
7
  6
CONTINUOUS
 10
6.6425282749
 20
6.0503902993
 40
0.0735
100
AcDbArc
 50
172.6348174708
 51
288.8197279838
  0
ARC
  5
31A
100
AcDbEntity
  8
0
100
AcDbCircle
 62
7
  6
CONTINUOUS
 10
6.7375831415
 20
5.9631497318
 40
0.0735
100
AcDbArc
 50
166.0893629253
 51
282.2742734383
  0
ARC
  5
31B
100
AcDbEntity
  8
0
100
AcDbCircle
 62
7
  6
CONTINUOUS
 10
6.82207374
 20
5.8656423832
 40
0.0735
100
AcDbArc
 50
159.5439083799
 51
275.7288188929
  0
ARC
  5
31C
100
AcDbEntity
  8
0
100
AcDbCircle
 62
7
  6
CONTINUOUS
 10
6.5381483259
 20
6.1262267714
 40
0.0735
100
AcDbArc
 50
78.9949813592
 51
121.9106370747
  0
ARC
  5
31D
100
AcDbEntity
  8
0
100
AcDbCircle
 62
7
  6
CONTINUOUS
 10
6.6425282749
 20
6.0503902993
 40
0.0735
100
AcDbArc
 50
71.9422394162
 51
115.3651825293
  0
ARC
  5
31E
100
AcDbEntity
  8
0
100
AcDbCircle
 62
7
  6
CONTINUOUS
 10
6.5381483259
 20
6.1262267714
 40
0.0735
100
AcDbArc
 50
352.6348174708
 51
38.2069172616
  0
ARC
  5
31F
100
AcDbEntity
  8
0
100
AcDbCircle
 62
7
  6
CONTINUOUS
 10
6.7375831415
 20
5.9631497318
 40
0.0735
100
AcDbArc
 50
63.7396659717
 51
108.8197279838
  0
ARC
  5
320
100
AcDbEntity
  8
0
100
AcDbCircle
 62
7
  6
CONTINUOUS
 10
6.6425282749
 20
6.0503902993
 40
0.0735
100
AcDbArc
 50
346.0893629253
 51
29.7768996121
  0
ARC
  5
321
100
AcDbEntity
  8
0
100
AcDbCircle
 62
7
  6
CONTINUOUS
 10
6.82207374
 20
5.8656423832
 40
0.0735
100
AcDbArc
 50
54.5321721574
 51
102.2742734383
  0
ARC
  5
322
100
AcDbEntity
  8
0
100
AcDbCircle
 62
7
  6
CONTINUOUS
 10
6.7375831415
 20
5.9631497318
 40
0.0735
100
AcDbArc
 50
339.5439083799
 51
22.4486383506
  0
ARC
  5
323
100
AcDbEntity
  8
0
100
AcDbCircle
 62
7
  6
CONTINUOUS
 10
6.82207374
 20
5.8656423832
 40
0.0735
100
AcDbArc
 50
332.9984538343
 51
16.4471193384
  0
ARC
  5
324
100
AcDbEntity
  8
0
100
AcDbCircle
 62
7
  6
CONTINUOUS
 10
14.1884438543
 20
5.1756102793
 40
0.5295
100
AcDbArc
 50
53.8504471968
 51
73.9532502835
  0
ARC
  5
325
100
AcDbEntity
  8
0
100
AcDbCircle
 62
7
  6
CONTINUOUS
 10
14.1884438543
 20
5.1756102793
 40
0.5295
100
AcDbArc
 50
286.0467497165
 51
306.1495528032
  0
ARC
  5
326
100
AcDbEntity
  8
0
100
AcDbCircle
 62
7
  6
CONTINUOUS
 10
14.5597826827
 20
4.6673015891
 40
0.1
100
AcDbArc
 50
13.8375528441
 51
126.1495293789
  0
ARC
  5
327
100
AcDbEntity
  8
0
100
AcDbCircle
 62
7
  6
CONTINUOUS
 10
12.7244438543
 20
4.5951102793
 40
0.04
100
AcDbArc
 50
179.99999919
 51
270.0
  0
ARC
  5
328
100
AcDbEntity
  8
0
100
AcDbCircle
 62
7
  6
CONTINUOUS
 10
13.7444438543
 20
4.4981102793
 40
0.01
100
AcDbArc
 50
180.000003084
 51
270.0
  0
ARC
  5
329
100
AcDbEntity
  8
0
100
AcDbCircle
 62
7
  6
CONTINUOUS
 10
14.3244438543
 20
4.4981102793
 40
0.01
100
AcDbArc
 50
270.0
 51
359.9999963489
  0
ARC
  5
32A
100
AcDbEntity
  8
0
100
AcDbCircle
 62
7
  6
CONTINUOUS
 10
14.5597826827
 20
5.6839189695
 40
0.1
100
AcDbArc
 50
233.8504706333
 51
346.1624471489
  0
ARC
  5
32B
100
AcDbEntity
  8
0
100
AcDbCircle
 62
7
  6
CONTINUOUS
 10
12.7244438543
 20
5.7561102793
 40
0.04
100
AcDbArc
 50
90.0
 51
180.00000081
  0
ARC
  5
32C
100
AcDbEntity
  8
0
100
AcDbCircle
 62
7
  6
CONTINUOUS
 10
13.7444438543
 20
5.8531102793
 40
0.01
100
AcDbArc
 50
90.0
 51
179.9999969154
  0
ARC
  5
32D
100
AcDbEntity
  8
0
100
AcDbCircle
 62
7
  6
CONTINUOUS
 10
14.3244438543
 20
5.8531102793
 40
0.01
100
AcDbArc
 50
0.0000036511
 51
90.0
  0
ARC
  5
32E
100
AcDbEntity
  8
0
100
AcDbCircle
 62
7
  6
CONTINUOUS
 10
14.6665902331
 20
4.6936102793
 40
0.01
100
AcDbArc
 50
193.8375548393
 51
270.0
  0
ARC
  5
32F
100
AcDbEntity
  8
0
100
AcDbCircle
 62
7
  6
CONTINUOUS
 10
16.4124438543
 20
4.0474531918
 40
0.0735
100
AcDbArc
 50
174.2015855356
 51
242.322148279
  0
ARC
  5
330
100
AcDbEntity
  8
0
100
AcDbCircle
 62
7
  6
CONTINUOUS
 10
16.4124438543
 20
4.0621604447
 40
0.0735
100
AcDbArc
 50
168.4787622713
 51
242.3269851056
  0
ARC
  5
331
100
AcDbEntity
  8
0
100
AcDbCircle
 62
7
  6
CONTINUOUS
 10
16.4124438543
 20
4.0913832191
 40
0.0735
100
AcDbArc
 50
162.7530071085
 51
242.3269851056
  0
ARC
  5
332
100
AcDbEntity
  8
0
100
AcDbCircle
 62
7
  6
CONTINUOUS
 10
16.4124438543
 20
4.1347405512
 40
0.0735
100
AcDbArc
 50
157.0119842353
 51
242.3269851056
  0
ARC
  5
333
100
AcDbEntity
  8
0
100
AcDbCircle
 62
7
  6
CONTINUOUS
 10
16.4124438543
 20
4.1916672121
 40
0.0735
100
AcDbArc
 50
151.5849461519
 51
242.3269851056
  0
ARC
  5
334
100
AcDbEntity
  8
0
100
AcDbCircle
 62
7
  6
CONTINUOUS
 10
16.4124438543
 20
4.2614210756
 40
0.0735
100
AcDbArc
 50
145.9738220315
 51
242.3269851056
  0
ARC
  5
335
100
AcDbEntity
  8
0
100
AcDbCircle
 62
7
  6
CONTINUOUS
 10
16.4124438543
 20
4.3430927935
 40
0.0735
100
AcDbArc
 50
140.6265170521
 51
242.3269851056
  0
ARC
  5
336
100
AcDbEntity
  8
0
100
AcDbCircle
 62
7
  6
CONTINUOUS
 10
16.4124438543
 20
4.4356176499
 40
0.0735
100
AcDbArc
 50
135.8735042454
 51
242.3269851056
  0
ARC
  5
337
100
AcDbEntity
  8
0
100
AcDbCircle
 62
7
  6
CONTINUOUS
 10
16.4124438543
 20
4.5377894419
 40
0.0735
100
AcDbArc
 50
130.7993741285
 51
242.3269851056
  0
ARC
  5
338
100
AcDbEntity
  8
0
100
AcDbCircle
 62
7
  6
CONTINUOUS
 10
16.2324438543
 20
4.62195387
 40
0.0735
100
AcDbArc
 50
166.2845359586
 51
270.0
  0
ARC
  5
339
100
AcDbEntity
  8
0
100
AcDbCircle
 62
7
  6
CONTINUOUS
 10
16.2324438543
 20
4.6567421384
 40
0.0735
100
AcDbArc
 50
152.5847888416
 51
270.0
  0
ARC
  5
33A
100
AcDbEntity
  8
0
100
AcDbCircle
 62
7
  6
CONTINUOUS
 10
16.2324438543
 20
4.7241328003
 40
0.0735
100
AcDbArc
 50
139.0332366428
 51
270.0
  0
ARC
  5
33B
100
AcDbEntity
  8
0
100
AcDbCircle
 62
7
  6
CONTINUOUS
 10
16.2324438543
 20
4.8198914527
 40
0.0735
100
AcDbArc
 50
125.9046777278
 51
270.0
  0
ARC
  5
33C
100
AcDbEntity
  8
0
100
AcDbCircle
 62
7
  6
CONTINUOUS
 10
16.2324438543
 20
4.9380012272
 40
0.0735
100
AcDbArc
 50
114.1432590829
 51
270.0
  0
ARC
  5
33D
100
AcDbEntity
  8
0
100
AcDbCircle
 62
7
  6
CONTINUOUS
 10
16.2324438543
 20
5.0710408523
 40
0.0735
100
AcDbArc
 50
108.059587388
 51
270.0
  0
ARC
  5
33E
100
AcDbEntity
  8
0
100
AcDbCircle
 62
7
  6
CONTINUOUS
 10
16.4124438543
 20
4.648276204
 40
0.0735
100
AcDbArc
 50
126.3852254945
 51
242.3269851056
  0
ARC
  5
33F
100
AcDbEntity
  8
0
100
AcDbCircle
 62
7
  6
CONTINUOUS
 10
16.4124438543
 20
4.7656375722
 40
0.0735
100
AcDbArc
 50
122.953472172
 51
242.3241751659
  0
ARC
  5
340
100
AcDbEntity
  8
0
100
AcDbCircle
 62
7
  6
CONTINUOUS
 10
16.4124438543
 20
4.8883435616
 40
0.0735
100
AcDbArc
 50
120.5488523138
 51
242.3915260213
  0
ARC
  5
341
100
AcDbEntity
  8
0
100
AcDbCircle
 62
7
  6
CONTINUOUS
 10
16.4124438543
 20
5.014794512
 40
0.0735
100
AcDbArc
 50
118.9999592988
 51
242.4299244497
  0
ARC
  5
342
100
AcDbEntity
  8
0
100
AcDbCircle
 62
7
  6
CONTINUOUS
 10
16.4124438543
 20
5.1433419419
 40
0.0735
100
AcDbArc
 50
118.4193014518
 51
242.1073131016
  0
ARC
  5
343
100
AcDbEntity
  8
0
100
AcDbCircle
 62
7
  6
CONTINUOUS
 10
14.6665902331
 20
5.6576102793
 40
0.01
100
AcDbArc
 50
90.0
 51
166.162445153
  0
ARC
  5
344
100
AcDbEntity
  8
0
100
AcDbCircle
 62
7
  6
CONTINUOUS
 10
16.2324438543
 20
5.2106509591
 40
0.0735
100
AcDbArc
 50
104.0273714323
 51
252.5462928559
  0
ARC
  5
345
100
AcDbEntity
  8
0
100
AcDbCircle
 62
7
  6
CONTINUOUS
 10
16.2324438543
 20
5.3480593311
 40
0.0735
100
AcDbArc
 50
90.0
 51
250.5381519489
  0
ARC
  5
346
100
AcDbEntity
  8
0
100
AcDbCircle
 62
7
  6
CONTINUOUS
 10
16.2324438543
 20
5.4746320949
 40
0.0735
100
AcDbArc
 50
90.0
 51
239.5293634681
  0
ARC
  5
347
100
AcDbEntity
  8
0
100
AcDbCircle
 62
7
  6
CONTINUOUS
 10
16.2324438543
 20
5.5824162183
 40
0.0735
100
AcDbArc
 50
90.0
 51
227.4652757422
  0
ARC
  5
348
100
AcDbEntity
  8
0
100
AcDbCircle
 62
7
  6
CONTINUOUS
 10
16.2324438543
 20
5.6646392285
 40
0.0735
100
AcDbArc
 50
90.0
 51
214.2977978444
  0
ARC
  5
349
100
AcDbEntity
  8
0
100
AcDbCircle
 62
7
  6
CONTINUOUS
 10
16.2324438543
 20
5.7161347513
 40
0.0735
100
AcDbArc
 50
90.0
 51
200.6901653094
  0
ARC
  5
34A
100
AcDbEntity
  8
0
100
AcDbCircle
 62
7
  6
CONTINUOUS
 10
16.4124438543
 20
5.6450292439
 40
0.0735
100
AcDbArc
 50
117.6730148944
 51
235.4565545507
  0
ARC
  5
34B
100
AcDbEntity
  8
0
100
AcDbCircle
 62
7
  6
CONTINUOUS
 10
16.4124438543
 20
5.5247994829
 40
0.0735
100
AcDbArc
 50
117.6393563332
 51
238.3795081747
  0
ARC
  5
34C
100
AcDbEntity
  8
0
100
AcDbCircle
 62
7
  6
CONTINUOUS
 10
16.4124438543
 20
5.4000175066
 40
0.0735
100
AcDbArc
 50
117.5878993817
 51
240.0
  0
ARC
  5
34D
100
AcDbEntity
  8
0
100
AcDbCircle
 62
7
  6
CONTINUOUS
 10
16.4124438543
 20
5.2723100388
 40
0.0735
100
AcDbArc
 50
117.4227153059
 51
241.644649487
  0
ARC
  5
34E
100
AcDbEntity
  8
0
100
AcDbCircle
 62
7
  6
CONTINUOUS
 10
16.2324438543
 20
5.7336671335
 40
0.0735
100
AcDbArc
 50
90.0
 51
186.9122370746
  0
ARC
  5
34F
100
AcDbEntity
  8
0
100
AcDbCircle
 62
7
  6
CONTINUOUS
 10
16.4124438543
 20
6.2762437454
 40
0.0735
100
AcDbArc
 50
117.6730148944
 51
194.3309231302
  0
ARC
  5
350
100
AcDbEntity
  8
0
100
AcDbCircle
 62
7
  6
CONTINUOUS
 10
16.4124438543
 20
6.2398944102
 40
0.0735
100
AcDbArc
 50
117.6730148944
 51
200.152159471
  0
ARC
  5
351
100
AcDbEntity
  8
0
100
AcDbCircle
 62
7
  6
CONTINUOUS
 10
16.4124438543
 20
6.1262267714
 40
0.0735
100
AcDbArc
 50
117.6730148944
 51
211.1511719544
  0
ARC
  5
352
100
AcDbEntity
  8
0
100
AcDbCircle
 62
7
  6
CONTINUOUS
 10
16.4124438543
 20
5.8656423832
 40
0.0735
100
AcDbArc
 50
117.6730148944
 51
226.6426553182
  0
ARC
  5
353
100
AcDbEntity
  8
0
100
AcDbCircle
 62
7
  6
CONTINUOUS
 10
16.4124438543
 20
5.7591394109
 40
0.0735
100
AcDbArc
 50
117.6730148944
 51
231.5271951958
  0
ARC
  5
354
100
AcDbEntity
  8
0
100
AcDbCircle
 62
7
  6
CONTINUOUS
 10
16.4124438543
 20
5.9631497318
 40
0.0735
100
AcDbArc
 50
117.6730148944
 51
221.828340116
  0
ARC
  5
355
100
AcDbEntity
  8
0
100
AcDbCircle
 62
7
  6
CONTINUOUS
 10
16.4124438543
 20
6.0503902993
 40
0.0735
100
AcDbArc
 50
117.6730148944
 51
216.7699314842
  0
ARC
  5
356
100
AcDbEntity
  8
0
100
AcDbCircle
 62
7
  6
CONTINUOUS
 10
16.4124438543
 20
6.1896705037
 40
0.0735
100
AcDbArc
 50
117.6730148944
 51
205.7453117991
  0
ARC
  5
357
100
AcDbEntity
  8
0
100
AcDbCircle
 62
7
  6
CONTINUOUS
 10
16.4124438543
 20
6.2982446402
 40
0.0735
100
AcDbArc
 50
117.6730148944
 51
188.673972444
  0
ARC
  5
358
100
AcDbEntity
  8
0
100
AcDbCircle
 62
7
  6
CONTINUOUS
 10
16.4124438543
 20
6.3056102793
 40
0.0735
100
AcDbArc
 50
117.6725719987
 51
182.9039432618
  0
ARC
  5
359
100
AcDbEntity
  8
0
100
AcDbCircle
 62
7
  6
CONTINUOUS
 10
5.4189155119
 20
10.9572519786
 40
0.1
100
AcDbArc
 50
323.8504513455
 51
76.1624471559
  0
ARC
  5
35A
100
AcDbEntity
  8
0
100
AcDbCircle
 62
7
  6
CONTINUOUS
 10
5.3467242021
 20
9.1219131503
 40
0.04
100
AcDbArc
 50
180.0
 51
270.0
  0
ARC
  5
35B
100
AcDbEntity
  8
0
100
AcDbCircle
 62
7
  6
CONTINUOUS
 10
5.2497242021
 20
10.7219131503
 40
0.01
100
AcDbArc
 50
89.9999999987
 51
180.0
  0
ARC
  5
35C
100
AcDbEntity
  8
0
100
AcDbCircle
 62
7
  6
CONTINUOUS
 10
5.2497242021
 20
10.1419131503
 40
0.01
100
AcDbArc
 50
180.0
 51
269.999996916
  0
ARC
  5
35D
100
AcDbEntity
  8
0
100
AcDbCircle
 62
7
  6
CONTINUOUS
 10
4.8087259728
 20
12.8099131503
 40
0.0735
100
AcDbArc
 50
267.0996099678
 51
274.3387555976
  0
ARC
  5
35E
100
AcDbEntity
  8
0
100
AcDbCircle
 62
7
  6
CONTINUOUS
 10
4.8343482563
 20
12.8099131503
 40
0.0735
100
AcDbArc
 50
264.2370309557
 51
277.1683848836
  0
ARC
  5
35F
100
AcDbEntity
  8
0
100
AcDbCircle
 62
7
  6
CONTINUOUS
 10
4.8742178491
 20
12.8099131503
 40
0.0735
100
AcDbArc
 50
261.4495810579
 51
279.9045633104
  0
ARC
  5
360
100
AcDbEntity
  8
0
100
AcDbCircle
 62
7
  6
CONTINUOUS
 10
4.9278149901
 20
12.8099131503
 40
0.0735
100
AcDbArc
 50
258.7735989475
 51
282.5116206074
  0
ARC
  5
361
100
AcDbEntity
  8
0
100
AcDbCircle
 62
7
  6
CONTINUOUS
 10
4.9944409586
 20
12.8099131503
 40
0.0735
100
AcDbArc
 50
256.2439701434
 51
284.9555697955
  0
ARC
  5
362
100
AcDbEntity
  8
0
100
AcDbCircle
 62
7
  6
CONTINUOUS
 10
5.0732271831
 20
12.8099131503
 40
0.0735
100
AcDbArc
 50
253.8127640581
 51
287.3657738372
  0
ARC
  5
363
100
AcDbEntity
  8
0
100
AcDbCircle
 62
7
  6
CONTINUOUS
 10
5.1631465648
 20
12.8099131503
 40
0.0735
100
AcDbArc
 50
251.515909942
 51
266.746439949
  0
ARC
  5
364
100
AcDbEntity
  8
0
100
AcDbCircle
 62
7
  6
CONTINUOUS
 10
4.8197309081
 20
12.8099131503
 40
0.0735
100
AcDbArc
 50
207.6730148944
 51
282.9313539279
  0
ARC
  5
365
100
AcDbEntity
  8
0
100
AcDbCircle
 62
7
  6
CONTINUOUS
 10
4.8525303387
 20
12.8099131503
 40
0.0735
100
AcDbArc
 50
207.6730148944
 51
288.7076526537
  0
ARC
  5
366
100
AcDbEntity
  8
0
100
AcDbCircle
 62
7
  6
CONTINUOUS
 10
4.8993400474
 20
12.8099131503
 40
0.0735
100
AcDbArc
 50
207.6730148944
 51
294.3770522762
  0
ARC
  5
367
100
AcDbEntity
  8
0
100
AcDbCircle
 62
7
  6
CONTINUOUS
 10
4.9595497979
 20
12.8099131503
 40
0.0735
100
AcDbArc
 50
207.6730148944
 51
299.7143588941
  0
ARC
  5
368
100
AcDbEntity
  8
0
100
AcDbCircle
 62
7
  6
CONTINUOUS
 10
5.0323746642
 20
12.8099131503
 40
0.0735
100
AcDbArc
 50
207.6730148944
 51
305.4150310189
  0
ARC
  5
369
100
AcDbEntity
  8
0
100
AcDbCircle
 62
7
  6
CONTINUOUS
 10
5.1168652628
 20
12.8099131503
 40
0.0735
100
AcDbArc
 50
207.6730148944
 51
310.6200104525
  0
ARC
  5
36A
100
AcDbEntity
  8
0
100
AcDbCircle
 62
7
  6
CONTINUOUS
 10
5.2119201293
 20
12.8099131503
 40
0.0735
100
AcDbArc
 50
207.6730148944
 51
315.2794731897
  0
ARC
  5
36B
100
AcDbEntity
  8
0
100
AcDbCircle
 62
7
  6
CONTINUOUS
 10
4.8013693463
 20
12.8099131503
 40
0.0735
100
AcDbArc
 50
207.6788004476
 51
277.2391456299
  0
ARC
  5
36C
100
AcDbEntity
  8
0
100
AcDbCircle
 62
7
  6
CONTINUOUS
 10
4.7976850242
 20
12.8099131503
 40
0.0735
100
AcDbArc
 50
207.6754984893
 51
271.4525639969
  0
ARC
  5
36D
100
AcDbEntity
  8
0
100
AcDbCircle
 62
7
  6
CONTINUOUS
 10
5.4452242021
 20
11.064059529
 40
0.01
100
AcDbArc
 50
180.0
 51
256.162445153
  0
ARC
  5
36E
100
AcDbEntity
  8
0
100
AcDbCircle
 62
7
  6
CONTINUOUS
 10
5.6583782622
 20
12.6299131503
 40
0.0735
100
AcDbArc
 50
180.0
 51
332.8161812497
  0
ARC
  5
36F
100
AcDbEntity
  8
0
100
AcDbCircle
 62
7
  6
CONTINUOUS
 10
5.5452079976
 20
12.6299131503
 40
0.0735
100
AcDbArc
 50
180.0
 51
320.9236888282
  0
ARC
  5
370
100
AcDbEntity
  8
0
100
AcDbCircle
 62
7
  6
CONTINUOUS
 10
5.456041216
 20
12.6299131503
 40
0.0735
100
AcDbArc
 50
180.0
 51
307.7189707111
  0
ARC
  5
371
100
AcDbEntity
  8
0
100
AcDbCircle
 62
7
  6
CONTINUOUS
 10
5.3964805944
 20
12.6299131503
 40
0.0735
100
AcDbArc
 50
180.0
 51
294.1024134862
  0
ARC
  5
372
100
AcDbEntity
  8
0
100
AcDbCircle
 62
7
  6
CONTINUOUS
 10
5.3702685456
 20
12.6299131503
 40
0.0735
100
AcDbArc
 50
180.0
 51
280.3342428256
  0
ARC
  5
373
100
AcDbEntity
  8
0
100
AcDbCircle
 62
7
  6
CONTINUOUS
 10
5.379052069
 20
12.6299131503
 40
0.0735
100
AcDbArc
 50
266.5370481182
 51
276.8712909438
  0
ARC
  5
374
100
AcDbEntity
  8
0
100
AcDbCircle
 62
7
  6
CONTINUOUS
 10
5.4222792636
 20
12.6299131503
 40
0.0735
100
AcDbArc
 50
259.8287343572
 51
283.3108334067
  0
ARC
  5
375
100
AcDbEntity
  8
0
100
AcDbCircle
 62
7
  6
CONTINUOUS
 10
5.4972340057
 20
12.6299131503
 40
0.0735
100
AcDbArc
 50
253.6687995103
 51
281.8199329671
  0
ARC
  5
376
100
AcDbEntity
  8
0
100
AcDbCircle
 62
7
  6
CONTINUOUS
 10
5.788441106
 20
12.6299131503
 40
0.0735
100
AcDbArc
 50
180.0
 51
341.4354868279
  0
ARC
  5
377
100
AcDbEntity
  8
0
100
AcDbCircle
 62
7
  6
CONTINUOUS
 10
5.3163000784
 20
12.8099131503
 40
0.0735
100
AcDbArc
 50
207.6730148944
 51
320.3933279789
  0
ARC
  5
378
100
AcDbEntity
  8
0
100
AcDbCircle
 62
7
  6
CONTINUOUS
 10
5.4286443577
 20
12.8099131503
 40
0.0735
100
AcDbArc
 50
207.6730148944
 51
324.5667839387
  0
ARC
  5
379
100
AcDbEntity
  8
0
100
AcDbCircle
 62
7
  6
CONTINUOUS
 10
5.5474883878
 20
12.8099131503
 40
0.0735
100
AcDbArc
 50
207.6533353804
 51
327.745433688
  0
ARC
  5
37A
100
AcDbEntity
  8
0
100
AcDbCircle
 62
7
  6
CONTINUOUS
 10
5.6712828549
 20
12.8099131503
 40
0.0735
100
AcDbArc
 50
207.5962021075
 51
330.0
  0
ARC
  5
37B
100
AcDbEntity
  8
0
100
AcDbCircle
 62
7
  6
CONTINUOUS
 10
5.798413909
 20
12.8099131503
 40
0.0735
100
AcDbArc
 50
207.5616717011
 51
331.2071140845
  0
ARC
  5
37C
100
AcDbEntity
  8
0
100
AcDbCircle
 62
7
  6
CONTINUOUS
 10
5.9272242021
 20
10.5859131503
 40
0.5295
100
AcDbArc
 50
16.0467497165
 51
36.1495528032
  0
ARC
  5
37D
100
AcDbEntity
  8
0
100
AcDbCircle
 62
7
  6
CONTINUOUS
 10
5.9272242021
 20
10.5859131503
 40
0.5295
100
AcDbArc
 50
143.8504471968
 51
163.9532502835
  0
ARC
  5
37E
100
AcDbEntity
  8
0
100
AcDbCircle
 62
7
  6
CONTINUOUS
 10
6.4355328923
 20
10.9572519786
 40
0.1
100
AcDbArc
 50
103.8375528441
 51
216.1495293789
  0
ARC
  5
37F
100
AcDbEntity
  8
0
100
AcDbCircle
 62
7
  6
CONTINUOUS
 10
6.5077242021
 20
9.1219131503
 40
0.04
100
AcDbArc
 50
270.0
 51
360.0
  0
ARC
  5
380
100
AcDbEntity
  8
0
100
AcDbCircle
 62
7
  6
CONTINUOUS
 10
6.6047242021
 20
10.1419131503
 40
0.01
100
AcDbArc
 50
270.000003084
 51
360.0
  0
ARC
  5
381
100
AcDbEntity
  8
0
100
AcDbCircle
 62
7
  6
CONTINUOUS
 10
6.6047242021
 20
10.7219131503
 40
0.01
100
AcDbArc
 50
0.0
 51
89.9999963487
  0
ARC
  5
382
100
AcDbEntity
  8
0
100
AcDbCircle
 62
7
  6
CONTINUOUS
 10
6.4092242021
 20
11.064059529
 40
0.01
100
AcDbArc
 50
283.8375548393
 51
360.0
  0
ARC
  5
383
100
AcDbEntity
  8
0
100
AcDbCircle
 62
7
  6
CONTINUOUS
 10
6.3572143986
 20
12.6299131503
 40
0.0735
100
AcDbArc
 50
258.1800670329
 51
286.3312004897
  0
ARC
  5
384
100
AcDbEntity
  8
0
100
AcDbCircle
 62
7
  6
CONTINUOUS
 10
6.4321691407
 20
12.6299131503
 40
0.0735
100
AcDbArc
 50
256.6891665933
 51
280.1712656428
  0
ARC
  5
385
100
AcDbEntity
  8
0
100
AcDbCircle
 62
7
  6
CONTINUOUS
 10
6.4753963353
 20
12.6299131503
 40
0.0735
100
AcDbArc
 50
263.1287090562
 51
273.4629518818
  0
ARC
  5
386
100
AcDbEntity
  8
0
100
AcDbCircle
 62
7
  6
CONTINUOUS
 10
6.4841798587
 20
12.6299131503
 40
0.0735
100
AcDbArc
 50
259.6657571744
 51
360.0
  0
ARC
  5
387
100
AcDbEntity
  8
0
100
AcDbCircle
 62
7
  6
CONTINUOUS
 10
6.4579678099
 20
12.6299131503
 40
0.0735
100
AcDbArc
 50
245.8975865138
 51
360.0
  0
ARC
  5
388
100
AcDbEntity
  8
0
100
AcDbCircle
 62
7
  6
CONTINUOUS
 10
6.3984071882
 20
12.6299131503
 40
0.0735
100
AcDbArc
 50
232.2810292889
 51
360.0
  0
ARC
  5
389
100
AcDbEntity
  8
0
100
AcDbCircle
 62
7
  6
CONTINUOUS
 10
6.3092404067
 20
12.6299131503
 40
0.0735
100
AcDbArc
 50
219.0763111718
 51
360.0
  0
ARC
  5
38A
100
AcDbEntity
  8
0
100
AcDbCircle
 62
7
  6
CONTINUOUS
 10
6.196070142
 20
12.6299131503
 40
0.0735
100
AcDbArc
 50
207.1838187503
 51
360.0
  0
ARC
  5
38B
100
AcDbEntity
  8
0
100
AcDbCircle
 62
7
  6
CONTINUOUS
 10
6.0660072982
 20
12.6299131503
 40
0.0735
100
AcDbArc
 50
198.5645165919
 51
360.0
  0
ARC
  5
38C
100
AcDbEntity
  8
0
100
AcDbCircle
 62
7
  6
CONTINUOUS
 10
5.9272242021
 20
12.6299131503
 40
0.0735
100
AcDbArc
 50
196.1802790143
 51
343.8196345082
  0
ARC
  5
38D
100
AcDbEntity
  8
0
100
AcDbCircle
 62
7
  6
CONTINUOUS
 10
5.9272242021
 20
12.8099131503
 40
0.0735
100
AcDbArc
 50
208.1221917112
 51
331.878107632
  0
ARC
  5
38E
100
AcDbEntity
  8
0
100
AcDbCircle
 62
7
  6
CONTINUOUS
 10
6.0560344953
 20
12.8099131503
 40
0.0735
100
AcDbArc
 50
208.7928842918
 51
332.4383246327
  0
ARC
  5
38F
100
AcDbEntity
  8
0
100
AcDbCircle
 62
7
  6
CONTINUOUS
 10
6.1831655493
 20
12.8099131503
 40
0.0735
100
AcDbArc
 50
210.0
 51
332.4037949589
  0
ARC
  5
390
100
AcDbEntity
  8
0
100
AcDbCircle
 62
7
  6
CONTINUOUS
 10
6.3069600165
 20
12.8099131503
 40
0.0735
100
AcDbArc
 50
212.254566312
 51
332.3466615561
  0
ARC
  5
391
100
AcDbEntity
  8
0
100
AcDbCircle
 62
7
  6
CONTINUOUS
 10
6.4258040465
 20
12.8099131503
 40
0.0735
100
AcDbArc
 50
215.4332160613
 51
332.3269851056
  0
ARC
  5
392
100
AcDbEntity
  8
0
100
AcDbCircle
 62
7
  6
CONTINUOUS
 10
6.5381483259
 20
12.8099131503
 40
0.0735
100
AcDbArc
 50
219.6066720211
 51
332.3269851056
  0
ARC
  5
393
100
AcDbEntity
  8
0
100
AcDbCircle
 62
7
  6
CONTINUOUS
 10
6.6425282749
 20
12.8099131503
 40
0.0735
100
AcDbArc
 50
224.7205268103
 51
332.3269851056
  0
ARC
  5
394
100
AcDbEntity
  8
0
100
AcDbCircle
 62
7
  6
CONTINUOUS
 10
6.7375831415
 20
12.8099131503
 40
0.0735
100
AcDbArc
 50
229.3799895475
 51
332.3269851056
  0
ARC
  5
395
100
AcDbEntity
  8
0
100
AcDbCircle
 62
7
  6
CONTINUOUS
 10
6.82207374
 20
12.8099131503
 40
0.0735
100
AcDbArc
 50
234.5849689811
 51
332.3269851056
  0
ARC
  5
396
100
AcDbEntity
  8
0
100
AcDbCircle
 62
7
  6
CONTINUOUS
 10
6.8948986063
 20
12.8099131503
 40
0.0735
100
AcDbArc
 50
240.2856411059
 51
332.3269851056
  0
ARC
  5
397
100
AcDbEntity
  8
0
100
AcDbCircle
 62
7
  6
CONTINUOUS
 10
6.9551083569
 20
12.8099131503
 40
0.0735
100
AcDbArc
 50
245.6229477238
 51
332.3269851056
  0
ARC
  5
398
100
AcDbEntity
  8
0
100
AcDbCircle
 62
7
  6
CONTINUOUS
 10
7.0019180655
 20
12.8099131503
 40
0.0735
100
AcDbArc
 50
251.2923473463
 51
332.3269851056
  0
ARC
  5
399
100
AcDbEntity
  8
0
100
AcDbCircle
 62
7
  6
CONTINUOUS
 10
7.0347174962
 20
12.8099131503
 40
0.0735
100
AcDbArc
 50
257.0686460721
 51
332.3269851056
  0
ARC
  5
39A
100
AcDbEntity
  8
0
100
AcDbCircle
 62
7
  6
CONTINUOUS
 10
7.053079058
 20
12.8099131503
 40
0.0735
100
AcDbArc
 50
262.7608543701
 51
332.3198243738
  0
ARC
  5
39B
100
AcDbEntity
  8
0
100
AcDbCircle
 62
7
  6
CONTINUOUS
 10
6.6913018394
 20
12.8099131503
 40
0.0735
100
AcDbArc
 50
273.2535600509
 51
288.4840900579
  0
ARC
  5
39C
100
AcDbEntity
  8
0
100
AcDbCircle
 62
7
  6
CONTINUOUS
 10
6.7812212211
 20
12.8099131503
 40
0.0735
100
AcDbArc
 50
252.6342261628
 51
286.1872359419
  0
ARC
  5
39D
100
AcDbEntity
  8
0
100
AcDbCircle
 62
7
  6
CONTINUOUS
 10
6.8600074457
 20
12.8099131503
 40
0.0735
100
AcDbArc
 50
255.0444302045
 51
283.7560298566
  0
ARC
  5
39E
100
AcDbEntity
  8
0
100
AcDbCircle
 62
7
  6
CONTINUOUS
 10
6.9266334142
 20
12.8099131503
 40
0.0735
100
AcDbArc
 50
257.4883793926
 51
281.2264010525
  0
ARC
  5
39F
100
AcDbEntity
  8
0
100
AcDbCircle
 62
7
  6
CONTINUOUS
 10
6.9802305551
 20
12.8099131503
 40
0.0735
100
AcDbArc
 50
260.0954366896
 51
278.5504189421
  0
ARC
  5
3A0
100
AcDbEntity
  8
0
100
AcDbCircle
 62
7
  6
CONTINUOUS
 10
7.0201001479
 20
12.8099131503
 40
0.0735
100
AcDbArc
 50
262.8316151164
 51
275.7629690443
  0
ARC
  5
3A1
100
AcDbEntity
  8
0
100
AcDbCircle
 62
7
  6
CONTINUOUS
 10
7.0457224315
 20
12.8099131503
 40
0.0735
100
AcDbArc
 50
265.6612444024
 51
272.9003900322
  0
ARC
  5
3A2
100
AcDbEntity
  8
0
100
AcDbCircle
 62
7
  6
CONTINUOUS
 10
7.05676338
 20
12.8099131503
 40
0.0735
100
AcDbArc
 50
268.5474360031
 51
332.3249767741
  0
ARC
  5
3A3
100
AcDbEntity
  8
0
100
AcDbCircle
 62
7
  6
CONTINUOUS
 10
13.5521943987
 20
10.8409818645
 40
0.0735696943
100
AcDbArc
 50
52.9415977803
 51
59.9966508851
  0
ARC
  5
3A4
100
AcDbEntity
  8
0
100
AcDbCircle
 62
7
  6
CONTINUOUS
 10
13.5522328628
 20
10.841039711
 40
0.0734994857
100
AcDbArc
 50
258.4820091817
 51
52.9383512134
  0
ARC
  5
3A5
100
AcDbEntity
  8
0
100
AcDbCircle
 62
7
  6
CONTINUOUS
 10
13.4965238811
 20
10.8923001111
 40
0.0734981411
100
AcDbArc
 50
260.1332227284
 51
60.0002297607
  0
ARC
  5
3A6
100
AcDbEntity
  8
0
100
AcDbCircle
 62
7
  6
CONTINUOUS
 10
13.4494142887
 20
10.9553141468
 40
0.0734954462
100
AcDbArc
 50
258.7009978484
 51
60.000890781
  0
ARC
  5
3A7
100
AcDbEntity
  8
0
100
AcDbCircle
 62
7
  6
CONTINUOUS
 10
13.5941462241
 20
10.7625864499
 40
0.0285112632
100
AcDbArc
 50
216.3661214339
 51
218.1899832479
  0
ARC
  5
3A8
100
AcDbEntity
  8
0
100
AcDbCircle
 62
7
  6
CONTINUOUS
 10
13.4571161553
 20
11.0705690996
 40
0.1276431898
100
AcDbArc
 50
149.6700002068
 51
151.7955309136
  0
ARC
  5
3A9
100
AcDbEntity
  8
0
100
AcDbCircle
 62
7
  6
CONTINUOUS
 10
13.4363132757
 20
11.1651038613
 40
0.1244373548
100
AcDbArc
 50
144.7083757511
 51
145.2518597974
  0
ARC
  5
3AA
100
AcDbEntity
  8
0
100
AcDbCircle
 62
7
  6
CONTINUOUS
 10
13.4807889063
 20
10.988872524
 40
0.1226083961
100
AcDbArc
 50
154.6245803184
 51
159.0783541426
  0
ARC
  5
3AB
100
AcDbEntity
  8
0
100
AcDbCircle
 62
7
  6
CONTINUOUS
 10
13.3652025155
 20
11.2059540094
 40
0.0734998327
100
AcDbArc
 50
253.0449686719
 51
47.7970898994
  0
ARC
  5
3AC
100
AcDbEntity
  8
0
100
AcDbCircle
 62
7
  6
CONTINUOUS
 10
13.411527559
 20
11.029267309
 40
0.0734804318
100
AcDbArc
 50
256.4236988613
 51
55.8422033419
  0
ARC
  5
3AD
100
AcDbEntity
  8
0
100
AcDbCircle
 62
7
  6
CONTINUOUS
 10
13.3833488136
 20
11.1131852737
 40
0.0734664379
100
AcDbArc
 50
253.5315434872
 51
51.1490681165
  0
ARC
  5
3AE
100
AcDbEntity
  8
0
100
AcDbCircle
 62
7
  6
CONTINUOUS
 10
13.4738843246
 20
10.99768925
 40
0.0245624064
100
AcDbArc
 50
60.0122743037
 51
64.9462668452
  0
ARC
  5
3AF
100
AcDbEntity
  8
0
100
AcDbCircle
 62
7
  6
CONTINUOUS
 10
13.6864417081
 20
10.7762943154
 40
0.0734995447
100
AcDbArc
 50
258.3173642567
 51
60.0001593489
  0
ARC
  5
3B0
100
AcDbEntity
  8
0
100
AcDbCircle
 62
7
  6
CONTINUOUS
 10
13.7631904733
 20
10.7636513927
 40
0.0734994733
100
AcDbArc
 50
265.7256127116
 51
60.0001840874
  0
ARC
  5
3B1
100
AcDbEntity
  8
0
100
AcDbCircle
 62
7
  6
CONTINUOUS
 10
13.6158159253
 20
10.8022029185
 40
0.0734991875
100
AcDbArc
 50
256.3694504437
 51
60.0003762124
  0
ARC
  5
3B2
100
AcDbEntity
  8
0
100
AcDbCircle
 62
7
  6
CONTINUOUS
 10
13.8450584504
 20
10.7644220481
 40
0.0734824539
100
AcDbArc
 50
243.8347856614
 51
60.0003192482
  0
ARC
  5
3B3
100
AcDbEntity
  8
0
100
AcDbCircle
 62
7
  6
CONTINUOUS
 10
13.845007812
 20
10.7643596981
 40
0.0734041747
100
AcDbArc
 50
240.0050269718
 51
243.8488007419
  0
ARC
  5
3B4
100
AcDbEntity
  8
0
100
AcDbCircle
 62
7
  6
CONTINUOUS
 10
13.8207137167
 20
10.7222492126
 40
0.0247874699
100
AcDbArc
 50
230.1430666119
 51
239.9780409244
  0
ARC
  5
3B5
100
AcDbEntity
  8
0
100
AcDbCircle
 62
7
  6
CONTINUOUS
 10
13.7981494523
 20
11.1628975218
 40
0.4791804188
100
AcDbArc
 50
263.721011873
 51
265.016827133
  0
ARC
  5
3B6
100
AcDbEntity
  8
0
100
AcDbCircle
 62
7
  6
CONTINUOUS
 10
13.7730147759
 20
11.1666432645
 40
0.4689885541
100
AcDbArc
 50
260.668669856
 51
264.3073123562
  0
ARC
  5
3B7
100
AcDbEntity
  8
0
100
AcDbCircle
 62
7
  6
CONTINUOUS
 10
13.8213408238
 20
11.1290678164
 40
0.4599464749
100
AcDbArc
 50
217.1378972589
 51
220.6861910008
  0
ARC
  5
3B8
100
AcDbEntity
  8
0
100
AcDbCircle
 62
7
  6
CONTINUOUS
 10
13.8007624165
 20
11.1111632544
 40
0.4326698097
100
AcDbArc
 50
220.6648057891
 51
227.6440333234
  0
ARC
  5
3B9
100
AcDbEntity
  8
0
100
AcDbCircle
 62
7
  6
CONTINUOUS
 10
13.7619671814
 20
11.1153329628
 40
0.4164333649
100
AcDbArc
 50
247.8172960025
 51
253.800519258
  0
ARC
  5
3BA
100
AcDbEntity
  8
0
100
AcDbCircle
 62
7
  6
CONTINUOUS
 10
13.7880521268
 20
11.0975799352
 40
0.4140688064
100
AcDbArc
 50
227.6773828221
 51
231.6962614244
  0
ARC
  5
3BB
100
AcDbEntity
  8
0
100
AcDbCircle
 62
7
  6
CONTINUOUS
 10
13.7840320172
 20
11.0956757742
 40
0.4103341828
100
AcDbArc
 50
243.4241164015
 51
253.911603333
  0
ARC
  5
3BC
100
AcDbEntity
  8
0
100
AcDbCircle
 62
7
  6
CONTINUOUS
 10
13.8408147243
 20
11.2216924967
 40
0.4046659895
100
AcDbArc
 50
216.9040039133
 51
220.8266208408
  0
ARC
  5
3BD
100
AcDbEntity
  8
0
100
AcDbCircle
 62
7
  6
CONTINUOUS
 10
13.781600284
 20
11.089405126
 40
0.4036546926
100
AcDbArc
 50
231.6956934973
 51
238.6525235053
  0
ARC
  5
3BE
100
AcDbEntity
  8
0
100
AcDbCircle
 62
7
  6
CONTINUOUS
 10
13.7801335586
 20
11.0871951572
 40
0.4010056205
100
AcDbArc
 50
242.9925397634
 51
243.380177362
  0
ARC
  5
3BF
100
AcDbEntity
  8
0
100
AcDbCircle
 62
7
  6
CONTINUOUS
 10
13.779942311
 20
11.0868098268
 40
0.4005757175
100
AcDbArc
 50
238.6619366605
 51
240.0025326755
  0
ARC
  5
3C0
100
AcDbEntity
  8
0
100
AcDbCircle
 62
7
  6
CONTINUOUS
 10
13.7798717455
 20
11.0866900279
 40
0.4004366859
100
AcDbArc
 50
240.0027069911
 51
242.9930948131
  0
ARC
  5
3C1
100
AcDbEntity
  8
0
100
AcDbCircle
 62
7
  6
CONTINUOUS
 10
13.8134083881
 20
11.196349035
 40
0.367311567
100
AcDbArc
 50
224.2509961996
 51
232.4448022364
  0
ARC
  5
3C2
100
AcDbEntity
  8
0
100
AcDbCircle
 62
7
  6
CONTINUOUS
 10
13.8070501202
 20
11.1884732195
 40
0.3571924389
100
AcDbArc
 50
232.4833176086
 51
232.9310178705
  0
ARC
  5
3C3
100
AcDbEntity
  8
0
100
AcDbCircle
 62
7
  6
CONTINUOUS
 10
13.8064505357
 20
11.1876778096
 40
0.3561963579
100
AcDbArc
 50
232.9308506755
 51
233.9036042897
  0
ARC
  5
3C4
100
AcDbEntity
  8
0
100
AcDbCircle
 62
7
  6
CONTINUOUS
 10
13.8044828863
 20
11.184876797
 40
0.3527738375
100
AcDbArc
 50
233.8938122434
 51
244.5504637637
  0
ARC
  5
3C5
100
AcDbEntity
  8
0
100
AcDbCircle
 62
7
  6
CONTINUOUS
 10
13.7189276545
 20
11.5173577075
 40
0.8267468964
100
AcDbArc
 50
289.206100686
 51
289.4253284365
  0
ARC
  5
3C6
100
AcDbEntity
  8
0
100
AcDbCircle
 62
7
  6
CONTINUOUS
 10
13.7588897375
 20
11.3762953691
 40
0.6800325301
100
AcDbArc
 50
281.5617243002
 51
282.1801402215
  0
ARC
  5
3C7
100
AcDbEntity
  8
0
100
AcDbCircle
 62
7
  6
CONTINUOUS
 10
13.86901296
 20
11.2603100481
 40
0.5949451439
100
AcDbArc
 50
240.0219024129
 51
240.4369487151
  0
ARC
  5
3C8
100
AcDbEntity
  8
0
100
AcDbCircle
 62
7
  6
CONTINUOUS
 10
13.7750646446
 20
11.2618715614
 40
0.5643719157
100
AcDbArc
 50
273.3859766365
 51
273.833801372
  0
ARC
  5
3C9
100
AcDbEntity
  8
0
100
AcDbCircle
 62
7
  6
CONTINUOUS
 10
13.7755944483
 20
11.2527534728
 40
0.5552384533
100
AcDbArc
 50
272.0370124373
 51
273.3869728626
  0
ARC
  5
3CA
100
AcDbEntity
  8
0
100
AcDbCircle
 62
7
  6
CONTINUOUS
 10
13.8929265121
 20
11.2563518031
 40
0.4673097892
100
AcDbArc
 50
208.8308884834
 51
210.3163957332
  0
ARC
  5
3CB
100
AcDbEntity
  8
0
100
AcDbCircle
 62
7
  6
CONTINUOUS
 10
13.4227104964
 20
11.2700090837
 40
0.1171252268
100
AcDbArc
 50
139.8932790726
 51
141.1658494878
  0
ARC
  5
3CC
100
AcDbEntity
  8
0
100
AcDbCircle
 62
7
  6
CONTINUOUS
 10
13.3731013631
 20
11.5252663217
 40
0.0738079462
100
AcDbArc
 50
244.7589956939
 51
246.3913740094
  0
ARC
  5
3CD
100
AcDbEntity
  8
0
100
AcDbCircle
 62
7
  6
CONTINUOUS
 10
13.3573956192
 20
11.3064049369
 40
0.0734995717
100
AcDbArc
 50
251.4200810095
 51
45.4837301512
  0
ARC
  5
3CE
100
AcDbEntity
  8
0
100
AcDbCircle
 62
7
  6
CONTINUOUS
 10
13.8895525033
 20
11.5216343254
 40
0.0734995072
100
AcDbArc
 50
239.9998687138
 51
49.788109056
  0
ARC
  5
3CF
100
AcDbEntity
  8
0
100
AcDbCircle
 62
7
  6
CONTINUOUS
 10
13.4292766626
 20
11.757531343
 40
0.0734994297
100
AcDbArc
 50
275.9057818636
 51
38.9343776017
  0
ARC
  5
3D0
100
AcDbEntity
  8
0
100
AcDbCircle
 62
7
  6
CONTINUOUS
 10
13.3961776209
 20
11.6402535638
 40
0.0734987224
100
AcDbArc
 50
274.2567533872
 51
40.8072436441
  0
ARC
  5
3D1
100
AcDbEntity
  8
0
100
AcDbCircle
 62
7
  6
CONTINUOUS
 10
13.3729853601
 20
11.524978067
 40
0.0734978737
100
AcDbArc
 50
246.384242225
 51
42.0808462062
  0
ARC
  5
3D2
100
AcDbEntity
  8
0
100
AcDbCircle
 62
7
  6
CONTINUOUS
 10
13.3600013071
 20
11.4132090453
 40
0.0734977003
100
AcDbArc
 50
249.1876613511
 51
43.5312391462
  0
ARC
  5
3D3
100
AcDbEntity
  8
0
100
AcDbCircle
 62
7
  6
CONTINUOUS
 10
13.9080891011
 20
11.6445289648
 40
0.0734974724
100
AcDbArc
 50
240.0095599834
 51
48.9132539219
  0
ARC
  5
3D4
100
AcDbEntity
  8
0
100
AcDbCircle
 62
7
  6
CONTINUOUS
 10
13.8957733923
 20
11.4112343979
 40
0.0734883812
100
AcDbArc
 50
239.999762027
 51
52.461616888
  0
ARC
  5
3D5
100
AcDbEntity
  8
0
100
AcDbCircle
 62
7
  6
CONTINUOUS
 10
14.4263899565
 20
11.0056156166
 40
0.0973550905
100
AcDbArc
 50
167.6799075235
 51
168.0589710583
  0
ARC
  5
3D6
100
AcDbEntity
  8
0
100
AcDbCircle
 62
7
  6
CONTINUOUS
 10
13.9311102502
 20
10.778956732
 40
0.0738305009
100
AcDbArc
 50
243.0527223884
 51
247.696110556
  0
ARC
  5
3D7
100
AcDbEntity
  8
0
100
AcDbCircle
 62
7
  6
CONTINUOUS
 10
14.0199132998
 20
10.8062339454
 40
0.073656168
100
AcDbArc
 50
247.6991467131
 51
251.4871305571
  0
ARC
  5
3D8
100
AcDbEntity
  8
0
100
AcDbCircle
 62
7
  6
CONTINUOUS
 10
14.2923036534
 20
10.9633859436
 40
0.0735558539
100
AcDbArc
 50
53.4062048326
 51
58.0912563932
  0
ARC
  5
3D9
100
AcDbEntity
  8
0
100
AcDbCircle
 62
7
  6
CONTINUOUS
 10
14.4671371055
 20
11.1236010047
 40
0.0735047505
100
AcDbArc
 50
258.836096497
 51
337.8278395114
  0
ARC
  5
3DA
100
AcDbEntity
  8
0
100
AcDbCircle
 62
7
  6
CONTINUOUS
 10
14.0198463975
 20
10.8060910554
 40
0.0735005972
100
AcDbArc
 50
252.8507253127
 51
59.9991592215
  0
ARC
  5
3DB
100
AcDbEntity
  8
0
100
AcDbCircle
 62
7
  6
CONTINUOUS
 10
14.1104832688
 20
10.8464117194
 40
0.073500579
100
AcDbArc
 50
256.2760627737
 51
59.9992668667
  0
ARC
  5
3DC
100
AcDbEntity
  8
0
100
AcDbCircle
 62
7
  6
CONTINUOUS
 10
14.2923519535
 20
10.9634213938
 40
0.0735001231
100
AcDbArc
 50
256.0741927232
 51
26.8315676356
  0
ARC
  5
3DD
100
AcDbEntity
  8
0
100
AcDbCircle
 62
7
  6
CONTINUOUS
 10
14.0514352954
 20
11.2178559571
 40
0.0734986512
100
AcDbArc
 50
239.9998583945
 51
60.0002377362
  0
ARC
  5
3DE
100
AcDbEntity
  8
0
100
AcDbCircle
 62
7
  6
CONTINUOUS
 10
14.2339226689
 20
11.2397848316
 40
0.0734977753
100
AcDbArc
 50
242.9046679609
 51
350.7657936108
  0
ARC
  5
3DF
100
AcDbEntity
  8
0
100
AcDbCircle
 62
7
  6
CONTINUOUS
 10
14.3812158926
 20
11.0385843143
 40
0.0734967667
100
AcDbArc
 50
257.2961934771
 51
24.2087252847
  0
ARC
  5
3E0
100
AcDbEntity
  8
0
100
AcDbCircle
 62
7
  6
CONTINUOUS
 10
14.1381135707
 20
11.2128696558
 40
0.0734921127
100
AcDbArc
 50
239.9981031945
 51
60.0004051966
  0
ARC
  5
3E1
100
AcDbEntity
  8
0
100
AcDbCircle
 62
7
  6
CONTINUOUS
 10
13.9309842938
 20
10.7785983815
 40
0.0734513501
100
AcDbArc
 50
247.6809245222
 51
60.0001493885
  0
ARC
  5
3E2
100
AcDbEntity
  8
0
100
AcDbCircle
 62
7
  6
CONTINUOUS
 10
14.201703141
 20
10.8990306682
 40
0.0734452221
100
AcDbArc
 50
254.0325636059
 51
54.2926035089
  0
ARC
  5
3E3
100
AcDbEntity
  8
0
100
AcDbCircle
 62
7
  6
CONTINUOUS
 10
14.1104625134
 20
10.8462766537
 40
0.0733640321
100
AcDbArc
 50
251.2652194756
 51
254.4966854045
  0
ARC
  5
3E4
100
AcDbEntity
  8
0
100
AcDbCircle
 62
7
  6
CONTINUOUS
 10
14.0197821403
 20
10.8058498645
 40
0.0732503169
100
AcDbArc
 50
251.4890233708
 51
252.8429980933
  0
ARC
  5
3E5
100
AcDbEntity
  8
0
100
AcDbCircle
 62
7
  6
CONTINUOUS
 10
14.2018585617
 20
10.8993442351
 40
0.0732033905
100
AcDbArc
 50
54.2635104294
 51
59.9950230872
  0
ARC
  5
3E6
100
AcDbEntity
  8
0
100
AcDbCircle
 62
7
  6
CONTINUOUS
 10
14.1103931297
 20
10.8460421399
 40
0.0731195053
100
AcDbArc
 50
254.4999568507
 51
256.2752636702
  0
ARC
  5
3E7
100
AcDbEntity
  8
0
100
AcDbCircle
 62
7
  6
CONTINUOUS
 10
14.2926420071
 20
10.9639262949
 40
0.0729183116
100
AcDbArc
 50
58.0925238303
 51
59.9987742281
  0
ARC
  5
3E8
100
AcDbEntity
  8
0
100
AcDbCircle
 62
7
  6
CONTINUOUS
 10
14.4265852196
 20
11.2812458168
 40
1.1098209527
100
AcDbArc
 50
179.9851871791
 51
182.0466471403
  0
ARC
  5
3E9
100
AcDbEntity
  8
0
100
AcDbCircle
 62
7
  6
CONTINUOUS
 10
14.4245959736
 20
11.2895339335
 40
1.0936895462
100
AcDbArc
 50
179.9914202795
 51
182.698848836
  0
ARC
  5
3EA
100
AcDbEntity
  8
0
100
AcDbCircle
 62
7
  6
CONTINUOUS
 10
14.2333636439
 20
11.2665080162
 40
0.9159434645
100
AcDbArc
 50
187.2988184345
 51
187.8426846824
  0
ARC
  5
3EB
100
AcDbEntity
  8
0
100
AcDbCircle
 62
7
  6
CONTINUOUS
 10
13.9176974537
 20
11.3460472486
 40
0.6935405074
100
AcDbArc
 50
240.4332055414
 51
240.6363851249
  0
ARC
  5
3EC
100
AcDbEntity
  8
0
100
AcDbCircle
 62
7
  6
CONTINUOUS
 10
13.9697853717
 20
11.2924612362
 40
0.5522937426
100
AcDbArc
 50
201.0126296736
 51
202.0717707057
  0
ARC
  5
3ED
100
AcDbEntity
  8
0
100
AcDbCircle
 62
7
  6
CONTINUOUS
 10
13.9347548311
 20
11.5060904036
 40
0.0881000474
100
AcDbArc
 50
126.8569386836
 51
130.0033004017
  0
ARC
  5
3EE
100
AcDbEntity
  8
0
100
AcDbCircle
 62
7
  6
CONTINUOUS
 10
13.9502021098
 20
11.7721917198
 40
0.0735010314
100
AcDbArc
 50
259.7604737121
 51
44.9627847494
  0
ARC
  5
3EF
100
AcDbEntity
  8
0
100
AcDbCircle
 62
7
  6
CONTINUOUS
 10
13.9793303898
 20
11.2544139267
 40
0.0734996091
100
AcDbArc
 50
240.0000267319
 51
59.9999197679
  0
ARC
  5
3F0
100
AcDbEntity
  8
0
100
AcDbCircle
 62
7
  6
CONTINUOUS
 10
13.926333807
 20
11.3202540882
 40
0.0734937323
100
AcDbArc
 50
239.999919258
 51
59.63579611
  0
ARC
  5
3F1
100
AcDbEntity
  8
0
100
AcDbCircle
 62
7
  6
CONTINUOUS
 10
13.9501044683
 20
11.7720445314
 40
0.0733248369
100
AcDbArc
 50
241.1104356327
 51
243.8611587523
  0
ARC
  5
3F2
100
AcDbEntity
  8
0
100
AcDbCircle
 62
7
  6
CONTINUOUS
 10
13.9498711057
 20
11.7716172104
 40
0.0728379521
100
AcDbArc
 50
240.0004175113
 51
241.1087622781
  0
ARC
  5
3F3
100
AcDbEntity
  8
0
100
AcDbCircle
 62
7
  6
CONTINUOUS
 10
13.9369965765
 20
11.6559276466
 40
0.0565268364
100
AcDbArc
 50
113.2392198587
 51
113.9216355576
  0
ARC
  5
3F4
100
AcDbEntity
  8
0
100
AcDbCircle
 62
7
  6
CONTINUOUS
 10
13.1948827425
 20
12.2700902187
 40
1.7941462083
100
AcDbArc
 50
313.8464370715
 51
315.0870581354
  0
ARC
  5
3F5
100
AcDbEntity
  8
0
100
AcDbCircle
 62
7
  6
CONTINUOUS
 10
13.2227966483
 20
12.2698463841
 40
1.7739877377
100
AcDbArc
 50
313.1943583769
 51
317.3049553991
  0
ARC
  5
3F6
100
AcDbEntity
  8
0
100
AcDbCircle
 62
7
  6
CONTINUOUS
 10
13.2199188569
 20
12.2695724329
 40
1.7367294311
100
AcDbArc
 50
315.2627199632
 51
315.4470920204
  0
ARC
  5
3F7
100
AcDbEntity
  8
0
100
AcDbCircle
 62
7
  6
CONTINUOUS
 10
13.2602969102
 20
12.2396910545
 40
1.7138651506
100
AcDbArc
 50
313.7400293471
 51
316.3411495894
  0
ARC
  5
3F8
100
AcDbEntity
  8
0
100
AcDbCircle
 62
7
  6
CONTINUOUS
 10
13.3538508691
 20
12.1305593746
 40
1.5827391225
100
AcDbArc
 50
308.7287930014
 51
313.1869471622
  0
ARC
  5
3F9
100
AcDbEntity
  8
0
100
AcDbCircle
 62
7
  6
CONTINUOUS
 10
13.3381160005
 20
12.1437989207
 40
1.564093861
100
AcDbArc
 50
311.0527131438
 51
311.187053944
  0
ARC
  5
3FA
100
AcDbEntity
  8
0
100
AcDbCircle
 62
7
  6
CONTINUOUS
 10
13.3833955106
 20
12.1057100839
 40
1.5318949301
100
AcDbArc
 50
309.0782723591
 51
312.1572544749
  0
ARC
  5
3FB
100
AcDbEntity
  8
0
100
AcDbCircle
 62
7
  6
CONTINUOUS
 10
13.5203117371
 20
12.3034647928
 40
1.5109527565
100
AcDbArc
 50
348.8671042364
 51
351.9692638091
  0
ARC
  5
3FC
100
AcDbEntity
  8
0
100
AcDbCircle
 62
7
  6
CONTINUOUS
 10
13.5069034716
 20
11.9473049964
 40
1.3310042174
100
AcDbArc
 50
303.7373085315
 51
307.7045406252
  0
ARC
  5
3FD
100
AcDbEntity
  8
0
100
AcDbCircle
 62
7
  6
CONTINUOUS
 10
13.7089545629
 20
12.2784393712
 40
1.3206338971
100
AcDbArc
 50
353.2803111891
 51
357.0988004452
  0
ARC
  5
3FE
100
AcDbEntity
  8
0
100
AcDbCircle
 62
7
  6
CONTINUOUS
 10
13.8058179895
 20
12.2723923655
 40
1.2235890863
100
AcDbArc
 50
357.1520240208
 51
357.9142216351
  0
ARC
  5
3FF
100
AcDbEntity
  8
0
100
AcDbCircle
 62
7
  6
CONTINUOUS
 10
13.8288413243
 20
12.2715107214
 40
1.2005489181
100
AcDbArc
 50
357.916279072
 51
358.3112557608
  0
ARC
  5
400
100
AcDbEntity
  8
0
100
AcDbCircle
 62
7
  6
CONTINUOUS
 10
13.6034641766
 20
11.7994873754
 40
1.1544383614
100
AcDbArc
 50
297.9178633909
 51
303.3593971203
  0
ARC
  5
401
100
AcDbEntity
  8
0
100
AcDbCircle
 62
7
  6
CONTINUOUS
 10
13.6503037294
 20
12.2161167306
 40
0.0734995411
100
AcDbArc
 50
267.1539115588
 51
27.0132065378
  0
ARC
  5
402
100
AcDbEntity
  8
0
100
AcDbCircle
 62
7
  6
CONTINUOUS
 10
13.5830905661
 20
12.1060793289
 40
0.0734988107
100
AcDbArc
 50
270.8212568682
 51
30.0110999503
  0
ARC
  5
403
100
AcDbEntity
  8
0
100
AcDbCircle
 62
7
  6
CONTINUOUS
 10
13.471852283
 20
11.8752811136
 40
0.0734979923
100
AcDbArc
 50
275.3708365774
 51
36.6105561573
  0
ARC
  5
404
100
AcDbEntity
  8
0
100
AcDbCircle
 62
7
  6
CONTINUOUS
 10
13.5233475715
 20
11.991970793
 40
0.0734975037
100
AcDbArc
 50
273.5889185339
 51
33.9047103871
  0
ARC
  5
405
100
AcDbEntity
  8
0
100
AcDbCircle
 62
7
  6
CONTINUOUS
 10
13.1585772884
 20
12.3297067501
 40
1.8617783842
100
AcDbArc
 50
317.2911415472
 51
318.1887893735
  0
ARC
  5
406
100
AcDbEntity
  8
0
100
AcDbCircle
 62
7
  6
CONTINUOUS
 10
13.2224917032
 20
12.3806008097
 40
1.8311604339
100
AcDbArc
 50
341.7954939153
 51
343.7171286164
  0
ARC
  5
407
100
AcDbEntity
  8
0
100
AcDbCircle
 62
7
  6
CONTINUOUS
 10
13.2394032989
 20
12.3939130574
 40
1.8184928403
100
AcDbArc
 50
342.6852577891
 51
347.1206810662
  0
ARC
  5
408
100
AcDbEntity
  8
0
100
AcDbCircle
 62
7
  6
CONTINUOUS
 10
13.2228416602
 20
12.3756131294
 40
1.8172496857
100
AcDbArc
 50
342.0167053475
 51
343.1352920435
  0
ARC
  5
409
100
AcDbEntity
  8
0
100
AcDbCircle
 62
7
  6
CONTINUOUS
 10
13.3292092413
 20
12.3503664179
 40
1.7202465502
100
AcDbArc
 50
343.6871601188
 51
347.8547809956
  0
ARC
  5
40A
100
AcDbEntity
  8
0
100
AcDbCircle
 62
7
  6
CONTINUOUS
 10
13.3154800158
 20
12.3563485002
 40
1.6959394389
100
AcDbArc
 50
345.5813476377
 51
345.755279519
  0
ARC
  5
40B
100
AcDbEntity
  8
0
100
AcDbCircle
 62
7
  6
CONTINUOUS
 10
13.3439878082
 20
12.3410970106
 40
1.6912707536
100
AcDbArc
 50
344.6785599492
 51
347.3894765252
  0
ARC
  5
40C
100
AcDbEntity
  8
0
100
AcDbCircle
 62
7
  6
CONTINUOUS
 10
13.4892155815
 20
12.3188998291
 40
1.5181717435
100
AcDbArc
 50
349.9297877305
 51
350.0467414202
  0
ARC
  5
40D
100
AcDbEntity
  8
0
100
AcDbCircle
 62
7
  6
CONTINUOUS
 10
13.8035510223
 20
12.4183153974
 40
0.073499091
100
AcDbArc
 50
261.525910572
 51
24.0323484272
  0
ARC
  5
40E
100
AcDbEntity
  8
0
100
AcDbCircle
 62
7
  6
CONTINUOUS
 10
13.7241104815
 20
12.3206330631
 40
0.0734823248
100
AcDbArc
 50
264.0665242564
 51
24.9515971792
  0
ARC
  5
40F
100
AcDbEntity
  8
0
100
AcDbCircle
 62
7
  6
CONTINUOUS
 10
13.8374382274
 20
12.3103815939
 40
1.2131519057
100
AcDbArc
 50
358.5155321955
 51
359.9970170055
  0
ARC
  5
410
100
AcDbEntity
  8
0
100
AcDbCircle
 62
7
  6
CONTINUOUS
 10
13.8637529659
 20
12.2705451385
 40
1.1656239858
100
AcDbArc
 50
358.3081256741
 51
359.9884468271
  0
ARC
  5
411
100
AcDbEntity
  8
0
100
AcDbCircle
 62
7
  6
CONTINUOUS
 10
13.9463789757
 20
12.270588119
 40
1.0829979881
100
AcDbArc
 50
359.9852915218
 51
3.5232451124
  0
ARC
  5
412
100
AcDbEntity
  8
0
100
AcDbCircle
 62
7
  6
CONTINUOUS
 10
13.9029565758
 20
11.8105685979
 40
0.7527992988
100
AcDbArc
 50
303.4820842752
 51
306.2537164588
  0
ARC
  5
413
100
AcDbEntity
  8
0
100
AcDbCircle
 62
7
  6
CONTINUOUS
 10
14.0243566771
 20
12.0039732232
 40
0.7434901666
100
AcDbArc
 50
353.7317471015
 51
356.5351175337
  0
ARC
  5
414
100
AcDbEntity
  8
0
100
AcDbCircle
 62
7
  6
CONTINUOUS
 10
14.1292279952
 20
12.0000575423
 40
0.6385194239
100
AcDbArc
 50
359.999299234
 51
0.4521588095
  0
ARC
  5
415
100
AcDbEntity
  8
0
100
AcDbCircle
 62
7
  6
CONTINUOUS
 10
14.5014757023
 20
12.1804837389
 40
0.5781187126
100
AcDbArc
 50
100.1759798791
 51
101.0057367858
  0
ARC
  5
416
100
AcDbEntity
  8
0
100
AcDbCircle
 62
7
  6
CONTINUOUS
 10
14.4901947859
 20
12.2809692802
 40
0.4769069886
100
AcDbArc
 50
90.7446240162
 51
92.9444096372
  0
ARC
  5
417
100
AcDbEntity
  8
0
100
AcDbCircle
 62
7
  6
CONTINUOUS
 10
14.0132500846
 20
11.896597427
 40
0.0735024464
100
AcDbArc
 50
260.4949139117
 51
38.4078360305
  0
ARC
  5
418
100
AcDbEntity
  8
0
100
AcDbCircle
 62
7
  6
CONTINUOUS
 10
14.1852448598
 20
12.1050787578
 40
0.0735002228
100
AcDbArc
 50
251.3784636472
 51
59.9994684158
  0
ARC
  5
419
100
AcDbEntity
  8
0
100
AcDbCircle
 62
7
  6
CONTINUOUS
 10
14.093277298
 20
12.0099341764
 40
0.0734991869
100
AcDbArc
 50
253.7633097564
 51
56.8255415713
  0
ARC
  5
41A
100
AcDbEntity
  8
0
100
AcDbCircle
 62
7
  6
CONTINUOUS
 10
14.4734808575
 20
12.229441988
 40
0.0734959114
100
AcDbArc
 50
239.9992432484
 51
60.0004265712
  0
ARC
  5
41B
100
AcDbEntity
  8
0
100
AcDbCircle
 62
7
  6
CONTINUOUS
 10
14.2833802938
 20
12.1760469972
 40
0.0734955469
100
AcDbArc
 50
250.2101501789
 51
59.9995394511
  0
ARC
  5
41C
100
AcDbEntity
  8
0
100
AcDbCircle
 62
7
  6
CONTINUOUS
 10
14.3815117771
 20
12.21835843
 40
0.0734647449
100
AcDbArc
 50
246.4974294265
 51
60.000514514
  0
ARC
  5
41D
100
AcDbEntity
  8
0
100
AcDbCircle
 62
7
  6
CONTINUOUS
 10
14.0934371209
 20
12.0102202465
 40
0.0731719798
100
AcDbArc
 50
56.8077185603
 51
59.9969475793
  0
ARC
  5
41E
100
AcDbEntity
  8
0
100
AcDbCircle
 62
7
  6
CONTINUOUS
 10
14.1974466595
 20
12.0749540592
 40
0.0641721901
100
AcDbArc
 50
181.5310053091
 51
183.3006127758
  0
ARC
  5
41F
100
AcDbEntity
  8
0
100
AcDbCircle
 62
7
  6
CONTINUOUS
 10
14.4490604479
 20
12.1871338404
 40
0.0246458329
100
AcDbArc
 50
233.1595924564
 51
239.9852407788
  0
ARC
  5
420
100
AcDbEntity
  8
0
100
AcDbCircle
 62
7
  6
CONTINUOUS
 10
14.2159007776
 20
12.3187099458
 40
0.7870316424
100
AcDbArc
 50
12.2648454867
 51
12.6088687741
  0
ARC
  5
421
100
AcDbEntity
  8
0
100
AcDbCircle
 62
7
  6
CONTINUOUS
 10
14.3505143383
 20
12.3575375789
 40
0.6468263958
100
AcDbArc
 50
19.803467509
 51
20.3950532101
  0
ARC
  5
422
100
AcDbEntity
  8
0
100
AcDbCircle
 62
7
  6
CONTINUOUS
 10
14.3571182773
 20
12.359993877
 40
0.6397804459
100
AcDbArc
 50
20.3949722699
 51
20.7759870802
  0
ARC
  5
423
100
AcDbEntity
  8
0
100
AcDbCircle
 62
7
  6
CONTINUOUS
 10
14.4481350823
 20
12.4012215604
 40
0.5397809079
100
AcDbArc
 50
28.4489201688
 51
28.8039893903
  0
ARC
  5
424
100
AcDbEntity
  8
0
100
AcDbCircle
 62
7
  6
CONTINUOUS
 10
14.4584805936
 20
12.4069827198
 40
0.527939607
100
AcDbArc
 50
28.7970729624
 51
30.5648679942
  0
ARC
  5
425
100
AcDbEntity
  8
0
100
AcDbCircle
 62
7
  6
CONTINUOUS
 10
14.4926376616
 20
12.3428057812
 40
0.4149740483
100
AcDbArc
 50
81.8434460132
 51
85.2215785517
  0
ARC
  5
426
100
AcDbEntity
  8
0
100
AcDbCircle
 62
7
  6
CONTINUOUS
 10
14.4942291762
 20
12.3541720886
 40
0.4034969216
100
AcDbArc
 50
80.8680635508
 51
81.838161101
  0
ARC
  5
427
100
AcDbEntity
  8
0
100
AcDbCircle
 62
7
  6
CONTINUOUS
 10
14.5001268687
 20
12.3825097597
 40
0.3745423303
100
AcDbArc
 50
70.4856465242
 51
77.7540848599
  0
ARC
  5
428
100
AcDbEntity
  8
0
100
AcDbCircle
 62
7
  6
CONTINUOUS
 10
14.5043473948
 20
12.3950434605
 40
0.3613188154
100
AcDbArc
 50
68.4957014641
 51
70.4525513319
  0
ARC
  5
429
100
AcDbEntity
  8
0
100
AcDbCircle
 62
7
  6
CONTINUOUS
 10
14.5044848911
 20
12.3981455009
 40
0.3585096936
100
AcDbArc
 50
46.5579742713
 51
58.4401610695
  0
ARC
  5
42A
100
AcDbEntity
  8
0
100
AcDbCircle
 62
7
  6
CONTINUOUS
 10
14.5056044487
 20
12.3982267164
 40
0.3578963462
100
AcDbArc
 50
67.0620506394
 51
68.4961274789
  0
ARC
  5
42B
100
AcDbEntity
  8
0
100
AcDbCircle
 62
7
  6
CONTINUOUS
 10
14.5074751793
 20
12.4024650928
 40
0.3532640288
100
AcDbArc
 50
58.4867388434
 51
67.073560885
  0
ARC
  5
42C
100
AcDbEntity
  8
0
100
AcDbCircle
 62
7
  6
CONTINUOUS
 10
14.4108345327
 20
12.7544502917
 40
0.1276023885
100
AcDbArc
 50
150.1411590531
 51
151.5185377281
  0
ARC
  5
42D
100
AcDbEntity
  8
0
100
AcDbCircle
 62
7
  6
CONTINUOUS
 10
14.495834512
 20
12.7769535189
 40
0.1245797847
100
AcDbArc
 50
143.6764979175
 51
146.6443033068
  0
ARC
  5
42E
100
AcDbEntity
  8
0
100
AcDbCircle
 62
7
  6
CONTINUOUS
 10
13.9745526008
 20
12.5876168769
 40
0.0742178761
100
AcDbArc
 50
32.1094067555
 51
43.7939019443
  0
ARC
  5
42F
100
AcDbEntity
  8
0
100
AcDbCircle
 62
7
  6
CONTINUOUS
 10
14.4247221792
 20
12.8181551438
 40
0.0737801609
100
AcDbArc
 50
245.4498898755
 51
253.2081915139
  0
ARC
  5
430
100
AcDbEntity
  8
0
100
AcDbCircle
 62
7
  6
CONTINUOUS
 10
13.9750895524
 20
12.5880082624
 40
0.0735596863
100
AcDbArc
 50
43.8634034756
 51
54.7522555222
  0
ARC
  5
431
100
AcDbEntity
  8
0
100
AcDbCircle
 62
7
  6
CONTINUOUS
 10
13.9751202364
 20
12.5880600096
 40
0.0735013653
100
AcDbArc
 50
258.2434485495
 51
32.0517879651
  0
ARC
  5
432
100
AcDbEntity
  8
0
100
AcDbCircle
 62
7
  6
CONTINUOUS
 10
14.2471823335
 20
12.7630978447
 40
0.0734998537
100
AcDbArc
 50
252.6955476733
 51
46.8968940836
  0
ARC
  5
433
100
AcDbEntity
  8
0
100
AcDbCircle
 62
7
  6
CONTINUOUS
 10
14.1561007606
 20
12.7165251178
 40
0.0734990004
100
AcDbArc
 50
254.9257724627
 51
49.3396818591
  0
ARC
  5
434
100
AcDbEntity
  8
0
100
AcDbCircle
 62
7
  6
CONTINUOUS
 10
14.0650189624
 20
12.6579243085
 40
0.0734981292
100
AcDbArc
 50
256.9300195241
 51
52.32598766
  0
ARC
  5
435
100
AcDbEntity
  8
0
100
AcDbCircle
 62
7
  6
CONTINUOUS
 10
13.8875876293
 20
12.5078408707
 40
0.0734979058
100
AcDbArc
 50
259.776779201
 51
24.9619240109
  0
ARC
  5
436
100
AcDbEntity
  8
0
100
AcDbCircle
 62
7
  6
CONTINUOUS
 10
14.5086478551
 20
12.8254001432
 40
0.0734945274
100
AcDbArc
 50
239.9988790925
 51
43.2407128816
  0
ARC
  5
437
100
AcDbEntity
  8
0
100
AcDbCircle
 62
7
  6
CONTINUOUS
 10
14.4246118751
 20
12.817875256
 40
0.0734803868
100
AcDbArc
 50
254.58081472
 51
44.2714958304
  0
ARC
  5
438
100
AcDbEntity
  8
0
100
AcDbCircle
 62
7
  6
CONTINUOUS
 10
14.3370776779
 20
12.7969940544
 40
0.0734591417
100
AcDbArc
 50
249.7552344895
 51
45.1262367633
  0
ARC
  5
439
100
AcDbEntity
  8
0
100
AcDbCircle
 62
7
  6
CONTINUOUS
 10
14.4245504547
 20
12.8176314226
 40
0.0732291615
100
AcDbArc
 50
253.2184426628
 51
254.5764171442
  0
ARC
  5
43A
100
AcDbEntity
  8
0
100
AcDbCircle
 62
7
  6
CONTINUOUS
 10
15.380283702
 20
11.0871180117
 40
2.079193648
100
AcDbArc
 50
148.6370724869
 51
152.2881110671
  0
ARC
  5
43B
100
AcDbEntity
  8
0
100
AcDbCircle
 62
7
  6
CONTINUOUS
 10
15.3614071678
 20
11.0989453453
 40
2.056919604
100
AcDbArc
 50
144.9520175883
 51
148.6447266914
  0
ARC
  5
43C
100
AcDbEntity
  8
0
100
AcDbCircle
 62
7
  6
CONTINUOUS
 10
15.3549740294
 20
11.1003266101
 40
2.0506447299
100
AcDbArc
 50
152.2859843832
 51
155.9706223092
  0
ARC
  5
43D
100
AcDbEntity
  8
0
100
AcDbCircle
 62
7
  6
CONTINUOUS
 10
15.3024255263
 20
11.1409619415
 40
1.9845045455
100
AcDbArc
 50
141.1945650091
 51
144.9672287818
  0
ARC
  5
43E
100
AcDbEntity
  8
0
100
AcDbCircle
 62
7
  6
CONTINUOUS
 10
15.2862484957
 20
11.1311280426
 40
1.9753326798
100
AcDbArc
 50
155.9748774512
 51
159.7450598184
  0
ARC
  5
43F
100
AcDbEntity
  8
0
100
AcDbCircle
 62
7
  6
CONTINUOUS
 10
15.2123406685
 20
11.2144689777
 40
1.8682383113
100
AcDbArc
 50
137.2951196342
 51
141.2199669829
  0
ARC
  5
440
100
AcDbEntity
  8
0
100
AcDbCircle
 62
7
  6
CONTINUOUS
 10
15.1760647175
 20
11.1722447978
 40
1.8577280155
100
AcDbArc
 50
159.7582835204
 51
163.6715376097
  0
ARC
  5
441
100
AcDbEntity
  8
0
100
AcDbCircle
 62
7
  6
CONTINUOUS
 10
15.2092761483
 20
11.1859225282
 40
1.8257384745
100
AcDbArc
 50
148.5085833482
 51
148.6904684684
  0
ARC
  5
442
100
AcDbEntity
  8
0
100
AcDbCircle
 62
7
  6
CONTINUOUS
 10
15.2082331042
 20
11.1865613982
 40
1.8245153246
100
AcDbArc
 50
148.3576663982
 51
148.5085808478
  0
ARC
  5
443
100
AcDbEntity
  8
0
100
AcDbCircle
 62
7
  6
CONTINUOUS
 10
15.2011434473
 20
11.1900862278
 40
1.8166083549
100
AcDbArc
 50
152.3339407356
 51
152.4574779657
  0
ARC
  5
444
100
AcDbEntity
  8
0
100
AcDbCircle
 62
7
  6
CONTINUOUS
 10
15.2005536873
 20
11.1903936233
 40
1.8159432919
100
AcDbArc
 50
152.4712427654
 51
152.6191217459
  0
ARC
  5
445
100
AcDbEntity
  8
0
100
AcDbCircle
 62
7
  6
CONTINUOUS
 10
15.1738159657
 20
11.2095781615
 40
1.7831030228
100
AcDbArc
 50
144.5578394448
 51
144.6860912172
  0
ARC
  5
446
100
AcDbEntity
  8
0
100
AcDbCircle
 62
7
  6
CONTINUOUS
 10
15.1708997738
 20
11.2116563992
 40
1.7795220656
100
AcDbArc
 50
144.3675503891
 51
144.489742864
  0
ARC
  5
447
100
AcDbEntity
  8
0
100
AcDbCircle
 62
7
  6
CONTINUOUS
 10
15.1023674943
 20
11.3174623353
 40
1.7175717366
100
AcDbArc
 50
133.1906302267
 51
137.3317846249
  0
ARC
  5
448
100
AcDbEntity
  8
0
100
AcDbCircle
 62
7
  6
CONTINUOUS
 10
15.0311901265
 20
11.2154123479
 40
1.7065606997
100
AcDbArc
 50
163.6949007694
 51
167.8159682809
  0
ARC
  5
449
100
AcDbEntity
  8
0
100
AcDbCircle
 62
7
  6
CONTINUOUS
 10
15.0990013484
 20
11.2671183059
 40
1.688699073
100
AcDbArc
 50
140.3242094236
 51
140.5394314559
  0
ARC
  5
44A
100
AcDbEntity
  8
0
100
AcDbCircle
 62
7
  6
CONTINUOUS
 10
15.0554165181
 20
11.2509489468
 40
1.6585718844
100
AcDbArc
 50
160.4616344319
 51
160.7829706299
  0
ARC
  5
44B
100
AcDbEntity
  8
0
100
AcDbCircle
 62
7
  6
CONTINUOUS
 10
14.9987274273
 20
11.3566277324
 40
1.5542555209
100
AcDbArc
 50
136.0026022624
 51
136.2908490376
  0
ARC
  5
44C
100
AcDbEntity
  8
0
100
AcDbCircle
 62
7
  6
CONTINUOUS
 10
14.9854241001
 20
11.4438210115
 40
1.545407245
100
AcDbArc
 50
128.8691594655
 51
133.2359448405
  0
ARC
  5
44D
100
AcDbEntity
  8
0
100
AcDbCircle
 62
7
  6
CONTINUOUS
 10
14.8565496638
 20
11.2539117166
 40
1.5277279463
100
AcDbArc
 50
167.9337747954
 51
172.2650371237
  0
ARC
  5
44E
100
AcDbEntity
  8
0
100
AcDbCircle
 62
7
  6
CONTINUOUS
 10
14.9210738331
 20
11.2925412314
 40
1.5179034994
100
AcDbArc
 50
164.8265037215
 51
165.1325586519
  0
ARC
  5
44F
100
AcDbEntity
  8
0
100
AcDbCircle
 62
7
  6
CONTINUOUS
 10
14.8856356371
 20
11.4744603723
 40
1.3908913617
100
AcDbArc
 50
131.4528642765
 51
131.7154653367
  0
ARC
  5
450
100
AcDbEntity
  8
0
100
AcDbCircle
 62
7
  6
CONTINUOUS
 10
14.8788259657
 20
11.5773244888
 40
1.3745677434
100
AcDbArc
 50
124.145198585
 51
128.8378724987
  0
ARC
  5
451
100
AcDbEntity
  8
0
100
AcDbCircle
 62
7
  6
CONTINUOUS
 10
14.5153088383
 20
11.2812414947
 40
1.1985445697
100
AcDbArc
 50
176.7733843062
 51
179.9860771029
  0
ARC
  5
452
100
AcDbEntity
  8
0
100
AcDbCircle
 62
7
  6
CONTINUOUS
 10
14.5189325539
 20
11.2890897036
 40
1.1880262699
100
AcDbArc
 50
177.2903979274
 51
179.9706773736
  0
ARC
  5
453
100
AcDbEntity
  8
0
100
AcDbCircle
 62
7
  6
CONTINUOUS
 10
14.7708195292
 20
11.7372875603
 40
1.1815538249
100
AcDbArc
 50
118.7698826422
 51
124.0648315804
  0
ARC
  5
454
100
AcDbEntity
  8
0
100
AcDbCircle
 62
7
  6
CONTINUOUS
 10
14.6723392291
 20
11.7627398928
 40
1.0317985407
100
AcDbArc
 50
121.0911911442
 51
121.2893052619
  0
ARC
  5
455
100
AcDbEntity
  8
0
100
AcDbCircle
 62
9
  6
CONTINUOUS
 10
15.8500031925
 20
11.2739058543
 40
0.2951544842
100
AcDbArc
 50
88.5372547403
 51
89.4842507036
  0
ARC
  5
456
100
AcDbEntity
  8
0
100
AcDbCircle
 62
9
  6
CONTINUOUS
 10
15.8548198152
 20
11.317804617
 40
0.2509241135
100
AcDbArc
 50
75.4590496802
 51
79.9395298263
  0
ARC
  5
457
100
AcDbEntity
  8
0
100
AcDbCircle
 62
9
  6
CONTINUOUS
 10
15.8577735825
 20
11.3288077109
 40
0.2395318774
100
AcDbArc
 50
68.3177750736
 51
75.4821529424
  0
ARC
  5
458
100
AcDbEntity
  8
0
100
AcDbCircle
 62
9
  6
CONTINUOUS
 10
15.8611078875
 20
11.3372868728
 40
0.2304207548
100
AcDbArc
 50
60.0089143165
 51
68.3092449564
  0
ARC
  5
459
100
AcDbEntity
  8
0
100
AcDbCircle
 62
7
  6
CONTINUOUS
 10
14.5330402127
 20
12.0589681076
 40
0.7037563039
100
AcDbArc
 50
107.8272110734
 51
108.5239097446
  0
ARC
  5
45A
100
AcDbEntity
  8
0
100
AcDbCircle
 62
7
  6
CONTINUOUS
 10
14.7499804228
 20
11.9343750414
 40
0.1264655087
100
AcDbArc
 50
145.3470168725
 51
151.6456527165
  0
ARC
  5
45B
100
AcDbEntity
  8
0
100
AcDbCircle
 62
7
  6
CONTINUOUS
 10
14.5535057388
 20
12.2085128059
 40
0.0734995867
100
AcDbArc
 50
240.0002878508
 51
60.0001337449
  0
ARC
  5
45C
100
AcDbEntity
  8
0
100
AcDbCircle
 62
7
  6
CONTINUOUS
 10
14.658672009
 20
12.0778790233
 40
0.0734994277
100
AcDbArc
 50
239.9998302399
 51
59.9986318634
  0
ARC
  5
45D
100
AcDbEntity
  8
0
100
AcDbCircle
 62
7
  6
CONTINUOUS
 10
14.6165576735
 20
12.1569115946
 40
0.0734974086
100
AcDbArc
 50
239.99974423
 51
60.000377413
  0
ARC
  5
45E
100
AcDbEntity
  8
0
100
AcDbCircle
 62
7
  6
CONTINUOUS
 10
14.6772117782
 20
11.9763881182
 40
0.0734943972
100
AcDbArc
 50
327.1837862115
 51
55.2205669024
  0
ARC
  5
45F
100
AcDbEntity
  8
0
100
AcDbCircle
 62
7
  6
CONTINUOUS
 10
14.5332145134
 20
12.4265357596
 40
0.4671717685
100
AcDbArc
 50
37.11029965
 51
37.7650943705
  0
ARC
  5
460
100
AcDbEntity
  8
0
100
AcDbCircle
 62
7
  6
CONTINUOUS
 10
14.5366582788
 20
12.4292002839
 40
0.4628175519
100
AcDbArc
 50
37.7654246826
 51
38.5975392788
  0
ARC
  5
461
100
AcDbEntity
  8
0
100
AcDbCircle
 62
7
  6
CONTINUOUS
 10
14.5240239394
 20
12.4523770221
 40
0.4481043528
100
AcDbArc
 50
38.2164312667
 51
42.6097937216
  0
ARC
  5
462
100
AcDbEntity
  8
0
100
AcDbCircle
 62
7
  6
CONTINUOUS
 10
14.5729183989
 20
12.4542705389
 40
0.4209265044
100
AcDbArc
 50
71.0507325498
 51
75.1504423305
  0
ARC
  5
463
100
AcDbEntity
  8
0
100
AcDbCircle
 62
7
  6
CONTINUOUS
 10
14.5518775992
 20
12.4807841291
 40
0.4082719429
100
AcDbArc
 50
48.9380091399
 51
54.2715199628
  0
ARC
  5
464
100
AcDbEntity
  8
0
100
AcDbCircle
 62
7
  6
CONTINUOUS
 10
14.577274846
 20
12.4666084338
 40
0.4078425867
100
AcDbArc
 50
64.1509872369
 51
71.0667283432
  0
ARC
  5
465
100
AcDbEntity
  8
0
100
AcDbCircle
 62
7
  6
CONTINUOUS
 10
14.5779026709
 20
12.4693749707
 40
0.4051064166
100
AcDbArc
 50
48.7062599555
 51
59.7843085888
  0
ARC
  5
466
100
AcDbEntity
  8
0
100
AcDbCircle
 62
7
  6
CONTINUOUS
 10
14.5547411659
 20
12.4847074302
 40
0.4034148696
100
AcDbArc
 50
54.2762967772
 51
55.5238164073
  0
ARC
  5
467
100
AcDbEntity
  8
0
100
AcDbCircle
 62
7
  6
CONTINUOUS
 10
14.5803518067
 20
12.4732116269
 40
0.4005585254
100
AcDbArc
 50
60.0028885546
 51
64.1352670879
  0
ARC
  5
468
100
AcDbEntity
  8
0
100
AcDbCircle
 62
7
  6
CONTINUOUS
 10
14.57044267
 20
12.791978642
 40
0.1125205169
100
AcDbArc
 50
135.8424281111
 51
141.4869713698
  0
ARC
  5
469
100
AcDbEntity
  8
0
100
AcDbCircle
 62
7
  6
CONTINUOUS
 10
14.7291101271
 20
12.7677352302
 40
0.0734998535
100
AcDbArc
 50
240.0001387489
 51
44.4218323744
  0
ARC
  5
46A
100
AcDbEntity
  8
0
100
AcDbCircle
 62
7
  6
CONTINUOUS
 10
14.6618965827
 20
12.8001605969
 40
0.0734993698
100
AcDbArc
 50
240.0000955039
 51
39.4143171222
  0
ARC
  5
46B
100
AcDbEntity
  8
0
100
AcDbCircle
 62
7
  6
CONTINUOUS
 10
14.5880878004
 20
12.8194658317
 40
0.0734975352
100
AcDbArc
 50
239.9996500212
 51
40.8360770913
  0
ARC
  5
46C
100
AcDbEntity
  8
0
100
AcDbCircle
 62
7
  6
CONTINUOUS
 10
15.0079646742
 20
12.0866012499
 40
0.1113541729
100
AcDbArc
 50
137.3323826108
 51
138.6624064438
  0
ARC
  5
46D
100
AcDbEntity
  8
0
100
AcDbCircle
 62
7
  6
CONTINUOUS
 10
14.9820921292
 20
11.9805896333
 40
0.1004261064
100
AcDbArc
 50
133.0571218298
 51
133.6233576391
  0
ARC
  5
46E
100
AcDbEntity
  8
0
100
AcDbCircle
 62
7
  6
CONTINUOUS
 10
14.9471312308
 20
12.1195253022
 40
0.0738463356
100
AcDbArc
 50
242.8591787811
 51
250.5818802277
  0
ARC
  5
46F
100
AcDbEntity
  8
0
100
AcDbCircle
 62
7
  6
CONTINUOUS
 10
14.9548044379
 20
12.2286702069
 40
0.0735002509
100
AcDbArc
 50
240.0004483908
 51
46.6832887999
  0
ARC
  5
470
100
AcDbEntity
  8
0
100
AcDbCircle
 62
7
  6
CONTINUOUS
 10
14.9006883464
 20
11.889030866
 40
0.0734995962
100
AcDbArc
 50
297.2415114024
 51
41.5635232729
  0
ARC
  5
471
100
AcDbEntity
  8
0
100
AcDbCircle
 62
7
  6
CONTINUOUS
 10
14.9469981054
 20
12.1192035687
 40
0.0734993752
100
AcDbArc
 50
271.3908411287
 51
44.3971864915
  0
ARC
  5
472
100
AcDbEntity
  8
0
100
AcDbCircle
 62
7
  6
CONTINUOUS
 10
14.9288811268
 20
12.0054960545
 40
0.0734985006
100
AcDbArc
 50
275.4855017719
 51
42.894577905
  0
ARC
  5
473
100
AcDbEntity
  8
0
100
AcDbCircle
 62
7
  6
CONTINUOUS
 10
14.9522008487
 20
12.3324689401
 40
0.0734982256
100
AcDbArc
 50
239.9993137486
 51
44.844544584
  0
ARC
  5
474
100
AcDbEntity
  8
0
100
AcDbCircle
 62
7
  6
CONTINUOUS
 10
14.9522893876
 20
12.3325447426
 40
0.0733823102
100
AcDbArc
 50
46.3575398142
 51
49.5339774214
  0
ARC
  5
475
100
AcDbEntity
  8
0
100
AcDbCircle
 62
7
  6
CONTINUOUS
 10
14.9524481947
 20
12.332716502
 40
0.0731484131
100
AcDbArc
 50
44.843681242
 51
46.3547056031
  0
ARC
  5
476
100
AcDbEntity
  8
0
100
AcDbCircle
 62
7
  6
CONTINUOUS
 10
14.9467980571
 20
12.1188644509
 40
0.0731062653
100
AcDbArc
 50
240.002544345
 51
242.8552763979
  0
ARC
  5
477
100
AcDbEntity
  8
0
100
AcDbCircle
 62
7
  6
CONTINUOUS
 10
14.9388581995
 20
12.4287988871
 40
0.0740680799
100
AcDbArc
 50
49.399945801
 51
53.1109283126
  0
ARC
  5
478
100
AcDbEntity
  8
0
100
AcDbCircle
 62
7
  6
CONTINUOUS
 10
14.9159860685
 20
12.5177109872
 40
0.0735423542
100
AcDbArc
 50
53.2658927772
 51
58.6625469727
  0
ARC
  5
479
100
AcDbEntity
  8
0
100
AcDbCircle
 62
7
  6
CONTINUOUS
 10
14.8403494057
 20
12.6653850631
 40
0.0734995162
100
AcDbArc
 50
239.9997564533
 51
36.7842668343
  0
ARC
  5
47A
100
AcDbEntity
  8
0
100
AcDbCircle
 62
7
  6
CONTINUOUS
 10
14.7888546729
 20
12.7226135045
 40
0.0734992241
100
AcDbArc
 50
239.9995100401
 51
42.0081748557
  0
ARC
  5
47B
100
AcDbEntity
  8
0
100
AcDbCircle
 62
7
  6
CONTINUOUS
 10
14.8829334285
 20
12.5968036932
 40
0.0734873462
100
AcDbArc
 50
239.9996067192
 51
57.1173853434
  0
ARC
  5
47C
100
AcDbEntity
  8
0
100
AcDbCircle
 62
7
  6
CONTINUOUS
 10
14.916048977
 20
12.5177558859
 40
0.0734691337
100
AcDbArc
 50
239.9994490915
 51
53.2842680467
  0
ARC
  5
47D
100
AcDbEntity
  8
0
100
AcDbCircle
 62
7
  6
CONTINUOUS
 10
14.9392489886
 20
12.429263481
 40
0.0734623564
100
AcDbArc
 50
239.9995207342
 51
49.3955536448
  0
ARC
  5
47E
100
AcDbEntity
  8
0
100
AcDbCircle
 62
7
  6
CONTINUOUS
 10
14.883012859
 20
12.596954489
 40
0.0733176417
100
AcDbArc
 50
57.1055339341
 51
59.9979881152
  0
LINE
  5
47F
100
AcDbEntity
  8
0
100
AcDbLine
 62
7
  6
CONTINUOUS
 10
6.9666662311
 20
4.8378750909
 11
7.033664472
 21
4.8161060429
  0
LINE
  5
480
100
AcDbEntity
  8
0
100
AcDbLine
 62
7
  6
CONTINUOUS
 10
6.9213919626
 20
4.7215890759
 11
6.9854720067
 21
4.6923247003
  0
LINE
  5
481
100
AcDbEntity
  8
0
100
AcDbLine
 62
7
  6
CONTINUOUS
 10
4.8431120907
 20
5.5976935609
 11
4.9087582954
 21
5.572135166
  0
LINE
  5
482
100
AcDbEntity
  8
0
100
AcDbLine
 62
7
  6
CONTINUOUS
 10
6.8631571969
 20
4.6112219216
 11
6.9234836629
 21
4.5748437244
  0
LINE
  5
483
100
AcDbEntity
  8
0
100
AcDbLine
 62
7
  6
CONTINUOUS
 10
6.7927211134
 20
4.5082124326
 11
6.8485075535
 21
4.4651946592
  0
LINE
  5
484
100
AcDbEntity
  8
0
100
AcDbLine
 62
7
  6
CONTINUOUS
 10
6.7110019539
 20
4.4139034953
 11
6.7615211067
 21
4.3648069481
  0
LINE
  5
485
100
AcDbEntity
  8
0
100
AcDbLine
 62
7
  6
CONTINUOUS
 10
4.802064752
 20
5.4713628423
 11
4.8701964948
 21
5.4534541472
  0
LINE
  5
486
100
AcDbEntity
  8
0
100
AcDbLine
 62
7
  6
CONTINUOUS
 10
6.6190650529
 20
4.3295245707
 11
6.6636583238
 21
4.2749892984
  0
LINE
  5
487
100
AcDbEntity
  8
0
100
AcDbLine
 62
7
  6
CONTINUOUS
 10
6.5181089483
 20
4.2561756673
 11
6.5561949959
 21
4.1969126205
  0
LINE
  5
488
100
AcDbEntity
  8
0
100
AcDbLine
 62
7
  6
CONTINUOUS
 10
7.0787628168
 20
5.3411765367
 11
7.0090337374
 21
5.3311510087
  0
LINE
  5
489
100
AcDbEntity
  8
0
100
AcDbLine
 62
7
  6
CONTINUOUS
 10
7.0523836522
 20
5.4713628423
 11
6.9842519095
 21
5.4534541472
  0
LINE
  5
48A
100
AcDbEntity
  8
0
100
AcDbLine
 62
7
  6
CONTINUOUS
 10
7.0113363135
 20
5.5976935609
 11
6.9456901089
 21
5.572135166
  0
LINE
  5
48B
100
AcDbEntity
  8
0
100
AcDbLine
 62
7
  6
CONTINUOUS
 10
6.4094497574
 20
4.1948130001
 11
6.4405320718
 21
4.1315947633
  0
LINE
  5
48C
100
AcDbEntity
  8
0
100
AcDbLine
 62
7
  6
CONTINUOUS
 10
6.9561559155
 20
5.7185217784
 11
6.8938510477
 21
5.6856468765
  0
LINE
  5
48D
100
AcDbEntity
  8
0
100
AcDbLine
 62
7
  6
CONTINUOUS
 10
6.8875618191
 20
5.8322723143
 11
6.8294105273
 21
5.7925094799
  0
LINE
  5
48E
100
AcDbEntity
  8
0
100
AcDbLine
 62
7
  6
CONTINUOUS
 10
4.7756855875
 20
5.3411765367
 11
4.8454146669
 21
5.3311510087
  0
LINE
  5
48F
100
AcDbEntity
  8
0
100
AcDbLine
 62
7
  6
CONTINUOUS
 10
6.8064482531
 20
5.9374622563
 11
6.7532086284
 21
5.8913298588
  0
LINE
  5
490
100
AcDbEntity
  8
0
100
AcDbLine
 62
7
  6
CONTINUOUS
 10
6.294504019
 20
4.1462365254
 11
6.3181773946
 21
4.0798872449
  0
LINE
  5
491
100
AcDbEntity
  8
0
100
AcDbLine
 62
7
  6
CONTINUOUS
 10
6.7138726571
 20
6.0327202926
 11
6.6662387594
 21
5.9808197385
  0
LINE
  5
492
100
AcDbEntity
  8
0
100
AcDbLine
 62
7
  6
CONTINUOUS
 10
6.6110418954
 20
6.1168045892
 11
6.5696347054
 21
6.0598124814
  0
LINE
  5
493
100
AcDbEntity
  8
0
100
AcDbLine
 62
7
  6
CONTINUOUS
 10
6.4992965243
 20
6.1886189786
 11
6.464655848
 21
6.1272782965
  0
LINE
  5
494
100
AcDbEntity
  8
0
100
AcDbLine
 62
7
  6
CONTINUOUS
 10
6.3800933157
 20
6.2472272503
 11
6.3526707473
 21
6.1823376635
  0
LINE
  5
495
100
AcDbEntity
  8
0
100
AcDbLine
 62
7
  6
CONTINUOUS
 10
6.2549862656
 20
6.2918653561
 11
6.2351393002
 21
6.2242727995
  0
LINE
  5
496
100
AcDbEntity
  8
0
100
AcDbLine
 62
7
  6
CONTINUOUS
 10
6.1256063357
 20
6.3219513698
 11
6.1135937089
 21
6.2525370158
  0
LINE
  5
497
100
AcDbEntity
  8
0
100
AcDbLine
 62
7
  6
CONTINUOUS
 10
5.9936401913
 20
6.3370930743
 11
5.9896185061
 21
6.2667618452
  0
LINE
  5
498
100
AcDbEntity
  8
0
100
AcDbLine
 62
7
  6
CONTINUOUS
 10
6.1747702264
 20
4.1110795118
 11
6.1907260447
 21
4.042464152
  0
LINE
  5
499
100
AcDbEntity
  8
0
100
AcDbLine
 62
7
  6
CONTINUOUS
 10
6.0518092929
 20
4.0898002847
 11
6.0598395453
 21
4.0198133518
  0
LINE
  5
49A
100
AcDbEntity
  8
0
100
AcDbLine
 62
7
  6
CONTINUOUS
 10
5.9272242021
 20
4.0826762515
 11
5.9272242021
 21
4.0122301321
  0
LINE
  5
49B
100
AcDbEntity
  8
0
100
AcDbLine
 62
7
  6
CONTINUOUS
 10
5.8026391114
 20
4.0898002847
 11
5.7946088589
 21
4.0198133518
  0
LINE
  5
49C
100
AcDbEntity
  8
0
100
AcDbLine
 62
7
  6
CONTINUOUS
 10
4.8347358807
 20
5.2068201589
 11
4.7643184898
 21
5.2088318218
  0
LINE
  5
49D
100
AcDbEntity
  8
0
100
AcDbLine
 62
7
  6
CONTINUOUS
 10
5.6796781778
 20
4.1110795118
 11
5.6637223595
 21
4.042464152
  0
LINE
  5
49E
100
AcDbEntity
  8
0
100
AcDbLine
 62
7
  6
CONTINUOUS
 10
5.5599443853
 20
4.1462365254
 11
5.5362710096
 21
4.0798872449
  0
LINE
  5
49F
100
AcDbEntity
  8
0
100
AcDbLine
 62
7
  6
CONTINUOUS
 10
5.4449986468
 20
4.1948130001
 11
5.4139163325
 21
4.1315947633
  0
LINE
  5
4A0
100
AcDbEntity
  8
0
100
AcDbLine
 62
7
  6
CONTINUOUS
 10
5.3363394559
 20
4.2561756673
 11
5.2982534084
 21
4.1969126205
  0
LINE
  5
4A1
100
AcDbEntity
  8
0
100
AcDbLine
 62
7
  6
CONTINUOUS
 10
5.2353833514
 20
4.3295245707
 11
5.1907900805
 21
4.2749892984
  0
LINE
  5
4A2
100
AcDbEntity
  8
0
100
AcDbLine
 62
7
  6
CONTINUOUS
 10
5.7288420686
 20
6.3219513698
 11
5.7408546953
 21
6.2525370158
  0
LINE
  5
4A3
100
AcDbEntity
  8
0
100
AcDbLine
 62
7
  6
CONTINUOUS
 10
5.1434464503
 20
4.4139034953
 11
5.0929272976
 21
4.3648069481
  0
LINE
  5
4A4
100
AcDbEntity
  8
0
100
AcDbLine
 62
7
  6
CONTINUOUS
 10
5.0617272909
 20
4.5082124326
 11
5.0059408508
 21
4.4651946592
  0
LINE
  5
4A5
100
AcDbEntity
  8
0
100
AcDbLine
 62
7
  6
CONTINUOUS
 10
4.9912912073
 20
4.6112219216
 11
4.9309647413
 21
4.5748437244
  0
LINE
  5
4A6
100
AcDbEntity
  8
0
100
AcDbLine
 62
7
  6
CONTINUOUS
 10
5.5994621387
 20
6.2918653561
 11
5.619309104
 21
6.2242727995
  0
LINE
  5
4A7
100
AcDbEntity
  8
0
100
AcDbLine
 62
7
  6
CONTINUOUS
 10
4.9330564417
 20
4.7215890759
 11
4.8689763975
 21
4.6923247003
  0
LINE
  5
4A8
100
AcDbEntity
  8
0
100
AcDbLine
 62
7
  6
CONTINUOUS
 10
4.8877821732
 20
4.8378750909
 11
4.8207839323
 21
4.8161060429
  0
LINE
  5
4A9
100
AcDbEntity
  8
0
100
AcDbLine
 62
7
  6
CONTINUOUS
 10
4.8560586211
 20
4.9585640007
 11
4.787015608
 21
4.944574073
  0
LINE
  5
4AA
100
AcDbEntity
  8
0
100
AcDbLine
 62
7
  6
CONTINUOUS
 10
5.4743550886
 20
6.2472272503
 11
5.5017776569
 21
6.1823376635
  0
LINE
  5
4AB
100
AcDbEntity
  8
0
100
AcDbLine
 62
7
  6
CONTINUOUS
 10
4.8382993505
 20
5.0820824406
 11
4.7681116465
 21
5.0760540133
  0
LINE
  5
4AC
100
AcDbEntity
  8
0
100
AcDbLine
 62
7
  6
CONTINUOUS
 10
5.3551518799
 20
6.1886189786
 11
5.3897925562
 21
6.1272782965
  0
LINE
  5
4AD
100
AcDbEntity
  8
0
100
AcDbLine
 62
7
  6
CONTINUOUS
 10
5.2434065088
 20
6.1168045892
 11
5.2848136989
 21
6.0598124814
  0
LINE
  5
4AE
100
AcDbEntity
  8
0
100
AcDbLine
 62
7
  6
CONTINUOUS
 10
5.1405757472
 20
6.0327202926
 11
5.1882096449
 21
5.9808197385
  0
LINE
  5
4AF
100
AcDbEntity
  8
0
100
AcDbLine
 62
7
  6
CONTINUOUS
 10
5.0480001511
 20
5.9374622563
 11
5.1012397759
 21
5.8913298588
  0
LINE
  5
4B0
100
AcDbEntity
  8
0
100
AcDbLine
 62
7
  6
CONTINUOUS
 10
4.9668865852
 20
5.8322723143
 11
5.025037877
 21
5.7925094799
  0
LINE
  5
4B1
100
AcDbEntity
  8
0
100
AcDbLine
 62
7
  6
CONTINUOUS
 10
5.8608082129
 20
6.3370930743
 11
5.8648298981
 21
6.2667618452
  0
LINE
  5
4B2
100
AcDbEntity
  8
0
100
AcDbLine
 62
7
  6
CONTINUOUS
 10
7.0197125235
 20
5.2068201589
 11
7.0901299145
 21
5.2088318218
  0
LINE
  5
4B3
100
AcDbEntity
  8
0
100
AcDbLine
 62
7
  6
CONTINUOUS
 10
7.0161490537
 20
5.0820824406
 11
7.0863367578
 21
5.0760540133
  0
LINE
  5
4B4
100
AcDbEntity
  8
0
100
AcDbLine
 62
7
  6
CONTINUOUS
 10
4.8982924887
 20
5.7185217784
 11
4.9605973566
 21
5.6856468765
  0
LINE
  5
4B5
100
AcDbEntity
  8
0
100
AcDbLine
 62
7
  6
CONTINUOUS
 10
6.9983897832
 20
4.9585640007
 11
7.0674327962
 21
4.944574073
  0
SPLINE
  5
4B6
100
AcDbEntity
  8
0
100
AcDbSpline
 62
7
  6
CONTINUOUS
 70
0
 71
3
 72
12
 73
8
 74
0
 42
0.0000001
 43
0.0000001
 44
0.0000000001
 40
0.0
 40
0.0
 40
0.0
 40
0.0
 40
0.254978464
 40
0.5080959197
 40
0.6331219122
 40
0.7568163158
 40
1.0
 40
1.0
 40
1.0
 40
1.0
 10
16.3413665709
 20
5.9450560054
 30
0.0
 10
16.3317590033
 20
5.9383166206
 30
0.0
 10
16.3124348605
 20
5.9251465812
 30
0.0
 10
16.2885250149
 20
5.9084816089
 30
0.0
 10
16.2700755882
 20
5.894576515
 30
0.0
 10
16.2524851108
 20
5.8803229317
 30
0.0
 10
16.2400885505
 20
5.8687856243
 30
0.0
 10
16.2324438543
 20
5.8606102793
 30
0.0
  0
SPLINE
  5
4B7
100
AcDbEntity
  8
0
100
AcDbSpline
 62
7
  6
CONTINUOUS
 70
0
 71
3
 72
13
 73
9
 74
0
 42
0.0000001
 43
0.0000001
 44
0.0000000001
 40
0.0
 40
0.0
 40
0.0
 40
0.0
 40
0.2547272552
 40
0.3817564654
 40
0.5080173307
 40
0.6331565597
 40
0.7569200802
 40
1.0
 40
1.0
 40
1.0
 40
1.0
 10
16.3477790496
 20
4.4016343885
 30
0.0
 10
16.3376853842
 20
4.4088206682
 30
0.0
 10
16.3223574931
 20
4.4193057848
 30
0.0
 10
16.3020103266
 20
4.4333282158
 30
0.0
 10
16.2869885867
 20
4.4439683679
 30
0.0
 10
16.2723490878
 20
4.4548701802
 30
0.0
 10
16.2536703278
 20
4.469829654
 30
0.0
 10
16.2405196669
 20
4.4819738923
 30
0.0
 10
16.2324438543
 20
4.4906102793
 30
0.0
  0
LINE
  5
4B8
100
AcDbEntity
  8
0
100
AcDbLine
 62
7
  6
CONTINUOUS
 10
16.3776774811
 20
5.0785856903
 11
16.3783543527
 21
5.078310521
  0
LINE
  5
4B9
100
AcDbEntity
  8
0
100
AcDbLine
 62
7
  6
CONTINUOUS
 10
16.3772711552
 20
5.2078796685
 11
16.3782227471
 21
5.2080644862
  0
SPLINE
  5
4BA
100
AcDbEntity
  8
0
100
AcDbSpline
 62
7
  6
CONTINUOUS
 70
0
 71
3
 72
17
 73
13
 74
0
 42
0.0000001
 43
0.0000001
 44
0.0000000001
 40
0.0
 40
0.0
 40
0.0
 40
0.0
 40
0.0214413266
 40
0.04986303
 40
0.0851277264
 40
0.1270588593
 40
0.2297157353
 40
0.3547698312
 40
0.498726378
 40
0.6574920264
 40
0.8265023113
 40
1.0
 40
1.0
 40
1.0
 40
1.0
 10
16.2102939359
 20
5.1405682887
 30
0.0
 10
16.2104453685
 20
5.1405207299
 30
0.0
 10
16.2108048159
 20
5.1404340362
 30
0.0
 10
16.2114250618
 20
5.1403222607
 30
0.0
 10
16.2121994736
 20
5.1402132237
 30
0.0
 10
16.2135224408
 20
5.1400628168
 30
0.0
 10
16.2155120936
 20
5.1398976912
 30
0.0
 10
16.2182586787
 20
5.1397335517
 30
0.0
 10
16.2214227482
 20
5.1396003085
 30
0.0
 10
16.2249135637
 20
5.1395015039
 30
0.0
 10
16.2286239658
 20
5.1394413504
 30
0.0
 10
16.2311594916
 20
5.1394275945
 30
0.0
 10
16.2324438543
 20
5.1394275945
 30
0.0
  0
SPLINE
  5
4BB
100
AcDbEntity
  8
0
100
AcDbSpline
 62
7
  6
CONTINUOUS
 70
0
 71
3
 72
12
 73
8
 74
0
 42
0.0000001
 43
0.0000001
 44
0.0000000001
 40
0.0
 40
0.0
 40
0.0
 40
0.0
 40
0.0950699083
 40
0.2015405991
 40
0.4436617651
 40
0.7147848497
 40
1.0
 40
1.0
 40
1.0
 40
1.0
 10
16.2143694382
 20
5.2818933468
 30
0.0
 10
16.2149286859
 20
5.2820331071
 30
0.0
 10
16.2161230436
 20
5.2822945188
 30
0.0
 10
16.2187739378
 20
5.2827554242
 30
0.0
 10
16.2225082747
 20
5.2831968183
 30
0.0
 10
16.2273406442
 20
5.283515441
 30
0.0
 10
16.2307144811
 20
5.2835877109
 30
0.0
 10
16.2324438543
 20
5.2835877109
 30
0.0
  0
SPLINE
  5
4BC
100
AcDbEntity
  8
0
100
AcDbSpline
 62
7
  6
CONTINUOUS
 70
0
 71
3
 72
13
 73
9
 74
0
 42
0.0000001
 43
0.0000001
 44
0.0000000001
 40
0.0
 40
0.0
 40
0.0
 40
0.0
 40
0.2546962268
 40
0.3817307621
 40
0.5080038252
 40
0.6331562062
 40
0.7569285002
 40
1.0
 40
1.0
 40
1.0
 40
1.0
 10
6.7016932077
 20
12.7459403256
 30
0.0
 10
6.6944571285
 20
12.735795459
 30
0.0
 10
6.6839073942
 20
12.7203821718
 30
0.0
 10
6.6698088088
 20
12.6999136775
 30
0.0
 10
6.659113173
 20
12.6847981309
 30
0.0
 10
6.6481558057
 20
12.6700654659
 30
0.0
 10
6.6331202722
 20
12.6512684125
 30
0.0
 10
6.620910554
 20
12.6380356846
 30
0.0
 10
6.6122242021
 20
12.6299131503
 30
0.0
  0
SPLINE
  5
4BD
100
AcDbEntity
  8
0
100
AcDbSpline
 62
7
  6
CONTINUOUS
 70
0
 71
3
 72
13
 73
9
 74
0
 42
0.0000001
 43
0.0000001
 44
0.0000000001
 40
0.0
 40
0.0
 40
0.0
 40
0.0
 40
0.2546962268
 40
0.3817307621
 40
0.5080038252
 40
0.6331562062
 40
0.7569285002
 40
1.0
 40
1.0
 40
1.0
 40
1.0
 10
5.1527551965
 20
12.7459403256
 30
0.0
 10
5.1599912757
 20
12.735795459
 30
0.0
 10
5.1705410101
 20
12.7203821718
 30
0.0
 10
5.1846395954
 20
12.6999136775
 30
0.0
 10
5.1953352312
 20
12.6847981309
 30
0.0
 10
5.2062925986
 20
12.6700654659
 30
0.0
 10
5.221328132
 20
12.6512684125
 30
0.0
 10
5.2335378503
 20
12.6380356846
 30
0.0
 10
5.2422242021
 20
12.6299131503
 30
0.0
  0
SPLINE
  5
4BE
100
AcDbEntity
  8
0
100
AcDbSpline
 62
7
  6
CONTINUOUS
 70
0
 71
3
 72
13
 73
9
 74
0
 42
0.0000001
 43
0.0000001
 44
0.0000000001
 40
0.0
 40
0.0
 40
0.0
 40
0.0
 40
0.0747601343
 40
0.1683264449
 40
0.2788486378
 40
0.4042432451
 40
0.6894417685
 40
1.0
 40
1.0
 40
1.0
 40
1.0
 10
5.9977378587
 20
12.6091769155
 30
0.0
 10
5.9978827875
 20
12.6096758851
 30
0.0
 10
5.998145183
 20
12.6108176064
 30
0.0
 10
5.998467449
 20
12.612729092
 30
0.0
 10
5.9987550298
 20
12.6150014978
 30
0.0
 10
5.9990957338
 20
12.6186076604
 30
0.0
 10
5.9993731957
 20
12.6236138704
 30
0.0
 10
5.9994467751
 20
12.6277547364
 30
0.0
 10
5.9994467751
 20
12.6299131503
 30
0.0
  0
SPLINE
  5
4BF
100
AcDbEntity
  8
0
100
AcDbSpline
 62
7
  6
CONTINUOUS
 70
0
 71
3
 72
13
 73
9
 74
0
 42
0.0000001
 43
0.0000001
 44
0.0000000001
 40
0.0
 40
0.0
 40
0.0
 40
0.0
 40
0.0747604468
 40
0.1683269564
 40
0.2788491962
 40
0.4042437096
 40
0.6894418813
 40
1.0
 40
1.0
 40
1.0
 40
1.0
 10
5.8567101986
 20
12.609176934
 30
0.0
 10
5.8565652682
 20
12.6096759044
 30
0.0
 10
5.8563028695
 20
12.6108176266
 30
0.0
 10
5.8559806038
 20
12.6127291129
 30
0.0
 10
5.8556930403
 20
12.6150015183
 30
0.0
 10
5.8553523984
 20
12.6186076779
 30
0.0
 10
5.8550750864
 20
12.6236138851
 30
0.0
 10
5.8550016292
 20
12.6277547409
 30
0.0
 10
5.8550016292
 20
12.6299131503
 30
0.0
  0
LINE
  5
4C0
100
AcDbEntity
  8
0
100
AcDbLine
 62
7
  6
CONTINUOUS
 10
5.8623162721
 20
12.7758116207
 11
5.8626062281
 21
12.7748901582
  0
LINE
  5
4C1
100
AcDbEntity
  8
0
100
AcDbLine
 62
7
  6
CONTINUOUS
 10
5.9921329201
 20
12.7758116218
 11
5.9918429782
 21
12.774890163
  0
SPLINE
  5
4C2
100
AcDbEntity
  8
0
100
AcDbSpline
 62
7
  6
CONTINUOUS
 70
0
 71
3
 72
15
 73
11
 74
0
 42
0.0000001
 43
0.0000001
 44
0.0000000001
 40
0.0
 40
0.0
 40
0.0
 40
0.0
 40
0.1346739562
 40
0.2657091795
 40
0.3934671246
 40
0.5183777941
 40
0.6409257098
 40
0.761652832
 40
0.8811432737
 40
1.0
 40
1.0
 40
1.0
 40
1.0
 10
15.8809071444
 20
10.0804705581
 30
0.0
 10
15.8725769093
 20
10.0791491165
 30
0.0
 10
15.8560448026
 20
10.0771068501
 30
0.0
 10
15.8314090554
 20
10.0759048072
 30
0.0
 10
15.8073626171
 20
10.0766186021
 30
0.0
 10
15.7839842477
 20
10.0792613687
 30
0.0
 10
15.7613516964
 20
10.083828377
 30
0.0
 10
15.7395451756
 20
10.0903175563
 30
0.0
 10
15.718648297
 20
10.098710498
 30
0.0
 10
15.7053574566
 20
10.1055635471
 30
0.0
 10
15.6989109455
 20
10.109285442
 30
0.0
  0
SPLINE
  5
4C3
100
AcDbEntity
  8
0
100
AcDbSpline
 62
7
  6
CONTINUOUS
 70
0
 71
3
 72
15
 73
11
 74
0
 42
0.0000001
 43
0.0000001
 44
0.0000000001
 40
0.0
 40
0.0
 40
0.0
 40
0.0
 40
0.1188805695
 40
0.2383907245
 40
0.3591325977
 40
0.4816891054
 40
0.6065980334
 40
0.7343443634
 40
0.8653579791
 40
1.0
 40
1.0
 40
1.0
 40
1.0
 10
16.3864109455
 20
11.3000703722
 30
0.0
 10
16.3928435914
 20
11.2963564824
 30
0.0
 10
16.4053974757
 20
11.2882918542
 30
0.0
 10
16.423079875
 20
11.2744270933
 30
0.0
 10
16.4395731831
 20
11.2588293631
 30
0.0
 10
16.454821665
 20
11.2415630082
 30
0.0
 10
16.4687816577
 20
11.2226941479
 30
0.0
 10
16.4814119423
 20
11.2022885555
 30
0.0
 10
16.4926843241
 20
11.180419869
 30
0.0
 10
16.4991822237
 20
11.1651279442
 30
0.0
 10
16.5022045776
 20
11.1572770377
 30
0.0
  0
SPLINE
  5
4C4
100
AcDbEntity
  8
0
100
AcDbSpline
 62
7
  6
CONTINUOUS
 70
0
 71
3
 72
21
 73
17
 74
0
 42
0.0000001
 43
0.0000001
 44
0.0000000001
 40
0.0
 40
0.0
 40
0.0
 40
0.0
 40
0.0545693726
 40
0.1093727968
 40
0.164634514
 40
0.2205728414
 40
0.2773945577
 40
0.3352875839
 40
0.3944237781
 40
0.4549539389
 40
0.5170057783
 40
0.5806827849
 40
0.7131687041
 40
0.8529201326
 40
0.9255717525
 40
1.0
 40
1.0
 40
1.0
 40
1.0
 10
15.2887890124
 20
10.3460694505
 30
0.0
 10
15.2830098459
 20
10.3494060538
 30
0.0
 10
15.2717059236
 20
10.3565908456
 30
0.0
 10
15.2556689084
 20
10.3687996445
 30
0.0
 10
15.2405796691
 20
10.3824146921
 30
0.0
 10
15.2264824963
 20
10.3973932989
 30
0.0
 10
15.2134088025
 20
10.4136863557
 30
0.0
 10
15.2013919375
 20
10.4312481804
 30
0.0
 10
15.1904561782
 20
10.4500278804
 30
0.0
 10
15.1806221242
 20
10.469974263
 30
0.0
 10
15.1719104099
 20
10.4910370197
 30
0.0
 10
15.1616741546
 20
10.5209267814
 30
0.0
 10
15.1518656811
 20
10.5609132944
 30
0.0
 10
15.1461599031
 20
10.6027734167
 30
0.0
 10
15.143853484
 20
10.6377825893
 30
0.0
 10
15.1434741681
 20
10.6557719802
 30
0.0
 10
15.1434741681
 20
10.6648736988
 30
0.0
  0
SPLINE
  5
4C5
100
AcDbEntity
  8
0
100
AcDbSpline
 62
7
  6
CONTINUOUS
 70
0
 71
3
 72
46
 73
42
 74
0
 42
0.0000001
 43
0.0000001
 44
0.0000000001
 40
0.0
 40
0.0
 40
0.0
 40
0.0
 40
0.0306406783
 40
0.0623205409
 40
0.0949552509
 40
0.1284708043
 40
0.162783019
 40
0.1977888689
 40
0.233377425
 40
0.2694313153
 40
0.3058278421
 40
0.3424394479
 40
0.3791364847
 40
0.4157880563
 40
0.4522641445
 40
0.4884362957
 40
0.524180258
 40
0.5593761964
 40
0.5939120134
 40
0.6276830871
 40
0.6605963459
 40
0.6925698241
 40
0.7235371619
 40
0.7534475913
 40
0.78227042
 40
0.7962722919
 40
0.8100008203
 40
0.8234585397
 40
0.8366495456
 40
0.8495800424
 40
0.8622579612
 40
0.8868892316
 40
0.9106494852
 40
0.9222468805
 40
0.9336777414
 40
0.9449623114
 40
0.9561224995
 40
0.967181863
 40
0.9781646639
 40
0.9890955815
 40
1.0
 40
1.0
 40
1.0
 40
1.0
 10
15.1434741681
 20
10.6648736988
 30
0.0
 10
15.1434741681
 20
10.6788988251
 30
0.0
 10
15.1443999928
 20
10.7074311463
 30
0.0
 10
15.1483784579
 20
10.7507348789
 30
0.0
 10
15.1549539013
 20
10.7950515983
 30
0.0
 10
15.1640827228
 20
10.8401412422
 30
0.0
 10
15.1757158997
 20
10.8857702209
 30
0.0
 10
15.1897881465
 20
10.9316990688
 30
0.0
 10
15.2062257111
 20
10.9776820945
 30
0.0
 10
15.2249380873
 20
11.0234749638
 30
0.0
 10
15.2458252361
 20
11.0688332391
 30
0.0
 10
15.2687751706
 20
11.1135143896
 30
0.0
 10
15.2936639787
 20
11.1572794931
 30
0.0
 10
15.3203596709
 20
11.1998933282
 30
0.0
 10
15.3487173759
 20
11.2411287326
 30
0.0
 10
15.3785881501
 20
11.2807631128
 30
0.0
 10
15.409809894
 20
11.3185862452
 30
0.0
 10
15.4422199529
 20
11.3543932587
 30
0.0
 10
15.4756434689
 20
11.3879954675
 30
0.0
 10
15.5099078107
 20
11.4192102846
 30
0.0
 10
15.5448304371
 20
11.4478741653
 30
0.0
 10
15.5802327464
 20
11.4738305257
 30
0.0
 10
15.6159301277
 20
11.4969433912
 30
0.0
 10
15.6517410602
 20
11.5170838164
 30
0.0
 10
15.6818139164
 20
11.5314380479
 30
0.0
 10
15.7057576858
 20
11.5412894776
 30
0.0
 10
15.7234558605
 20
11.5478003769
 30
0.0
 10
15.7410439833
 20
11.5534943048
 30
0.0
 10
15.7585000145
 20
11.5583612124
 30
0.0
 10
15.7758019001
 20
11.562393972
 30
0.0
 10
15.7984148515
 20
11.566608929
 30
0.0
 10
15.8262289648
 20
11.5698202049
 30
0.0
 10
15.8537401485
 20
11.5701988141
 30
0.0
 10
15.8751157781
 20
11.5687295314
 30
0.0
 10
15.8907080008
 20
11.5667705549
 30
0.0
 10
15.9059637535
 20
11.5639478153
 30
0.0
 10
15.9208599011
 20
11.5602629558
 30
0.0
 10
15.935371845
 20
11.5557171533
 30
0.0
 10
15.9494761757
 20
11.5503172745
 30
0.0
 10
15.9631490633
 20
11.5440729588
 30
0.0
 10
15.9719664472
 20
11.5393500149
 30
0.0
 10
15.9762890124
 20
11.5368543807
 30
0.0
  0
SPLINE
  5
4C6
100
AcDbEntity
  8
0
100
AcDbSpline
 62
9
  6
CONTINUOUS
 70
0
 71
3
 72
35
 73
31
 74
0
 42
0.0000001
 43
0.0000001
 44
0.0000000001
 40
0.0
 40
0.0
 40
0.0
 40
0.0
 40
0.0287559867
 40
0.0583480107
 40
0.0887201391
 40
0.1198219962
 40
0.151604129
 40
0.1840082509
 40
0.2503978404
 40
0.318424716
 40
0.3874623971
 40
0.4221604481
 40
0.4568630718
 40
0.4914867696
 40
0.5259484302
 40
0.5601660707
 40
0.5940598936
 40
0.6275519282
 40
0.6605680602
 40
0.6930371534
 40
0.724893147
 40
0.7560749456
 40
0.7865272787
 40
0.8162025283
 40
0.8450596977
 40
0.8730681165
 40
0.9002054613
 40
0.92646187
 40
0.9518388186
 40
1.0
 40
1.0
 40
1.0
 40
1.0
 10
15.5565250334
 20
10.4240072074
 30
0.0
 10
15.5565250334
 20
10.4354264632
 30
0.0
 10
15.5571383472
 20
10.4586006125
 30
0.0
 10
15.5597942026
 20
10.4937444995
 30
0.0
 10
15.564195108
 20
10.5296515713
 30
0.0
 10
15.5703227822
 20
10.5661854267
 30
0.0
 10
15.5781552855
 20
10.6032171198
 30
0.0
 10
15.5909361581
 20
10.6534821767
 30
0.0
 10
15.6110406431
 20
10.7166776939
 30
0.0
 10
15.6411499214
 20
10.7917220162
 30
0.0
 10
15.6709858588
 20
10.8531269561
 30
0.0
 10
15.6975544276
 20
10.9012657325
 30
0.0
 10
15.7187621422
 20
10.9367254202
 30
0.0
 10
15.7411393206
 20
10.9713466047
 30
0.0
 10
15.7646035474
 20
11.0050063219
 30
0.0
 10
15.7890728398
 20
11.0375810089
 30
0.0
 10
15.8144558376
 20
11.0689554337
 30
0.0
 10
15.8406639885
 20
11.0990141635
 30
0.0
 10
15.8676003303
 20
11.127650725
 30
0.0
 10
15.895169404
 20
11.1547605663
 30
0.0
 10
15.923271324
 20
11.1802463081
 30
0.0
 10
15.9518044043
 20
11.2040167689
 30
0.0
 10
15.9806675335
 20
11.2259844354
 30
0.0
 10
16.0097548044
 20
11.2460729119
 30
0.0
 10
16.0389644018
 20
11.2642062092
 30
0.0
 10
16.0681894587
 20
11.2803226546
 30
0.0
 10
16.0973263136
 20
11.2943600954
 30
0.0
 10
16.1262742238
 20
11.3062713303
 30
0.0
 10
16.1638079438
 20
11.3190298565
 30
0.0
 10
16.1923789255
 20
11.3256822642
 30
0.0
 10
16.2112918042
 20
11.3285243455
 30
0.0
  0
SPLINE
  5
4C7
100
AcDbEntity
  8
0
100
AcDbSpline
 62
9
  6
CONTINUOUS
 70
0
 71
3
 72
14
 73
10
 74
0
 42
0.0000001
 43
0.0000001
 44
0.0000000001
 40
0.0
 40
0.0
 40
0.0
 40
0.0
 40
0.2667177913
 40
0.3947290116
 40
0.5196810923
 40
0.6420855223
 40
0.7625156927
 40
0.8815997196
 40
1.0
 40
1.0
 40
1.0
 40
1.0
 10
16.2112918042
 20
11.3285243455
 30
0.0
 10
16.2271860271
 20
11.3309128066
 30
0.0
 10
16.2510068347
 20
11.332873633
 30
0.0
 10
16.2823286503
 20
11.3317442544
 30
0.0
 10
16.3048195528
 20
11.3290822022
 30
0.0
 10
16.3265530324
 20
11.3245995976
 30
0.0
 10
16.3474656523
 20
11.3183040081
 30
0.0
 10
16.3674924955
 20
11.3102187022
 30
0.0
 10
16.3802291329
 20
11.3036392072
 30
0.0
 10
16.3864080818
 20
11.3000716222
 30
0.0
  0
SPLINE
  5
4C8
100
AcDbEntity
  8
0
100
AcDbSpline
 62
9
  6
CONTINUOUS
 70
0
 71
3
 72
53
 73
49
 74
0
 42
0.0000001
 43
0.0000001
 44
0.0000000001
 40
0.0
 40
0.0
 40
0.0
 40
0.0
 40
0.0158835756
 40
0.032103495
 40
0.0486457891
 40
0.0654959452
 40
0.0826400904
 40
0.1000639108
 40
0.1356833539
 40
0.1722135491
 40
0.2094935168
 40
0.2473508846
 40
0.2856040082
 40
0.3240650612
 40
0.3625430011
 40
0.4008468418
 40
0.4387878611
 40
0.4761832366
 40
0.5128585495
 40
0.5486507828
 40
0.5834124832
 40
0.6003676322
 40
0.617018642
 40
0.6493538375
 40
0.6650234056
 40
0.6803492299
 40
0.6953261596
 40
0.709952098
 40
0.7381457479
 40
0.7517294842
 40
0.7649794394
 40
0.7905183676
 40
0.8028523664
 40
0.8149212309
 40
0.8267511612
 40
0.8383718431
 40
0.8498158255
 40
0.8611187761
 40
0.8723188437
 40
0.8834557961
 40
0.8945706989
 40
0.9057049946
 40
0.9168997173
 40
0.9281949608
 40
0.9396287738
 40
0.9512368707
 40
0.9750924629
 40
1.0
 40
1.0
 40
1.0
 40
1.0
 10
15.5706671687
 20
10.4240072072
 30
0.0
 10
15.570670726
 20
10.4320571486
 30
0.0
 10
15.5709820008
 20
10.4483287555
 30
0.0
 10
15.5723290065
 20
10.4729507832
 30
0.0
 10
15.5745629443
 20
10.4980002504
 30
0.0
 10
15.577686798
 20
10.5234259853
 30
0.0
 10
15.5816927679
 20
10.5491799233
 30
0.0
 10
15.5882454069
 20
10.5841475882
 30
0.0
 10
15.5986220176
 20
10.6283714618
 30
0.0
 10
15.6143293258
 20
10.6815890565
 30
0.0
 10
15.6332721877
 20
10.7349473362
 30
0.0
 10
15.655307393
 20
10.7880496
 30
0.0
 10
15.6802702918
 20
10.840503057
 30
0.0
 10
15.7079779769
 20
10.8919169418
 30
0.0
 10
15.7382230264
 20
10.9419103041
 30
0.0
 10
15.7707807102
 20
10.9901120442
 30
0.0
 10
15.8054109977
 20
11.0361632194
 30
0.0
 10
15.8418549274
 20
11.0797234013
 30
0.0
 10
15.8798435513
 20
11.1204691403
 30
0.0
 10
15.9190951941
 20
11.1580965299
 30
0.0
 10
15.952892353
 20
11.1868610732
 30
0.0
 10
15.9803255025
 20
11.2080365555
 30
0.0
 10
16.007437321
 20
11.2275841622
 30
0.0
 10
16.0349762581
 20
11.2454028464
 30
0.0
 10
16.062858492
 20
11.2613141325
 30
0.0
 10
16.0835288025
 20
11.2720786387
 30
0.0
 10
16.1041383213
 20
11.2817768231
 30
0.0
 10
16.1311494993
 20
11.2931235461
 30
0.0
 10
16.1582185467
 20
11.3024627165
 30
0.0
 10
16.1851935999
 20
11.3095839277
 30
0.0
 10
16.2111788971
 20
11.3150365798
 30
0.0
 10
16.2369464126
 20
11.3183214325
 30
0.0
 10
16.2622531913
 20
11.3192524842
 30
0.0
 10
16.2806232394
 20
11.3187856356
 30
0.0
 10
16.2985644633
 20
11.3171618109
 30
0.0
 10
16.3160440881
 20
11.3143853782
 30
0.0
 10
16.3330284886
 20
11.3104589508
 30
0.0
 10
16.3494848849
 20
11.3053889266
 30
0.0
 10
16.3653823833
 20
11.2991867854
 30
0.0
 10
16.3806899608
 20
11.2918626554
 30
0.0
 10
16.395377215
 20
11.2834293012
 30
0.0
 10
16.409417125
 20
11.273905341
 30
0.0
 10
16.4227825029
 20
11.2633083705
 30
0.0
 10
16.4354463539
 20
11.2516576966
 30
0.0
 10
16.4473868839
 20
11.2389775949
 30
0.0
 10
16.462447122
 20
11.22056825
 30
0.0
 10
16.4793516853
 20
11.1949546975
 30
0.0
 10
16.4903204087
 20
11.1727351084
 30
0.0
 10
16.4952719019
 20
11.1611233835
 30
0.0
  0
SPLINE
  5
4C9
100
AcDbEntity
  8
0
100
AcDbSpline
 62
9
  6
CONTINUOUS
 70
0
 71
3
 72
29
 73
25
 74
0
 42
0.0000001
 43
0.0000001
 44
0.0000000001
 40
0.0
 40
0.0
 40
0.0
 40
0.0
 40
0.0625644676
 40
0.1227956184
 40
0.1810920241
 40
0.2096758153
 40
0.2379634961
 40
0.2660265407
 40
0.2939390157
 40
0.3217772235
 40
0.3496186615
 40
0.3775405013
 40
0.4056189875
 40
0.4339284218
 40
0.4625394888
 40
0.4915191269
 40
0.5209303512
 40
0.5812493147
 40
0.6439166308
 40
0.7092331205
 40
0.777405937
 40
0.8485736508
 40
0.9228014192
 40
1.0
 40
1.0
 40
1.0
 40
1.0
 10
15.8736800365
 20
10.0844832404
 30
0.0
 10
15.8628186224
 20
10.0831684084
 30
0.0
 10
15.8413574037
 20
10.0816107511
 30
0.0
 10
15.8096481344
 20
10.0826905365
 30
0.0
 10
15.7841399279
 20
10.0865056977
 30
0.0
 10
15.7645676023
 20
10.0912971805
 30
0.0
 10
15.7503780762
 20
10.0957193672
 30
0.0
 10
15.7366056811
 20
10.100985934
 30
0.0
 10
15.7232695347
 20
10.1070900732
 30
0.0
 10
15.7103897086
 20
10.1140247472
 30
0.0
 10
15.6979838799
 20
10.1217785796
 30
0.0
 10
15.6860693217
 20
10.1303400467
 30
0.0
 10
15.6746636026
 20
10.1396978695
 30
0.0
 10
15.6637833842
 20
10.1498390696
 30
0.0
 10
15.6534427994
 20
10.1607475425
 30
0.0
 10
15.6436559075
 20
10.1724081621
 30
0.0
 10
15.6312628304
 20
10.1890743215
 30
0.0
 10
15.6172295981
 20
10.2118002777
 30
0.0
 10
15.602972344
 20
10.2415435553
 30
0.0
 10
15.591219165
 20
10.2738232286
 30
0.0
 10
15.5820272991
 20
10.3084565236
 30
0.0
 10
15.5754434949
 20
10.3452584879
 30
0.0
 10
15.571514057
 20
10.3840179251
 30
0.0
 10
15.5706727409
 20
10.4105074186
 30
0.0
 10
15.5706671687
 20
10.4240072072
 30
0.0
  0
SPLINE
  5
4CA
100
AcDbEntity
  8
0
100
AcDbSpline
 62
9
  6
CONTINUOUS
 70
0
 71
3
 72
15
 73
11
 74
0
 42
0.0000001
 43
0.0000001
 44
0.0000000001
 40
0.0
 40
0.0
 40
0.0
 40
0.0
 40
0.1183795069
 40
0.2374416675
 40
0.3578513659
 40
0.4802328496
 40
0.6051612674
 40
0.7331490608
 40
0.8646376649
 40
1.0
 40
1.0
 40
1.0
 40
1.0
 10
15.6989111202
 20
10.1092857446
 30
0.0
 10
15.6927324799
 20
10.1128532631
 30
0.0
 10
15.6806668455
 20
10.1205934327
 30
0.0
 10
15.6636503567
 20
10.1338919392
 30
0.0
 10
15.6477443094
 20
10.1488559266
 30
0.0
 10
15.6329941538
 20
10.1654340877
 30
0.0
 10
15.6194444324
 20
10.183578368
 30
0.0
 10
15.607132847
 20
10.2032332695
 30
0.0
 10
15.5960923305
 20
10.224338188
 30
0.0
 10
15.5896981792
 20
10.2391127522
 30
0.0
 10
15.5867143287
 20
10.2467056546
 30
0.0
  0
SPLINE
  5
4CB
100
AcDbEntity
  8
0
100
AcDbSpline
 62
9
  6
CONTINUOUS
 70
0
 71
3
 72
12
 73
8
 74
0
 42
0.0000001
 43
0.0000001
 44
0.0000000001
 40
0.0
 40
0.0
 40
0.0
 40
0.0
 40
0.4747351735
 40
0.6013560725
 40
0.7311504137
 40
0.8640603003
 40
1.0
 40
1.0
 40
1.0
 40
1.0
 10
15.5867143287
 20
10.2467056546
 30
0.0
 10
15.5762535833
 20
10.2733247551
 30
0.0
 10
15.5669863676
 20
10.3087157092
 30
0.0
 10
15.5606163313
 20
10.3522915854
 30
0.0
 10
15.5582501299
 20
10.3756380366
 30
0.0
 10
15.5568327902
 20
10.3996181972
 30
0.0
 10
15.5565250334
 20
10.4158174218
 30
0.0
 10
15.5565250334
 20
10.4240072074
 30
0.0
  0
SPLINE
  5
4CC
100
AcDbEntity
  8
0
100
AcDbSpline
 62
9
  6
CONTINUOUS
 70
0
 71
3
 72
21
 73
17
 74
0
 42
0.0000001
 43
0.0000001
 44
0.0000000001
 40
0.0
 40
0.0
 40
0.0
 40
0.0
 40
0.0539018011
 40
0.1080617213
 40
0.1627324735
 40
0.2181539915
 40
0.2745495722
 40
0.3321236227
 40
0.3910553693
 40
0.4515012552
 40
0.5135917576
 40
0.5774277239
 40
0.710584025
 40
0.8514389243
 40
0.924786154
 40
1.0
 40
1.0
 40
1.0
 40
1.0
 10
15.2887891854
 20
10.3460697502
 30
0.0
 10
15.2831618751
 20
10.3493189359
 30
0.0
 10
15.2721521174
 20
10.3563170336
 30
0.0
 10
15.2565281123
 20
10.3682172538
 30
0.0
 10
15.2418167534
 20
10.3815049275
 30
0.0
 10
15.2280535379
 20
10.3961426293
 30
0.0
 10
15.2152710734
 20
10.4120939913
 30
0.0
 10
15.203502146
 20
10.4293205394
 30
0.0
 10
15.1927711558
 20
10.4477775959
 30
0.0
 10
15.183104675
 20
10.4674209466
 30
0.0
 10
15.1745257556
 20
10.4882031692
 30
0.0
 10
15.164418868
 20
10.5177737599
 30
0.0
 10
15.1547178627
 20
10.5574249967
 30
0.0
 10
15.1490681087
 20
10.5989879842
 30
0.0
 10
15.1467797828
 20
10.6338114423
 30
0.0
 10
15.1464031003
 20
10.6517240131
 30
0.0
 10
15.1464031003
 20
10.6607912159
 30
0.0
  0
SPLINE
  5
4CD
100
AcDbEntity
  8
0
100
AcDbSpline
 62
9
  6
CONTINUOUS
 70
0
 71
3
 72
9
 73
5
 74
0
 42
0.0000001
 43
0.0000001
 44
0.0000000001
 40
0.0
 40
0.0
 40
0.0
 40
0.0
 40
0.494697468
 40
1.0
 40
1.0
 40
1.0
 40
1.0
 10
15.8986531088
 20
11.5648705052
 30
0.0
 10
15.891940268
 20
11.5660648847
 30
0.0
 10
15.8782705004
 20
11.5679429133
 30
0.0
 10
15.8644997482
 20
11.5687862974
 30
0.0
 10
15.8575375856
 20
11.5689641579
 30
0.0
  0
SPLINE
  5
4CE
100
AcDbEntity
  8
0
100
AcDbSpline
 62
9
  6
CONTINUOUS
 70
0
 71
3
 72
35
 73
31
 74
0
 42
0.0000001
 43
0.0000001
 44
0.0000000001
 40
0.0
 40
0.0
 40
0.0
 40
0.0
 40
0.0225980426
 40
0.0459861362
 40
0.0702338586
 40
0.0953890175
 40
0.1214818642
 40
0.1485238282
 40
0.1765115987
 40
0.2054267961
 40
0.2352388395
 40
0.265905755
 40
0.2973754819
 40
0.3295877051
 40
0.3624738343
 40
0.3959595982
 40
0.4643903507
 40
0.5342014562
 40
0.6046530894
 40
0.6749843406
 40
0.7098735922
 40
0.7444503679
 40
0.7786252527
 40
0.8123121859
 40
0.8454287506
 40
0.8778966717
 40
0.9096459087
 40
0.9406185165
 40
0.9707577494
 40
1.0
 40
1.0
 40
1.0
 40
1.0
 10
15.8526599966
 20
11.5690483808
 30
0.0
 10
15.8432973052
 20
11.5691329946
 30
0.0
 10
15.8242271825
 20
11.5684071689
 30
0.0
 10
15.7953212613
 20
11.5647850047
 30
0.0
 10
15.7657657211
 20
11.5586254702
 30
0.0
 10
15.7356809568
 20
11.5499622259
 30
0.0
 10
15.7051879607
 20
11.5388273811
 30
0.0
 10
15.6744071283
 20
11.5252719442
 30
0.0
 10
15.6434631973
 20
11.5093482007
 30
0.0
 10
15.6124788855
 20
11.4911237447
 30
0.0
 10
15.581579582
 20
11.4706709826
 30
0.0
 10
15.5508892226
 20
11.4480736235
 30
0.0
 10
15.5205313143
 20
11.4234231628
 30
0.0
 10
15.4906293127
 20
11.3968188345
 30
0.0
 10
15.4613021585
 20
11.3683691809
 30
0.0
 10
15.4228533195
 20
11.3278387356
 30
0.0
 10
15.3770432625
 20
11.2732916552
 30
0.0
 10
15.3265785113
 20
11.2029805431
 30
0.0
 10
15.2810299837
 20
11.1284665821
 30
0.0
 10
15.2476866113
 20
11.0636852782
 30
0.0
 10
15.2240987656
 20
11.0107709314
 30
0.0
 10
15.2081096874
 20
10.9709052191
 30
0.0
 10
15.1938413637
 20
10.9309205189
 30
0.0
 10
15.1813515689
 20
10.8909778585
 30
0.0
 10
15.1706917823
 20
10.8512396336
 30
0.0
 10
15.16190301
 20
10.8118675772
 30
0.0
 10
15.1550234357
 20
10.7730184777
 30
0.0
 10
15.1500790113
 20
10.734847277
 30
0.0
 10
15.1470939426
 20
10.6975150733
 30
0.0
 10
15.1464031003
 20
10.6729071922
 30
0.0
 10
15.1464031003
 20
10.6607912159
 30
0.0
  0
SPLINE
  5
4CF
100
AcDbEntity
  8
0
100
AcDbSpline
 62
7
  6
CONTINUOUS
 70
0
 71
3
 72
14
 73
10
 74
0
 42
0.0000001
 43
0.0000001
 44
0.0000000001
 40
0.0
 40
0.0
 40
0.0
 40
0.0
 40
0.2627986493
 40
0.390102037
 40
0.5150395909
 40
0.6380245584
 40
0.7595188853
 40
0.8800104553
 40
1.0
 40
1.0
 40
1.0
 40
1.0
 10
14.6362255577
 20
10.986853399
 30
0.0
 10
14.6404489544
 20
10.9782587771
 30
0.0
 10
14.6475253129
 20
10.9658656768
 30
0.0
 10
14.6584997545
 20
10.9506263677
 30
0.0
 10
14.6672814809
 20
10.9401290029
 30
0.0
 10
14.6766774529
 20
10.9304715106
 30
0.0
 10
14.6866682348
 20
10.9216725074
 30
0.0
 10
14.6972330174
 20
10.9137532702
 30
0.0
 10
14.7046504718
 20
10.9090665828
 30
0.0
 10
14.7084372083
 20
10.906880684
 30
0.0
  0
SPLINE
  5
4D0
100
AcDbEntity
  8
0
100
AcDbSpline
 62
7
  6
CONTINUOUS
 70
0
 71
3
 72
12
 73
8
 74
0
 42
0.0000001
 43
0.0000001
 44
0.0000000001
 40
0.0
 40
0.0
 40
0.0
 40
0.0
 40
0.2640532556
 40
0.5196670029
 40
0.7653587696
 40
0.8841521915
 40
1.0
 40
1.0
 40
1.0
 40
1.0
 10
14.9013906006
 20
11.1585740829
 30
0.0
 10
14.8965813396
 20
11.1432339694
 30
0.0
 10
14.8880914775
 20
11.1127258873
 30
0.0
 10
14.8787338662
 20
11.0670403301
 30
0.0
 10
14.8739351405
 20
11.0295495292
 30
0.0
 10
14.8720187233
 20
11.0003614464
 30
0.0
 10
14.8716921158
 20
10.9860739055
 30
0.0
 10
14.8716921158
 20
10.9790207583
 30
0.0
  0
SPLINE
  5
4D1
100
AcDbEntity
  8
0
100
AcDbSpline
 62
7
  6
CONTINUOUS
 70
0
 71
3
 72
12
 73
8
 74
0
 42
0.0000001
 43
0.0000001
 44
0.0000000001
 40
0.0
 40
0.0
 40
0.0
 40
0.0
 40
0.1379230483
 40
0.2722102473
 40
0.5293933134
 40
0.7717073692
 40
1.0
 40
1.0
 40
1.0
 40
1.0
 10
14.8716921158
 20
10.9790207583
 30
0.0
 10
14.8716921158
 20
10.9721488893
 30
0.0
 10
14.871994341
 20
10.9585834492
 30
0.0
 10
14.8738307898
 20
10.9322641329
 30
0.0
 10
14.8783617632
 20
10.9009475495
 30
0.0
 10
14.8875737268
 20
10.8657944987
 30
0.0
 10
14.8963741537
 20
10.843968771
 30
0.0
 10
14.9013906006
 20
10.8337602901
 30
0.0
  0
SPLINE
  5
4D2
100
AcDbEntity
  8
0
100
AcDbSpline
 62
7
  6
CONTINUOUS
 70
0
 71
3
 72
34
 73
30
 74
0
 42
0.0000001
 43
0.0000001
 44
0.0000000001
 40
0.0
 40
0.0
 40
0.0
 40
0.0
 40
0.0215622617
 40
0.0432815205
 40
0.0653092334
 40
0.0877866969
 40
0.1108402638
 40
0.1345784342
 40
0.1590920859
 40
0.1844514449
 40
0.2107098639
 40
0.2379014527
 40
0.2660446417
 40
0.2951429931
 40
0.3561288551
 40
0.3879809008
 40
0.4206776646
 40
0.4541667511
 40
0.4883881765
 40
0.5232760422
 40
0.5587574691
 40
0.594755905
 40
0.6311894792
 40
0.7050087473
 40
0.7795237318
 40
0.8540022508
 40
0.9277309811
 40
0.9641010981
 40
1.0
 40
1.0
 40
1.0
 40
1.0
 10
15.2004100102
 20
11.7590633683
 30
0.0
 10
15.1954347886
 20
11.7619353217
 30
0.0
 10
15.1851366455
 20
11.7671788211
 30
0.0
 10
15.1688630126
 20
11.773419998
 30
0.0
 10
15.1518018988
 20
11.778033033
 30
0.0
 10
15.1340204557
 20
11.7809984295
 30
0.0
 10
15.1155863318
 20
11.7823091871
 30
0.0
 10
15.0965684862
 20
11.7819644435
 30
0.0
 10
15.0770375365
 20
11.7799647455
 30
0.0
 10
15.0570642284
 20
11.7763242408
 30
0.0
 10
15.0367219143
 20
11.7710537949
 30
0.0
 10
15.0160836432
 20
11.7641774171
 30
0.0
 10
14.9952236459
 20
11.7557195441
 30
0.0
 10
14.9667748765
 20
11.7421646968
 30
0.0
 10
14.9386695577
 20
11.7257296732
 30
0.0
 10
14.9110935964
 20
11.7067914117
 30
0.0
 10
14.8902691448
 20
11.691008751
 30
0.0
 10
14.8696815794
 20
11.6739154575
 30
0.0
 10
14.8494045323
 20
11.655573016
 30
0.0
 10
14.8295136977
 20
11.6360477294
 30
0.0
 10
14.8100797469
 20
11.6154129155
 30
0.0
 10
14.7911759655
 20
11.5937417495
 30
0.0
 10
14.7666633018
 20
11.5634444116
 30
0.0
 10
14.737808857
 20
11.523505169
 30
0.0
 10
14.7064882423
 20
11.4730225722
 30
0.0
 10
14.678770265
 20
11.4205028953
 30
0.0
 10
14.6589185311
 20
11.3754620258
 30
0.0
 10
14.6452024921
 20
11.3390562846
 30
0.0
 10
14.6390867151
 20
11.3207934336
 30
0.0
 10
14.6362255577
 20
11.3116671918
 30
0.0
  0
SPLINE
  5
4D3
100
AcDbEntity
  8
0
100
AcDbSpline
 62
9
  6
CONTINUOUS
 70
0
 71
3
 72
42
 73
38
 74
0
 42
0.0000001
 43
0.0000001
 44
0.0000000001
 40
0.0
 40
0.0
 40
0.0
 40
0.0
 40
0.0306550236
 40
0.0623852495
 40
0.0951006902
 40
0.1287199989
 40
0.1631562858
 40
0.1983039784
 40
0.2340484342
 40
0.2702689495
 40
0.3068405709
 40
0.3436333238
 40
0.3805148102
 40
0.4173519192
 40
0.4540117749
 40
0.4903639551
 40
0.5262806927
 40
0.5616400958
 40
0.596325688
 40
0.630230354
 40
0.6632555664
 40
0.6953160046
 40
0.7263388049
 40
0.7562687109
 40
0.7850677317
 40
0.8127206562
 40
0.839235369
 40
0.8520791842
 40
0.8646546914
 40
0.8890316162
 40
0.9124717339
 40
0.9351072303
 40
0.9571037212
 40
0.9679272376
 40
0.9786658363
 40
0.9893472988
 40
1.0
 40
1.0
 40
1.0
 40
1.0
 10
15.0427084515
 20
10.8802844309
 30
0.0
 10
15.0427084515
 20
10.8903185386
 30
0.0
 10
15.0433719644
 20
10.9107432421
 30
0.0
 10
15.0462206784
 20
10.9417573443
 30
0.0
 10
15.0509328415
 20
10.9735246079
 30
0.0
 10
15.0574774829
 20
11.0058680674
 30
0.0
 10
15.0658223708
 20
11.0386157592
 30
0.0
 10
15.0759183788
 20
11.0715939631
 30
0.0
 10
15.0877157916
 20
11.1046226834
 30
0.0
 10
15.1011467381
 20
11.1375249916
 30
0.0
 10
15.1161424367
 20
11.1701219914
 30
0.0
 10
15.1326182722
 20
11.2022395916
 30
0.0
 10
15.1504889187
 20
11.2337024148
 30
0.0
 10
15.1696544339
 20
11.2643424013
 30
0.0
 10
15.1900145422
 20
11.2939921946
 30
0.0
 10
15.211456266
 20
11.3224937147
 30
0.0
 10
15.2338668036
 20
11.349691111
 30
0.0
 10
15.2571225283
 20
11.3754396959
 30
0.0
 10
15.2811006817
 20
11.3995985066
 30
0.0
 10
15.3056697133
 20
11.4220394283
 30
0.0
 10
15.3306997641
 20
11.4426393352
 30
0.0
 10
15.3560543399
 20
11.4612894025
 30
0.0
 10
15.3815995397
 20
11.4778868499
 30
0.0
 10
15.4071970207
 20
11.492344216
 30
0.0
 10
15.4327122931
 20
11.5045810023
 30
0.0
 10
15.4580071277
 20
11.5145318798
 30
0.0
 10
15.4790133605
 20
11.520939341
 30
0.0
 10
15.4955657558
 20
11.5248335873
 30
0.0
 10
15.5115873393
 20
11.5278547017
 30
0.0
 10
15.5312530675
 20
11.5301667862
 30
0.0
 10
15.554353233
 20
11.5305310421
 30
0.0
 10
15.5765835776
 20
11.5284465817
 30
0.0
 10
15.5943825672
 20
11.5246491307
 30
0.0
 10
15.6080002291
 20
11.5203991272
 30
0.0
 10
15.6178662006
 20
11.5166301295
 30
0.0
 10
15.6274232541
 20
11.512269725
 30
0.0
 10
15.6335842731
 20
11.5089705041
 30
0.0
 10
15.6366040863
 20
11.5072272164
 30
0.0
  0
SPLINE
  5
4D4
100
AcDbEntity
  8
0
100
AcDbSpline
 62
9
  6
CONTINUOUS
 70
0
 71
3
 72
41
 73
37
 74
0
 42
0.0000001
 43
0.0000001
 44
0.0000000001
 40
0.0
 40
0.0
 40
0.0
 40
0.0
 40
0.0304385915
 40
0.0619248966
 40
0.094372907
 40
0.1277049345
 40
0.1618393291
 40
0.1966770621
 40
0.2321096043
 40
0.2680226126
 40
0.3042974671
 40
0.3408112091
 40
0.3774380013
 40
0.4140512435
 40
0.4505240938
 40
0.4867316631
 40
0.5225513456
 40
0.5578651643
 40
0.5925604211
 40
0.6265316492
 40
0.6596821069
 40
0.6919250686
 40
0.7231865889
 40
0.7534059972
 40
0.7825401793
 40
0.8105633581
 40
0.8374728302
 40
0.863288204
 40
0.888057933
 40
0.9118578683
 40
0.9347968074
 40
0.9570132195
 40
0.9679071864
 40
0.9786861907
 40
0.9893750692
 40
1.0
 40
1.0
 40
1.0
 40
1.0
 10
15.0549541817
 20
10.8794263709
 30
0.0
 10
15.0549541789
 20
10.8890968728
 30
0.0
 10
15.0555800352
 20
10.9087749679
 30
0.0
 10
15.0582693979
 20
10.9386517614
 30
0.0
 10
15.0627190406
 20
10.96924667
 30
0.0
 10
15.0689008924
 20
11.0003957601
 30
0.0
 10
15.0767856956
 20
11.0319402534
 30
0.0
 10
15.0863290054
 20
11.0637198476
 30
0.0
 10
15.0974854513
 20
11.0955684506
 30
0.0
 10
15.1101940831
 20
11.1273219301
 30
0.0
 10
15.1243915743
 20
11.1588150734
 30
0.0
 10
15.1400022047
 20
11.189885957
 30
0.0
 10
15.1569470311
 20
11.2203727861
 30
0.0
 10
15.1751368857
 20
11.2501183246
 30
0.0
 10
15.1944785452
 20
11.2789680535
 30
0.0
 10
15.2148712709
 20
11.3067728717
 30
0.0
 10
15.2362096949
 20
11.3333888089
 30
0.0
 10
15.2583835981
 20
11.3586778343
 30
0.0
 10
15.2812777356
 20
11.3825096956
 30
0.0
 10
15.3047747368
 20
11.4047601832
 30
0.0
 10
15.3287520625
 20
11.4253155998
 30
0.0
 10
15.3530876905
 20
11.4440679018
 30
0.0
 10
15.3776546017
 20
11.4609223942
 30
0.0
 10
15.4023287097
 20
11.4757890559
 30
0.0
 10
15.426981527
 20
11.4885940691
 30
0.0
 10
15.4514894062
 20
11.4992666364
 30
0.0
 10
15.4757253858
 20
11.5077548787
 30
0.0
 10
15.4995682925
 20
11.51400765
 30
0.0
 10
15.5228949583
 20
11.5179951424
 30
0.0
 10
15.5455878695
 20
11.5196857669
 30
0.0
 10
15.5675266947
 20
11.5190721348
 30
0.0
 10
15.5852059603
 20
11.5166142014
 30
0.0
 10
15.5988019422
 20
11.5134881404
 30
0.0
 10
15.6086735304
 20
11.5105905753
 30
0.0
 10
15.6182698237
 20
11.5071274481
 30
0.0
 10
15.6244902667
 20
11.504438773
 30
0.0
 10
15.6275456305
 20
11.5030037101
 30
0.0
  0
LINE
  5
4D5
100
AcDbEntity
  8
0
100
AcDbLine
 62
9
  6
CONTINUOUS
 10
15.1437006955
 20
10.6650371564
 11
15.1432902516
 21
10.6653239757
  0
SPLINE
  5
4D6
100
AcDbEntity
  8
0
100
AcDbSpline
 62
9
  6
CONTINUOUS
 70
0
 71
3
 72
19
 73
15
 74
0
 42
0.0000001
 43
0.0000001
 44
0.0000000001
 40
0.0
 40
0.0
 40
0.0
 40
0.0
 40
0.0536548264
 40
0.107775656
 40
0.1625712812
 40
0.2182388375
 40
0.2749574604
 40
0.3328884172
 40
0.4528787695
 40
0.579151299
 40
0.6448564938
 40
0.7123262594
 40
0.8526296471
 40
1.0
 40
1.0
 40
1.0
 40
1.0
 10
15.1432902516
 20
10.6653239757
 30
0.0
 10
15.1397670391
 20
10.6677940927
 30
0.0
 10
15.1328843131
 20
10.6730394403
 30
0.0
 10
15.1231541152
 20
10.6817353436
 30
0.0
 10
15.1140047278
 20
10.691266057
 30
0.0
 10
15.1054580801
 20
10.7016113105
 30
0.0
 10
15.0975297898
 20
10.7127475224
 30
0.0
 10
15.087691474
 20
10.7288025731
 30
0.0
 10
15.0770608321
 20
10.7508377948
 30
0.0
 10
15.0689340745
 20
10.7745573672
 30
0.0
 10
15.0637759151
 20
10.7947219828
 30
0.0
 10
15.0594293496
 20
10.8162274806
 30
0.0
 10
15.0558496548
 20
10.8445256658
 30
0.0
 10
15.0549541852
 20
10.8676080067
 30
0.0
 10
15.0549541817
 20
10.8794263709
 30
0.0
  0
SPLINE
  5
4D7
100
AcDbEntity
  8
0
100
AcDbSpline
 62
9
  6
CONTINUOUS
 70
0
 71
3
 72
21
 73
17
 74
0
 42
0.0000001
 43
0.0000001
 44
0.0000000001
 40
0.0
 40
0.0
 40
0.0
 40
0.0
 40
0.053885896
 40
0.1080410811
 40
0.1627150128
 40
0.2181457512
 40
0.2745559979
 40
0.3321461
 40
0.3910952256
 40
0.4515586312
 40
0.5774426144
 40
0.6431065812
 40
0.710653279
 40
0.8514982891
 40
0.9248226619
 40
1.0
 40
1.0
 40
1.0
 40
1.0
 10
15.1440263965
 20
10.6553940743
 30
0.0
 10
15.1400202177
 20
10.6577286409
 30
0.0
 10
15.132182771
 20
10.6627534765
 30
0.0
 10
15.1210642858
 20
10.6712889275
 30
0.0
 10
15.1105941767
 20
10.6808078705
 30
0.0
 10
15.1007997638
 20
10.6912867738
 30
0.0
 10
15.0917055018
 20
10.7027004868
 30
0.0
 10
15.0833306607
 20
10.7150185974
 30
0.0
 10
15.0756952728
 20
10.728212482
 30
0.0
 10
15.0664038204
 20
10.7471795872
 30
0.0
 10
15.0588183103
 20
10.7675657498
 30
0.0
 10
15.0528800784
 20
10.7890631472
 30
0.0
 10
15.0478650427
 20
10.8121166517
 30
0.0
 10
15.0446046532
 20
10.836185395
 30
0.0
 10
15.0429765805
 20
10.8610348204
 30
0.0
 10
15.0427084515
 20
10.8738155712
 30
0.0
 10
15.0427084515
 20
10.8802844309
 30
0.0
  0
SPLINE
  5
4D8
100
AcDbEntity
  8
0
100
AcDbSpline
 62
7
  6
CONTINUOUS
 70
0
 71
3
 72
21
 73
17
 74
0
 42
0.0000001
 43
0.0000001
 44
0.0000000001
 40
0.0
 40
0.0
 40
0.0
 40
0.0
 40
0.0566472944
 40
0.1133825053
 40
0.17041922
 40
0.2279382681
 40
0.2860775182
 40
0.3449603143
 40
0.4047346187
 40
0.465536375
 40
0.5274830662
 40
0.5906827693
 40
0.7211250407
 40
0.8575019836
 40
0.928007757
 40
1.0
 40
1.0
 40
1.0
 40
1.0
 10
17.0741598623
 20
10.8256334139
 30
0.0
 10
17.0798382594
 20
10.8223549898
 30
0.0
 10
17.0909323959
 20
10.8153095806
 30
0.0
 10
17.1066573757
 20
10.8033642599
 30
0.0
 10
17.1214151549
 20
10.7900901461
 30
0.0
 10
17.1351610686
 20
10.7755484429
 30
0.0
 10
17.1478603333
 20
10.7598100202
 30
0.0
 10
17.1594755909
 20
10.7429389731
 30
0.0
 10
17.1699898552
 20
10.7250041784
 30
0.0
 10
17.179393947
 20
10.706067969
 30
0.0
 10
17.1876815688
 20
10.6861878658
 30
0.0
 10
17.1973434898
 20
10.6582088679
 30
0.0
 10
17.2065517109
 20
10.6210455006
 30
0.0
 10
17.2118890171
 20
10.5822991997
 30
0.0
 10
17.2140335265
 20
10.5500827334
 30
0.0
 10
17.2143853488
 20
10.5335857889
 30
0.0
 10
17.2143853488
 20
10.5252527835
 30
0.0
  0
SPLINE
  5
4D9
100
AcDbEntity
  8
0
100
AcDbSpline
 62
7
  6
CONTINUOUS
 70
0
 71
3
 72
44
 73
40
 74
0
 42
0.0000001
 43
0.0000001
 44
0.0000000001
 40
0.0
 40
0.0
 40
0.0
 40
0.0
 40
0.0305974325
 40
0.0621262343
 40
0.0945113524
 40
0.1276936461
 40
0.1616041362
 40
0.1961511837
 40
0.2312341487
 40
0.2667451827
 40
0.3025707303
 40
0.338591488
 40
0.3746859319
 40
0.410731121
 40
0.4466052655
 40
0.4821884738
 40
0.5173657862
 40
0.5520274279
 40
0.5860726181
 40
0.6194090883
 40
0.6519580691
 40
0.6836530128
 40
0.7144453379
 40
0.7443027846
 40
0.7732151367
 40
0.8011927021
 40
0.8282705637
 40
0.8545063893
 40
0.8673360715
 40
0.8799878475
 40
0.8924746153
 40
0.9048103915
 40
0.9170115666
 40
0.9290952138
 40
0.9529545616
 40
0.9647711686
 40
0.9765349283
 40
0.9882696148
 40
1.0
 40
1.0
 40
1.0
 40
1.0
 10
17.2143853488
 20
10.5252527835
 30
0.0
 10
17.2143853488
 20
10.5125814779
 30
0.0
 10
17.2135517523
 20
10.4868473049
 30
0.0
 10
17.2099671753
 20
10.4478515405
 30
0.0
 10
17.2040549049
 20
10.4080578629
 30
0.0
 10
17.1958601339
 20
10.3676660488
 30
0.0
 10
17.1854321826
 20
10.326868779
 30
0.0
 10
17.1728314744
 20
10.2858663
 30
0.0
 10
17.1581245492
 20
10.2448672118
 30
0.0
 10
17.1413928133
 20
10.2040797281
 30
0.0
 10
17.1227240854
 20
10.1637138094
 30
0.0
 10
17.1022176284
 20
10.1239779311
 30
0.0
 10
17.0799808277
 20
10.0850791478
 30
0.0
 10
17.0561296686
 20
10.0472204657
 30
0.0
 10
17.0307885964
 20
10.0105993549
 30
0.0
 10
17.0040869134
 20
9.9754078119
 30
0.0
 10
16.9761622156
 20
9.9418284544
 30
0.0
 10
16.9471531742
 20
9.9100373985
 30
0.0
 10
16.9172055652
 20
9.8801981525
 30
0.0
 10
16.8864626569
 20
9.8524672552
 30
0.0
 10
16.8550725313
 20
9.8269865925
 30
0.0
 10
16.8231778515
 20
9.8038912727
 30
0.0
 10
16.7909231153
 20
9.7833018417
 30
0.0
 10
16.758445891
 20
9.7653334046
 30
0.0
 10
16.7258835238
 20
9.7500893322
 30
0.0
 10
16.693367192
 20
9.7376700545
 30
0.0
 10
16.6610317485
 20
9.7281708761
 30
0.0
 10
16.634145007
 20
9.7227261644
 30
0.0
 10
16.6128996209
 20
9.7199604222
 30
0.0
 10
16.5972208082
 20
9.7186879809
 30
0.0
 10
16.5817020987
 20
9.7182119818
 30
0.0
 10
16.5663659774
 20
9.718541641
 30
0.0
 10
16.5512352968
 20
9.7196869779
 30
0.0
 10
16.5314618119
 20
9.7222999855
 30
0.0
 10
16.5120933378
 20
9.7265675714
 30
0.0
 10
16.4933583687
 20
9.7325128233
 30
0.0
 10
16.479705382
 20
9.7377829864
 30
0.0
 10
16.4664369232
 20
9.7438699447
 30
0.0
 10
16.4578669279
 20
9.7484669373
 30
0.0
 10
16.4536598623
 20
9.7508958878
 30
0.0
  0
SPLINE
  5
4DA
100
AcDbEntity
  8
0
100
AcDbSpline
 62
9
  6
CONTINUOUS
 70
0
 71
3
 72
42
 73
38
 74
0
 42
0.0000001
 43
0.0000001
 44
0.0000000001
 40
0.0
 40
0.0
 40
0.0
 40
0.0
 40
0.0306562632
 40
0.0623856467
 40
0.0950998168
 40
0.1287191851
 40
0.1631557968
 40
0.1983032817
 40
0.2340474384
 40
0.2702678767
 40
0.3068395081
 40
0.3436320667
 40
0.3805134393
 40
0.417350296
 40
0.4540101156
 40
0.4903620065
 40
0.5262787629
 40
0.5616378603
 40
0.596323576
 40
0.630227925
 40
0.6632533362
 40
0.6953134118
 40
0.7263364361
 40
0.7562659334
 40
0.7850651973
 40
0.8127177085
 40
0.839232671
 40
0.8646452395
 40
0.8890223678
 40
0.9124621392
 40
0.9350977643
 40
0.9461690515
 40
0.9571038326
 40
0.9679273235
 40
0.9786659646
 40
0.9893473581
 40
1.0
 40
1.0
 40
1.0
 40
1.0
 10
16.3251501046
 20
10.0349465866
 30
0.0
 10
16.3251501046
 20
10.0476019378
 30
0.0
 10
16.3259866222
 20
10.0733613907
 30
0.0
 10
16.3295797003
 20
10.1124754422
 30
0.0
 10
16.3355224726
 20
10.1525389129
 30
0.0
 10
16.3437766277
 20
10.1933294985
 30
0.0
 10
16.3543004963
 20
10.2346305292
 30
0.0
 10
16.36703379
 20
10.2762218637
 30
0.0
 10
16.3819120829
 20
10.3178769881
 30
0.0
 10
16.3988513237
 20
10.359372481
 30
0.0
 10
16.417763022
 20
10.4004834073
 30
0.0
 10
16.438542537
 20
10.4409891704
 30
0.0
 10
16.4610799931
 20
10.4806696545
 30
0.0
 10
16.4852517026
 20
10.5193117519
 30
0.0
 10
16.5109287067
 20
10.5567058158
 30
0.0
 10
16.5379712097
 20
10.5926508297
 30
0.0
 10
16.5662340967
 20
10.6269521358
 30
0.0
 10
16.5955644813
 20
10.6594250864
 30
0.0
 10
16.6258043562
 20
10.6898944144
 30
0.0
 10
16.656791157
 20
10.7181956533
 30
0.0
 10
16.6883576265
 20
10.7441767958
 30
0.0
 10
16.7203351772
 20
10.7676968649
 30
0.0
 10
16.7525513008
 20
10.7886304275
 30
0.0
 10
16.7848352352
 20
10.8068625052
 30
0.0
 10
16.8170133951
 20
10.8222966801
 30
0.0
 10
16.8489164947
 20
10.8348453705
 30
0.0
 10
16.880373863
 20
10.8444423811
 30
0.0
 10
16.9112201983
 20
10.8510277669
 30
0.0
 10
16.9412911348
 20
10.8545653814
 30
0.0
 10
16.9704233427
 20
10.8550235052
 30
0.0
 10
16.9939665354
 20
10.8528162183
 30
0.0
 10
17.0121013284
 20
10.8494863154
 30
0.0
 10
17.025269236
 20
10.8462445477
 30
0.0
 10
17.0380832677
 20
10.8422453173
 30
0.0
 10
17.050526256
 20
10.837493389
 30
0.0
 10
17.0625794716
 20
10.8319939791
 30
0.0
 10
17.0703493182
 20
10.8278326163
 30
0.0
 10
17.0741577459
 20
10.8256338757
 30
0.0
  0
SPLINE
  5
4DB
100
AcDbEntity
  8
0
100
AcDbSpline
 62
9
  6
CONTINUOUS
 70
0
 71
3
 72
22
 73
18
 74
0
 42
0.0000001
 43
0.0000001
 44
0.0000000001
 40
0.0
 40
0.0
 40
0.0
 40
0.0
 40
0.0538988698
 40
0.1080560683
 40
0.1627240566
 40
0.2181422133
 40
0.2745349428
 40
0.3321057189
 40
0.391034159
 40
0.4514778724
 40
0.5135648686
 40
0.5773964165
 40
0.6430535879
 40
0.7105975803
 40
0.8514510998
 40
0.9247940139
 40
1.0
 40
1.0
 40
1.0
 40
1.0
 10
16.4536601914
 20
9.7508964579
 30
0.0
 10
16.4485812
 20
9.7538288076
 30
0.0
 10
16.4386438913
 20
9.7601441502
 30
0.0
 10
16.4245432617
 20
9.7708856618
 30
0.0
 10
16.4112656115
 20
9.7828782488
 30
0.0
 10
16.3988429063
 20
9.7960886951
 30
0.0
 10
16.3873070966
 20
9.8104861908
 30
0.0
 10
16.3766847957
 20
9.826033601
 30
0.0
 10
16.366999106
 20
9.8426917138
 30
0.0
 10
16.358275546
 20
9.8604212903
 30
0.0
 10
16.3505323493
 20
9.8791776302
 30
0.0
 10
16.3437859876
 20
9.8989143229
 30
0.0
 10
16.3380545056
 20
9.9195856343
 30
0.0
 10
16.3316926755
 20
9.9487312871
 30
0.0
 10
16.3275553947
 20
9.9791685443
 30
0.0
 10
16.3254901982
 20
10.0105967534
 30
0.0
 10
16.3251501046
 20
10.0267634589
 30
0.0
 10
16.3251501046
 20
10.0349465866
 30
0.0
  0
SPLINE
  5
4DC
100
AcDbEntity
  8
0
100
AcDbSpline
 62
9
  6
CONTINUOUS
 70
0
 71
3
 72
60
 73
56
 74
0
 42
0.0000001
 43
0.0000001
 44
0.0000000001
 40
0.0
 40
0.0
 40
0.0
 40
0.0
 40
0.0160802619
 40
0.0325448599
 40
0.0493754637
 40
0.0665532358
 40
0.0840597024
 40
0.1018752566
 40
0.1199782593
 40
0.1383440006
 40
0.1757549616
 40
0.2138931996
 40
0.2525249725
 40
0.2914057387
 40
0.3302864586
 40
0.3689181779
 40
0.4070565445
 40
0.4444673871
 40
0.4628329725
 40
0.4809360662
 40
0.5162537799
 40
0.5502528844
 40
0.5667160326
 40
0.5828004529
 40
0.5984947002
 40
0.6137912679
 40
0.6431666668
 40
0.6572567335
 40
0.6709535751
 40
0.6842687943
 40
0.6972195961
 40
0.7098275821
 40
0.7221197419
 40
0.7341288289
 40
0.745892158
 40
0.7574521288
 40
0.7688555816
 40
0.7801524878
 40
0.7913955303
 40
0.8026385761
 40
0.8139355033
 40
0.8253389769
 40
0.8368989382
 40
0.8486622017
 40
0.8606711978
 40
0.872963401
 40
0.8855717076
 40
0.8985227989
 40
0.9118377344
 40
0.925533346
 40
0.9396225905
 40
0.9541148484
 40
0.9690146877
 40
0.9843144034
 40
1.0
 40
1.0
 40
1.0
 40
1.0
 10
16.3817186475
 20
10.0349465868
 30
0.0
 10
16.3817227914
 20
10.0427938081
 30
0.0
 10
16.3820682478
 20
10.0586773474
 30
0.0
 10
16.3835575337
 20
10.0827325283
 30
0.0
 10
16.3860274952
 20
10.107245408
 30
0.0
 10
16.3894801711
 20
10.1321522154
 30
0.0
 10
16.3939025922
 20
10.157393041
 30
0.0
 10
16.399283004
 20
10.1829084372
 30
0.0
 10
16.4056084273
 20
10.2086381342
 30
0.0
 10
16.4153391658
 20
10.2433590551
 30
0.0
 10
16.4297911703
 20
10.2868849368
 30
0.0
 10
16.4504936942
 20
10.3386505044
 30
0.0
 10
16.4744665461
 20
10.389778523
 30
0.0
 10
16.5014799436
 20
10.4397784759
 30
0.0
 10
16.5312744867
 20
10.4881727018
 30
0.0
 10
16.5635661289
 20
10.5344978843
 30
0.0
 10
16.5980455418
 20
10.5783093222
 30
0.0
 10
16.6285135785
 20
10.6125881494
 30
0.0
 10
16.6537171595
 20
10.638376263
 30
0.0
 10
16.6790010982
 20
10.6626317343
 30
0.0
 10
16.7112342141
 20
10.6906310159
 30
0.0
 10
16.7447397891
 20
10.7157949143
 30
0.0
 10
16.7718105469
 20
10.7337473368
 30
0.0
 10
16.79194628
 20
10.7459580679
 30
0.0
 10
16.8120853237
 20
10.7570279209
 30
0.0
 10
16.8385141922
 20
10.7700554833
 30
0.0
 10
16.8651065987
 20
10.7809380266
 30
0.0
 10
16.8916940989
 20
10.7894169368
 30
0.0
 10
16.9111237697
 20
10.794443481
 30
0.0
 10
16.9302706085
 20
10.7982100834
 30
0.0
 10
16.9490888526
 20
10.8007100731
 30
0.0
 10
16.9675336532
 20
10.8019353095
 30
0.0
 10
16.9855605537
 20
10.8018801232
 30
0.0
 10
17.0031258834
 20
10.8005466977
 30
0.0
 10
17.0201868632
 20
10.797935176
 30
0.0
 10
17.0367009811
 20
10.7940497865
 30
0.0
 10
17.0526279709
 20
10.7889022046
 30
0.0
 10
17.067927336
 20
10.7825019251
 30
0.0
 10
17.0825601094
 20
10.7748643298
 30
0.0
 10
17.0964909558
 20
10.766010915
 30
0.0
 10
17.1096834439
 20
10.7559613788
 30
0.0
 10
17.1221049554
 20
10.7447420627
 30
0.0
 10
17.1337269485
 20
10.732383231
 30
0.0
 10
17.1445191829
 20
10.7189139387
 30
0.0
 10
17.1544568632
 20
10.7043688561
 30
0.0
 10
17.1635181935
 20
10.6887845771
 30
0.0
 10
17.1716791252
 20
10.672197736
 30
0.0
 10
17.1789229522
 20
10.6546504332
 30
0.0
 10
17.1852346575
 20
10.6361861205
 30
0.0
 10
17.1905978359
 20
10.6168482886
 30
0.0
 10
17.195000635
 20
10.5966818987
 30
0.0
 10
17.1984318228
 20
10.5757327036
 30
0.0
 10
17.2008788268
 20
10.5540519883
 30
0.0
 10
17.2023448075
 20
10.5317005066
 30
0.0
 10
17.2026660176
 20
10.5165774751
 30
0.0
 10
17.2026696196
 20
10.5089228516
 30
0.0
  0
SPLINE
  5
4DD
100
AcDbEntity
  8
0
100
AcDbSpline
 62
9
  6
CONTINUOUS
 70
0
 71
3
 72
60
 73
56
 74
0
 42
0.0000001
 43
0.0000001
 44
0.0000000001
 40
0.0
 40
0.0
 40
0.0
 40
0.0
 40
0.0160802619
 40
0.0325448599
 40
0.0493754637
 40
0.0665532358
 40
0.0840597024
 40
0.1018752566
 40
0.1199782593
 40
0.1383440006
 40
0.1757549616
 40
0.2138931996
 40
0.2525249725
 40
0.2914057387
 40
0.3302864586
 40
0.3689181779
 40
0.4070565445
 40
0.4444673871
 40
0.4628329725
 40
0.4809360662
 40
0.5162537799
 40
0.5502528844
 40
0.5667160326
 40
0.5828004529
 40
0.5984947002
 40
0.6137912679
 40
0.6431666668
 40
0.6572567335
 40
0.6709535751
 40
0.6842687943
 40
0.6972195961
 40
0.7098275821
 40
0.7221197419
 40
0.7341288289
 40
0.745892158
 40
0.7574521288
 40
0.7688555816
 40
0.7801524878
 40
0.7913955303
 40
0.8026385761
 40
0.8139355033
 40
0.8253389769
 40
0.8368989382
 40
0.8486622017
 40
0.8606711978
 40
0.872963401
 40
0.8855717076
 40
0.8985227989
 40
0.9118377344
 40
0.925533346
 40
0.9396225905
 40
0.9541148484
 40
0.9690146877
 40
0.9843144034
 40
1.0
 40
1.0
 40
1.0
 40
1.0
 10
17.2026696196
 20
10.5089228516
 30
0.0
 10
17.2026654757
 20
10.5010756304
 30
0.0
 10
17.2023200193
 20
10.4851920911
 30
0.0
 10
17.2008307334
 20
10.4611369102
 30
0.0
 10
17.1983607719
 20
10.4366240304
 30
0.0
 10
17.1949080959
 20
10.4117172231
 30
0.0
 10
17.1904856749
 20
10.3864763975
 30
0.0
 10
17.1851052631
 20
10.3609610013
 30
0.0
 10
17.1787798397
 20
10.3352313043
 30
0.0
 10
17.1690491013
 20
10.3005103833
 30
0.0
 10
17.1545970968
 20
10.2569845016
 30
0.0
 10
17.1338945728
 20
10.205218934
 30
0.0
 10
17.1099217209
 20
10.1540909155
 30
0.0
 10
17.0829083235
 20
10.1040909626
 30
0.0
 10
17.0531137804
 20
10.0556967367
 30
0.0
 10
17.0208221382
 20
10.0093715542
 30
0.0
 10
16.9863427253
 20
9.9655601163
 30
0.0
 10
16.9558746885
 20
9.931281289
 30
0.0
 10
16.9306711076
 20
9.9054931754
 30
0.0
 10
16.9053871688
 20
9.8812377042
 30
0.0
 10
16.873154053
 20
9.8532384225
 30
0.0
 10
16.839648478
 20
9.8280745242
 30
0.0
 10
16.8125777202
 20
9.8101221016
 30
0.0
 10
16.792441987
 20
9.7979113706
 30
0.0
 10
16.7723029434
 20
9.7868415176
 30
0.0
 10
16.7458740749
 20
9.7738139551
 30
0.0
 10
16.7192816684
 20
9.7629314119
 30
0.0
 10
16.6926941682
 20
9.7544525016
 30
0.0
 10
16.6732644973
 20
9.7494259575
 30
0.0
 10
16.6541176585
 20
9.745659355
 30
0.0
 10
16.6352994145
 20
9.7431593653
 30
0.0
 10
16.6168546139
 20
9.7419341289
 30
0.0
 10
16.5988277134
 20
9.7419893153
 30
0.0
 10
16.5812623837
 20
9.7433227408
 30
0.0
 10
16.5642014039
 20
9.7459342625
 30
0.0
 10
16.5476872859
 20
9.7498196519
 30
0.0
 10
16.5317602962
 20
9.7549672339
 30
0.0
 10
16.5164609311
 20
9.7613675133
 30
0.0
 10
16.5018281577
 20
9.7690051087
 30
0.0
 10
16.4878973113
 20
9.7778585235
 30
0.0
 10
16.4747048232
 20
9.7879080597
 30
0.0
 10
16.4622833117
 20
9.7991273758
 30
0.0
 10
16.4506613185
 20
9.8114862075
 30
0.0
 10
16.4398690841
 20
9.8249554997
 30
0.0
 10
16.4299314039
 20
9.8395005823
 30
0.0
 10
16.4208700736
 20
9.8550848614
 30
0.0
 10
16.4127091419
 20
9.8716717025
 30
0.0
 10
16.4054653148
 20
9.8892190053
 30
0.0
 10
16.3991536096
 20
9.9076833179
 30
0.0
 10
16.3937904312
 20
9.9270211499
 30
0.0
 10
16.3893876321
 20
9.9471875397
 30
0.0
 10
16.3859564443
 20
9.9681367349
 30
0.0
 10
16.3835094403
 20
9.9898174501
 30
0.0
 10
16.3820434596
 20
10.0121689319
 30
0.0
 10
16.3817222495
 20
10.0272919634
 30
0.0
 10
16.3817186475
 20
10.0349465868
 30
0.0
  0
SPLINE
  5
4DE
100
AcDbEntity
  8
0
100
AcDbSpline
 62
7
  6
CONTINUOUS
 70
0
 71
3
 72
11
 73
7
 74
0
 42
0.0000001
 43
0.0000001
 44
0.0000000001
 40
0.0
 40
0.0
 40
0.0
 40
0.0
 40
0.2396762268
 40
0.4865776347
 40
0.7401797475
 40
1.0
 40
1.0
 40
1.0
 40
1.0
 10
15.0501829805
 20
12.2789537385
 30
0.0
 10
15.0495794992
 20
12.2555285688
 30
0.0
 10
15.0470164525
 20
12.2079981408
 30
0.0
 10
15.0393615834
 20
12.1360078452
 30
0.0
 10
15.0278649545
 20
12.0625378773
 30
0.0
 10
15.0177911336
 20
12.0133413744
 30
0.0
 10
15.0121459752
 20
11.9885741697
 30
0.0
  0
SPLINE
  5
4DF
100
AcDbEntity
  8
0
100
AcDbSpline
 62
7
  6
CONTINUOUS
 70
0
 71
3
 72
26
 73
22
 74
0
 42
0.0000001
 43
0.0000001
 44
0.0000000001
 40
0.0
 40
0.0
 40
0.0
 40
0.0
 40
0.0788068269
 40
0.1557140394
 40
0.2305423312
 40
0.3031394705
 40
0.3733823678
 40
0.4411834014
 40
0.5064934127
 40
0.5693086212
 40
0.6296745178
 40
0.68769252
 40
0.7435239326
 40
0.7973940837
 40
0.8495929931
 40
0.8751835394
 40
0.9004927821
 40
0.9255733235
 40
0.9504800242
 40
0.9752695209
 40
1.0
 40
1.0
 40
1.0
 40
1.0
 10
14.437737911
 20
10.9761537261
 30
0.0
 10
14.4184002217
 20
10.9575822912
 30
0.0
 10
14.3793494184
 20
10.9217499883
 30
0.0
 10
14.3190498244
 20
10.8715440323
 30
0.0
 10
14.2579685411
 20
10.8257252902
 30
0.0
 10
14.1963983772
 20
10.7845098255
 30
0.0
 10
14.1346270256
 20
10.7480966506
 30
0.0
 10
14.0729474603
 20
10.7166562148
 30
0.0
 10
14.011647376
 20
10.6903426859
 30
0.0
 10
13.9510154486
 20
10.6692805694
 30
0.0
 10
13.8913340188
 20
10.6535775708
 30
0.0
 10
13.8328837418
 20
10.6433120447
 30
0.0
 10
13.7759377029
 20
10.6385455056
 30
0.0
 10
13.7207714757
 20
10.6393085037
 30
0.0
 10
13.6761970411
 20
10.6446026954
 30
0.0
 10
13.6418160162
 20
10.6516276007
 30
0.0
 10
13.6168088275
 20
10.6582307527
 30
0.0
 10
13.5924455044
 20
10.6661925172
 30
0.0
 10
13.5687540803
 20
10.6755027927
 30
0.0
 10
13.545764931
 20
10.6861507348
 30
0.0
 10
13.5309180796
 20
10.6941387973
 30
0.0
 10
13.5236313998
 20
10.6983452635
 30
0.0
  0
SPLINE
  5
4E0
100
AcDbEntity
  8
0
100
AcDbSpline
 62
7
  6
CONTINUOUS
 70
0
 71
3
 72
21
 73
17
 74
0
 42
0.0000001
 43
0.0000001
 44
0.0000000001
 40
0.0
 40
0.0
 40
0.0
 40
0.0
 40
0.0752144192
 40
0.1485621238
 40
0.2894176799
 40
0.4225741233
 40
0.4864099588
 40
0.5485001807
 40
0.6089456175
 40
0.667876801
 40
0.7254503312
 40
0.7818455839
 40
0.8372669752
 40
0.8919377545
 40
0.9460978453
 40
1.0
 40
1.0
 40
1.0
 40
1.0
 10
13.0664485035
 20
11.3901267868
 30
0.0
 10
13.0664485035
 20
11.3734421815
 30
0.0
 10
13.0671416803
 20
11.3404811882
 30
0.0
 10
13.0713526933
 20
11.2764024944
 30
0.0
 10
13.0817494463
 20
11.199922607
 30
0.0
 10
13.0996013933
 20
11.1269608394
 30
0.0
 10
13.1182002682
 20
11.0725487575
 30
0.0
 10
13.1339872842
 20
11.0343082024
 30
0.0
 10
13.1517755494
 20
10.9981634865
 30
0.0
 10
13.171522713
 20
10.9642018869
 30
0.0
 10
13.1931799052
 20
10.9325047272
 30
0.0
 10
13.216702218
 20
10.9031541745
 30
0.0
 10
13.2420292841
 20
10.8762210017
 30
0.0
 10
13.2691011214
 20
10.8517722088
 30
0.0
 10
13.297852373
 20
10.8298766896
 30
0.0
 10
13.3181124185
 20
10.8170010426
 30
0.0
 10
13.3284677237
 20
10.8110230274
 30
0.0
  0
SPLINE
  5
4E1
100
AcDbEntity
  8
0
100
AcDbSpline
 62
7
  6
CONTINUOUS
 70
0
 71
3
 72
11
 73
7
 74
0
 42
0.0000001
 43
0.0000001
 44
0.0000000001
 40
0.0
 40
0.0
 40
0.0
 40
0.0
 40
0.2387968346
 40
0.4854509364
 40
0.7393632787
 40
1.0
 40
1.0
 40
1.0
 40
1.0
 10
15.0435190637
 20
12.2784750669
 30
0.0
 10
15.0435190637
 20
12.2552035437
 30
0.0
 10
15.0420829863
 20
12.2078854319
 30
0.0
 10
15.0358958737
 20
12.1360649198
 30
0.0
 10
15.025655642
 20
12.0625617046
 30
0.0
 10
15.0162803055
 20
12.0132782342
 30
0.0
 10
15.0109523679
 20
11.9884434294
 30
0.0
  0
SPLINE
  5
4E2
100
AcDbEntity
  8
0
100
AcDbSpline
 62
7
  6
CONTINUOUS
 70
0
 71
3
 72
24
 73
20
 74
0
 42
0.0000001
 43
0.0000001
 44
0.0000000001
 40
0.0
 40
0.0
 40
0.0
 40
0.0
 40
0.0777846849
 40
0.153564509
 40
0.2272309299
 40
0.2987026975
 40
0.3679209362
 40
0.4348597414
 40
0.4995234618
 40
0.5619540324
 40
0.6222329817
 40
0.6804833704
 40
0.7368756076
 40
0.7916235123
 40
0.8449891824
 40
0.8972741209
 40
0.9488172739
 40
0.9744324399
 40
1.0
 40
1.0
 40
1.0
 40
1.0
 10
14.3440674946
 20
10.8958390968
 30
0.0
 10
14.3270367774
 20
10.882203767
 30
0.0
 10
14.2928167849
 20
10.8560194986
 30
0.0
 10
14.2404293004
 20
10.8196822377
 30
0.0
 10
14.1878102691
 20
10.7869123278
 30
0.0
 10
14.1351594869
 20
10.7578260469
 30
0.0
 10
14.0826663958
 20
10.7325375349
 30
0.0
 10
14.0305266593
 20
10.7111370252
 30
0.0
 10
13.9789299154
 20
10.6937079307
 30
0.0
 10
13.9280655932
 20
10.6803175695
 30
0.0
 10
13.8781207638
 20
10.6710159269
 30
0.0
 10
13.8292781437
 20
10.6658484569
 30
0.0
 10
13.7817193501
 20
10.6648316186
 30
0.0
 10
13.7356221326
 20
10.6679864095
 30
0.0
 10
13.6911601979
 20
10.6752978042
 30
0.0
 10
13.6485094281
 20
10.6867531176
 30
0.0
 10
13.6145318845
 20
10.6997478655
 30
0.0
 10
13.5885072509
 20
10.7121356687
 30
0.0
 10
13.5758820063
 20
10.7189855616
 30
0.0
 10
13.5696714988
 20
10.7225707836
 30
0.0
  0
SPLINE
  5
4E3
100
AcDbEntity
  8
0
100
AcDbSpline
 62
7
  6
CONTINUOUS
 70
0
 71
3
 72
9
 73
5
 74
0
 42
0.0000001
 43
0.0000001
 44
0.0000000001
 40
0.0
 40
0.0
 40
0.0
 40
0.0
 40
0.2556057709
 40
1.0
 40
1.0
 40
1.0
 40
1.0
 10
13.3321195246
 20
11.2380360504
 30
0.0
 10
13.3325289026
 20
11.2294370616
 30
0.0
 10
13.3345463407
 20
11.1958173786
 30
0.0
 10
13.3382610734
 20
11.1622929934
 30
0.0
 10
13.342092782
 20
11.1375165508
 30
0.0
  0
SPLINE
  5
4E4
100
AcDbEntity
  8
0
100
AcDbSpline
 62
7
  6
CONTINUOUS
 70
0
 71
3
 72
15
 73
11
 74
0
 42
0.0000001
 43
0.0000001
 44
0.0000000001
 40
0.0
 40
0.0
 40
0.0
 40
0.0
 40
0.1370987096
 40
0.270468354
 40
0.4001979303
 40
0.526411721
 40
0.649269655
 40
0.7689734626
 40
0.8857821118
 40
1.0
 40
1.0
 40
1.0
 40
1.0
 10
13.342092782
 20
11.1375165508
 30
0.0
 10
13.3442600774
 20
11.1235024705
 30
0.0
 10
13.3492108477
 20
11.0959540426
 30
0.0
 10
13.3586504891
 20
11.0556310972
 30
0.0
 10
13.3699842721
 20
11.0169680416
 30
0.0
 10
13.3831852869
 20
10.9800531255
 30
0.0
 10
13.3982223005
 20
10.9449706226
 30
0.0
 10
13.4150683835
 20
10.9118045748
 30
0.0
 10
13.4336809625
 20
10.8806332349
 30
0.0
 10
13.4473827792
 20
10.861024693
 30
0.0
 10
13.4545108232
 20
10.8516033298
 30
0.0
  0
LINE
  5
4E5
100
AcDbEntity
  8
0
100
AcDbLine
 62
7
  6
CONTINUOUS
 10
13.4545108232
 20
10.8516033298
 11
13.4546784974
 21
10.8513818458
  0
SPLINE
  5
4E6
100
AcDbEntity
  8
0
100
AcDbSpline
 62
7
  6
CONTINUOUS
 70
0
 71
3
 72
21
 73
17
 74
0
 42
0.0000001
 43
0.0000001
 44
0.0000000001
 40
0.0
 40
0.0
 40
0.0
 40
0.0
 40
0.1326974534
 40
0.2657688173
 40
0.4000577095
 40
0.5367500872
 40
0.677380078
 40
0.749530459
 40
0.8223871866
 40
0.8931363071
 40
0.9251727647
 40
0.9526181757
 40
0.9738304746
 40
0.9883396758
 40
0.9967052153
 40
1.0
 40
1.0
 40
1.0
 40
1.0
 10
14.7678872213
 20
12.0049394159
 30
0.0
 10
14.7678872258
 20
12.0152469841
 30
0.0
 10
14.7674555878
 20
12.0358939916
 30
0.0
 10
14.7654595467
 20
12.0669148064
 30
0.0
 10
14.7620434478
 20
12.0981250068
 30
0.0
 10
14.7571101722
 20
12.1297262058
 30
0.0
 10
14.7516878325
 20
12.1563354743
 30
0.0
 10
14.7465489647
 20
12.1779209715
 30
0.0
 10
14.74233835
 20
12.1941438876
 30
0.0
 10
14.738687514
 20
12.2072902041
 30
0.0
 10
14.7359052639
 20
12.2170160555
 30
0.0
 10
14.7341669651
 20
12.223038299
 30
0.0
 10
14.7328095365
 20
12.2277534215
 30
0.0
 10
14.7318722898
 20
12.2310472477
 30
0.0
 10
14.7313277117
 20
12.2330057269
 30
0.0
 10
14.7310901211
 20
12.2338797634
 30
0.0
 10
14.7310246696
 20
12.2341271823
 30
0.0
  0
LINE
  5
4E7
100
AcDbEntity
  8
0
100
AcDbLine
 62
7
  6
CONTINUOUS
 10
13.7223482635
 20
12.2452894598
 11
13.7211195856
 21
12.2435654036
  0
LINE
  5
4E8
100
AcDbEntity
  8
0
100
AcDbLine
 62
7
  6
CONTINUOUS
 10
13.5904151277
 20
12.0300982489
 11
13.5902133728
 21
12.0297112691
  0
LINE
  5
4E9
100
AcDbEntity
  8
0
100
AcDbLine
 62
7
  6
CONTINUOUS
 10
13.5378437429
 20
11.9204301403
 11
13.5366032029
 21
11.9175921752
  0
LINE
  5
4EA
100
AcDbEntity
  8
0
100
AcDbLine
 62
7
  6
CONTINUOUS
 10
13.5366032029
 20
11.9175921752
 11
13.5354297625
 21
11.9148951256
  0
LINE
  5
4EB
100
AcDbEntity
  8
0
100
AcDbLine
 62
7
  6
CONTINUOUS
 10
13.5354297625
 20
11.9148951256
 11
13.5344527857
 21
11.9126401793
  0
SPLINE
  5
4EC
100
AcDbEntity
  8
0
100
AcDbSpline
 62
7
  6
CONTINUOUS
 70
0
 71
3
 72
32
 73
28
 74
0
 42
0.0000001
 43
0.0000001
 44
0.0000000001
 40
0.0
 40
0.0
 40
0.0
 40
0.0
 40
0.001403244
 40
0.0024998158
 40
0.0050412987
 40
0.0092375626
 40
0.0152839317
 40
0.0233512182
 40
0.0335731006
 40
0.045851996
 40
0.0599918981
 40
0.0925492496
 40
0.1283438111
 40
0.1653801224
 40
0.2026410569
 40
0.2396939229
 40
0.2763879761
 40
0.312684871
 40
0.3841514962
 40
0.4543651216
 40
0.52363933
 40
0.5922491773
 40
0.6604209638
 40
0.7283377993
 40
0.796147369
 40
0.8639686754
 40
1.0
 40
1.0
 40
1.0
 40
1.0
 10
14.0626666087
 20
11.0759665202
 30
0.0
 10
14.0625409068
 20
11.075930833
 30
0.0
 10
14.0620874063
 20
11.075805051
 30
0.0
 10
14.0628206957
 20
11.0760041847
 30
0.0
 10
14.0633570801
 20
11.0761429418
 30
0.0
 10
14.0646032597
 20
11.0764667195
 30
0.0
 10
14.0662128262
 20
11.0768753463
 30
0.0
 10
14.068428081
 20
11.0774327445
 30
0.0
 10
14.0711837601
 20
11.0781180044
 30
0.0
 10
14.0744978774
 20
11.0789393507
 30
0.0
 10
14.0798275106
 20
11.0802599875
 30
0.0
 10
14.087281016
 20
11.0821205651
 30
0.0
 10
14.0967870538
 20
11.084558204
 30
0.0
 10
14.1066941069
 20
11.0871950055
 30
0.0
 10
14.1166844212
 20
11.0899720481
 30
0.0
 10
14.1266094869
 20
11.0928621323
 30
0.0
 10
14.1364104318
 20
11.0958544384
 30
0.0
 10
14.1492223486
 20
11.0999551291
 30
0.0
 10
14.1649016981
 20
11.105331494
 30
0.0
 10
14.1832994409
 20
11.1122242487
 30
0.0
 10
14.2012494288
 20
11.1195320047
 30
0.0
 10
14.2188142748
 20
11.1272614152
 30
0.0
 10
14.2360454314
 20
11.1354171943
 30
0.0
 10
14.2529831861
 20
11.1440020833
 30
0.0
 10
14.2696588612
 20
11.1530173813
 30
0.0
 10
14.291594218
 20
11.1656222044
 30
0.0
 10
14.307689403
 20
11.1757058475
 30
0.0
 10
14.3182580841
 20
11.1826887304
 30
0.0
  0
SPLINE
  5
4ED
100
AcDbEntity
  8
0
100
AcDbSpline
 62
7
  6
CONTINUOUS
 70
0
 71
3
 72
14
 73
10
 74
0
 42
0.0000001
 43
0.0000001
 44
0.0000000001
 40
0.0
 40
0.0
 40
0.0
 40
0.0
 40
0.1154490118
 40
0.2329476045
 40
0.3528958018
 40
0.4756522925
 40
0.7306283924
 40
0.8634466143
 40
1.0
 40
1.0
 40
1.0
 40
1.0
 10
14.6807942478
 20
12.8611389737
 30
0.0
 10
14.6696893006
 20
12.8640866676
 30
0.0
 10
14.6470333511
 20
12.869134315
 30
0.0
 10
14.6122349704
 20
12.8741059546
 30
0.0
 10
14.5764360699
 20
12.8765303344
 30
0.0
 10
14.526873981
 20
12.8763514417
 30
0.0
 10
14.4761831176
 20
12.8709355566
 30
0.0
 10
14.4249889701
 20
12.8607328586
 30
0.0
 10
14.3990254566
 20
12.8539836905
 30
0.0
 10
14.3859694392
 20
12.8502122797
 30
0.0
  0
SPLINE
  5
4EE
100
AcDbEntity
  8
0
100
AcDbSpline
 62
7
  6
CONTINUOUS
 70
0
 71
3
 72
9
 73
5
 74
0
 42
0.0000001
 43
0.0000001
 44
0.0000000001
 40
0.0
 40
0.0
 40
0.0
 40
0.0
 40
0.2442183454
 40
1.0
 40
1.0
 40
1.0
 40
1.0
 10
14.3859694392
 20
12.8502122797
 30
0.0
 10
14.3783960761
 20
12.8480246093
 30
0.0
 10
14.3475261785
 20
12.838583249
 30
0.0
 10
14.3172397701
 20
12.8272607218
 30
0.0
 10
14.2947482021
 20
12.8178124517
 30
0.0
  0
SPLINE
  5
4EF
100
AcDbEntity
  8
0
100
AcDbSpline
 62
7
  6
CONTINUOUS
 70
0
 71
3
 72
9
 73
5
 74
0
 42
0.0000001
 43
0.0000001
 44
0.0000000001
 40
0.0
 40
0.0
 40
0.0
 40
0.0
 40
0.244527767
 40
1.0
 40
1.0
 40
1.0
 40
1.0
 10
14.2947482021
 20
12.8178124517
 30
0.0
 10
14.287015059
 20
12.8145639087
 30
0.0
 10
14.255573955
 20
12.8008439584
 30
0.0
 10
14.2248768435
 20
12.7854339538
 30
0.0
 10
14.2021459683
 20
12.7729901346
 30
0.0
  0
LINE
  5
4F0
100
AcDbEntity
  8
0
100
AcDbLine
 62
7
  6
CONTINUOUS
 10
14.1089950507
 20
12.7160918313
 11
14.1072920231
 21
12.7149412329
  0
LINE
  5
4F1
100
AcDbEntity
  8
0
100
AcDbLine
 62
7
  6
CONTINUOUS
 10
14.0168086691
 20
12.6480077572
 11
14.0156129592
 21
12.647045805
  0
LINE
  5
4F2
100
AcDbEntity
  8
0
100
AcDbLine
 62
7
  6
CONTINUOUS
 10
13.3630701292
 20
11.5755860509
 11
13.3628779101
 21
11.5746905143
  0
LINE
  5
4F3
100
AcDbEntity
  8
0
100
AcDbLine
 62
7
  6
CONTINUOUS
 10
13.3628779101
 20
11.5746905143
 11
13.3625743715
 21
11.5732712381
  0
LINE
  5
4F4
100
AcDbEntity
  8
0
100
AcDbLine
 62
7
  6
CONTINUOUS
 10
13.3427221252
 20
11.4595299585
 11
13.3425338495
 21
11.4581263899
  0
SPLINE
  5
4F5
100
AcDbEntity
  8
0
100
AcDbSpline
 62
7
  6
CONTINUOUS
 70
0
 71
3
 72
9
 73
5
 74
0
 42
0.0000001
 43
0.0000001
 44
0.0000000001
 40
0.0
 40
0.0
 40
0.0
 40
0.0
 40
0.2544976282
 40
1.0
 40
1.0
 40
1.0
 40
1.0
 10
13.3425338495
 20
11.4581263899
 30
0.0
 10
13.3412600493
 20
11.4485943122
 30
0.0
 10
13.3366359876
 20
11.4110903584
 30
0.0
 10
13.3335616849
 20
11.3733916228
 30
0.0
 10
13.3322345373
 20
11.3452522814
 30
0.0
  0
SPLINE
  5
4F6
100
AcDbEntity
  8
0
100
AcDbSpline
 62
7
  6
CONTINUOUS
 70
0
 71
3
 72
21
 73
17
 74
0
 42
0.0000001
 43
0.0000001
 44
0.0000000001
 40
0.0
 40
0.0
 40
0.0
 40
0.0
 40
0.0539019415
 40
0.1080618212
 40
0.1627324099
 40
0.2181536124
 40
0.2745487364
 40
0.3321221927
 40
0.3910533441
 40
0.4514988519
 40
0.5135891418
 40
0.577425032
 40
0.7105817489
 40
0.8514378011
 40
0.9247856051
 40
1.0
 40
1.0
 40
1.0
 40
1.0
 10
14.7906118689
 20
12.8374370248
 30
0.0
 10
14.8006070093
 20
12.8316669975
 30
0.0
 10
14.8201624193
 20
12.8192393373
 30
0.0
 10
14.8479136925
 20
12.7981055284
 30
0.0
 10
14.8740439601
 20
12.7745072314
 30
0.0
 10
14.898490268
 20
12.7485110399
 30
0.0
 10
14.9211944963
 20
12.7201814077
 30
0.0
 10
14.9420985451
 20
12.6895867924
 30
0.0
 10
14.9611590813
 20
12.6568064751
 30
0.0
 10
14.9783287143
 20
12.6219188553
 30
0.0
 10
14.9935668027
 20
12.5850083123
 30
0.0
 10
15.0115190045
 20
12.5324886419
 30
0.0
 10
15.0287501754
 20
12.4620643053
 30
0.0
 10
15.0387853955
 20
12.3882441892
 30
0.0
 10
15.0428499861
 20
12.3263940153
 30
0.0
 10
15.0435190637
 20
12.2945793807
 30
0.0
 10
15.0435190637
 20
12.2784750669
 30
0.0
  0
SPLINE
  5
4F7
100
AcDbEntity
  8
0
100
AcDbSpline
 62
7
  6
CONTINUOUS
 70
0
 71
3
 72
45
 73
41
 74
0
 42
0.0000001
 43
0.0000001
 44
0.0000000001
 40
0.0
 40
0.0
 40
0.0
 40
0.0
 40
0.0106523703
 40
0.0213335878
 40
0.0320720338
 40
0.0428952684
 40
0.0538299026
 40
0.0649011825
 40
0.0761324552
 40
0.0875453475
 40
0.1109852313
 40
0.1353618879
 40
0.1479372319
 40
0.1607810845
 40
0.1872955366
 40
0.2009811004
 40
0.214953156
 40
0.2437518388
 40
0.2736812636
 40
0.3047036278
 40
0.3367633144
 40
0.369788005
 40
0.403691722
 40
0.4383766653
 40
0.4737349113
 40
0.5096507586
 40
0.5460016137
 40
0.5826603955
 40
0.6194961751
 40
0.656376396
 40
0.6931678698
 40
0.729738432
 40
0.7659580416
 40
0.8017011188
 40
0.8368476671
 40
0.8712836928
 40
0.904902623
 40
0.9376152585
 40
0.9693433085
 40
1.0
 40
1.0
 40
1.0
 40
1.0
 10
14.5934094397
 20
13.0020987211
 30
0.0
 10
14.5856452576
 20
13.0065809066
 30
0.0
 10
14.5698046885
 20
13.0150635721
 30
0.0
 10
14.5452305136
 20
13.0262709706
 30
0.0
 10
14.5198633579
 20
13.0359577499
 30
0.0
 10
14.4937397572
 20
13.0441108651
 30
0.0
 10
14.4668946804
 20
13.0507174916
 30
0.0
 10
14.4393654847
 20
13.0557680595
 30
0.0
 10
14.4111899263
 20
13.0592591551
 30
0.0
 10
14.3724746734
 20
13.0618522533
 30
0.0
 10
14.322532647
 20
13.0610613474
 30
0.0
 10
14.2719724399
 20
13.0551150805
 30
0.0
 10
14.2307782117
 20
13.0473462598
 30
0.0
 10
14.1882211393
 20
13.037330311
 30
0.0
 10
14.1454640289
 20
13.0242883303
 30
0.0
 10
14.1027013541
 20
13.0084567286
 30
0.0
 10
14.0587881091
 20
12.990285882
 30
0.0
 10
14.0035716457
 20
12.9638023211
 30
0.0
 10
13.9377591827
 20
12.9266300756
 30
0.0
 10
13.8720805508
 20
12.8839534443
 30
0.0
 10
13.8068909035
 20
12.8360019405
 30
0.0
 10
13.7425382505
 20
12.7830344275
 30
0.0
 10
13.6793674947
 20
12.7253373188
 30
0.0
 10
13.6177204808
 20
12.6632194443
 30
0.0
 10
13.5579257551
 20
12.5970188899
 30
0.0
 10
13.5003101613
 20
12.5270888482
 30
0.0
 10
13.4451789667
 20
12.4538108236
 30
0.0
 10
13.392835703
 20
12.3775759253
 30
0.0
 10
13.343556675
 20
12.2987998306
 30
0.0
 10
13.2976139105
 20
12.217904163
 30
0.0
 10
13.2552502075
 20
12.1353286503
 30
0.0
 10
13.2166986715
 20
12.0515170255
 30
0.0
 10
13.1821641459
 20
11.9669232673
 30
0.0
 10
13.1518345535
 20
11.8820026864
 30
0.0
 10
13.1258744963
 20
11.7972131127
 30
0.0
 10
13.1044216308
 20
11.7130140084
 30
0.0
 10
13.0875937645
 20
11.6298566429
 30
0.0
 10
13.0754790562
 20
11.548182091
 30
0.0
 10
13.0681533604
 20
11.4684425275
 30
0.0
 10
13.0664485035
 20
11.4159275641
 30
0.0
 10
13.0664485035
 20
11.3901267868
 30
0.0
  0
SPLINE
  5
4F8
100
AcDbEntity
  8
0
100
AcDbSpline
 62
7
  6
CONTINUOUS
 70
0
 71
3
 72
21
 73
17
 74
0
 42
0.0000001
 43
0.0000001
 44
0.0000000001
 40
0.0
 40
0.0
 40
0.0
 40
0.0
 40
0.053901968
 40
0.1080618715
 40
0.1627324816
 40
0.2181537013
 40
0.2745488319
 40
0.3321222827
 40
0.3910534175
 40
0.4514988941
 40
0.5135891449
 40
0.5774249953
 40
0.7105816545
 40
0.8514377453
 40
0.9247855837
 40
1.0
 40
1.0
 40
1.0
 40
1.0
 10
14.7885687068
 20
12.8894234286
 30
0.0
 10
14.7989240532
 20
12.8834454776
 30
0.0
 10
14.8191842031
 20
12.870569981
 30
0.0
 10
14.8479355824
 20
12.8486745987
 30
0.0
 10
14.8750075367
 20
12.8242259098
 30
0.0
 10
14.9003348384
 20
12.7972929076
 30
0.0
 10
14.9238572832
 20
12.7679423813
 30
0.0
 10
14.9455146655
 20
12.7362452477
 30
0.0
 10
14.965262091
 20
12.7022836489
 30
0.0
 10
14.9830504751
 20
12.6661388161
 30
0.0
 10
14.9988377026
 20
12.6278981618
 30
0.0
 10
15.0174368509
 20
12.5734858816
 30
0.0
 10
15.0352890013
 20
12.5005236918
 30
0.0
 10
15.0456858649
 20
12.4240433276
 30
0.0
 10
15.0498969398
 20
12.3599642475
 30
0.0
 10
15.0505901315
 20
12.327003101
 30
0.0
 10
15.0505901315
 20
12.3103184335
 30
0.0
  0
SPLINE
  5
4F9
100
AcDbEntity
  8
0
100
AcDbSpline
 62
7
  6
CONTINUOUS
 70
0
 71
3
 72
18
 73
14
 74
0
 42
0.0000001
 43
0.0000001
 44
0.0000000001
 40
0.0
 40
0.0
 40
0.0
 40
0.0
 40
0.1488480651
 40
0.3032797753
 40
0.4568310819
 40
0.6028980565
 40
0.7352378694
 40
0.7944840151
 40
0.8483009774
 40
0.896144341
 40
0.9375480579
 40
0.9722241021
 40
1.0
 40
1.0
 40
1.0
 40
1.0
 10
13.4832778774
 20
11.9345878094
 30
0.0
 10
13.4853795596
 20
11.9334988963
 30
0.0
 10
13.4897039073
 20
11.9313609582
 30
0.0
 10
13.4963171208
 20
11.9283515764
 30
0.0
 10
13.5029802665
 20
11.925566701
 30
0.0
 10
13.5094026986
 20
11.9231266243
 30
0.0
 10
13.514491806
 20
11.9214083099
 30
0.0
 10
13.518234188
 20
11.9203005332
 30
0.0
 10
13.5207083727
 20
11.919646225
 30
0.0
 10
13.5229277662
 20
11.9191436109
 30
0.0
 10
13.5248690624
 20
11.9187981811
 30
0.0
 10
13.5265109523
 20
11.918611591
 30
0.0
 10
13.5275069776
 20
11.9185894183
 30
0.0
 10
13.5279477876
 20
11.9186174437
 30
0.0
  0
SPLINE
  5
4FA
100
AcDbEntity
  8
0
100
AcDbSpline
 62
7
  6
CONTINUOUS
 70
0
 71
3
 72
15
 73
11
 74
0
 42
0.0000001
 43
0.0000001
 44
0.0000000001
 40
0.0
 40
0.0
 40
0.0
 40
0.0
 40
0.1523875766
 40
0.2967049301
 40
0.4322068771
 40
0.5589435017
 40
0.6775588043
 40
0.7892975507
 40
0.8960082877
 40
1.0
 40
1.0
 40
1.0
 40
1.0
 10
14.8955543911
 20
12.098043652
 30
0.0
 10
14.8952759846
 20
12.0956469982
 30
0.0
 10
14.8949349132
 20
12.0909538884
 30
0.0
 10
14.8950994076
 20
12.0841010409
 30
0.0
 10
14.8959619937
 20
12.0777071304
 30
0.0
 10
14.8975105975
 20
12.0718607527
 30
0.0
 10
14.8997316364
 20
12.0666376804
 30
0.0
 10
14.9026033296
 20
12.0621073537
 30
0.0
 10
14.9060956845
 20
12.0583428683
 30
0.0
 10
14.9088227985
 20
12.0563759113
 30
0.0
 10
14.910248398
 20
12.0555520966
 30
0.0
  0
SPLINE
  5
4FB
100
AcDbEntity
  8
0
100
AcDbSpline
 62
7
  6
CONTINUOUS
 70
0
 71
3
 72
17
 73
13
 74
0
 42
0.0000001
 43
0.0000001
 44
0.0000000001
 40
0.0
 40
0.0
 40
0.0
 40
0.0
 40
0.1369679339
 40
0.2798048398
 40
0.4237758606
 40
0.5640368436
 40
0.6957865251
 40
0.8146928467
 40
0.8681382327
 40
0.9170474695
 40
0.9610743132
 40
1.0
 40
1.0
 40
1.0
 40
1.0
 10
13.4342170116
 20
11.8140952394
 30
0.0
 10
13.4361225086
 20
11.8131599529
 30
0.0
 10
13.4400690556
 20
11.8113578561
 30
0.0
 10
13.4461687924
 20
11.8089178959
 30
0.0
 10
13.4524214251
 20
11.8067408968
 30
0.0
 10
13.4586030391
 20
11.8049024303
 30
0.0
 10
13.4644922461
 20
11.8034702467
 30
0.0
 10
13.4691327148
 20
11.8026246485
 30
0.0
 10
13.4725373523
 20
11.80220926
 30
0.0
 10
13.4748002148
 20
11.8020356318
 30
0.0
 10
13.476844327
 20
11.8019906812
 30
0.0
 10
13.4781301206
 20
11.8020500772
 30
0.0
 10
13.478730745
 20
11.802106302
 30
0.0
  0
SPLINE
  5
4FC
100
AcDbEntity
  8
0
100
AcDbSpline
 62
7
  6
CONTINUOUS
 70
0
 71
3
 72
11
 73
7
 74
0
 42
0.0000001
 43
0.0000001
 44
0.0000000001
 40
0.0
 40
0.0
 40
0.0
 40
0.0
 40
0.2318605429
 40
0.4717926975
 40
0.7265534312
 40
1.0
 40
1.0
 40
1.0
 40
1.0
 10
14.4182636316
 20
12.2820466729
 30
0.0
 10
14.4166225385
 20
12.2829944492
 30
0.0
 10
14.413043183
 20
12.2845345238
 30
0.0
 10
14.4071569949
 20
12.2856064293
 30
0.0
 10
14.4008432299
 20
12.2854506874
 30
0.0
 10
14.3965904954
 20
12.2845877166
 30
0.0
 10
14.3944387397
 20
12.2839833453
 30
0.0
  0
SPLINE
  5
4FD
100
AcDbEntity
  8
0
100
AcDbSpline
 62
7
  6
CONTINUOUS
 70
0
 71
3
 72
15
 73
11
 74
0
 42
0.0000001
 43
0.0000001
 44
0.0000000001
 40
0.0
 40
0.0
 40
0.0
 40
0.0
 40
0.126355564
 40
0.2591558295
 40
0.3949779331
 40
0.5303774761
 40
0.661791627
 40
0.7858214845
 40
0.8994122219
 40
1.0
 40
1.0
 40
1.0
 40
1.0
 10
13.3938720047
 20
11.6936312892
 30
0.0
 10
13.3955552688
 20
11.6928175163
 30
0.0
 10
13.3990681315
 20
11.6912716277
 30
0.0
 10
13.4045552614
 20
11.6892505352
 30
0.0
 10
13.4102762204
 20
11.6875047146
 30
0.0
 10
13.4160659992
 20
11.6860868416
 30
0.0
 10
13.4217561819
 20
11.6850349563
 30
0.0
 10
13.4271817656
 20
11.6843813996
 30
0.0
 10
13.4321848554
 20
11.6841419258
 30
0.0
 10
13.4353582353
 20
11.6842696574
 30
0.0
 10
13.4368387623
 20
11.6844222881
 30
0.0
  0
SPLINE
  5
4FE
100
AcDbEntity
  8
0
100
AcDbSpline
 62
7
  6
CONTINUOUS
 70
0
 71
3
 72
15
 73
11
 74
0
 42
0.0000001
 43
0.0000001
 44
0.0000000001
 40
0.0
 40
0.0
 40
0.0
 40
0.0
 40
0.1214473062
 40
0.2466004482
 40
0.3740033112
 40
0.5023694416
 40
0.6304330446
 40
0.7569364987
 40
0.8806014732
 40
1.0
 40
1.0
 40
1.0
 40
1.0
 10
14.9128066814
 20
12.0532871543
 30
0.0
 10
14.9107134393
 20
12.0512922154
 30
0.0
 10
14.9066339774
 20
12.0470589744
 30
0.0
 10
14.9009627289
 20
12.0401831938
 30
0.0
 10
14.8957245651
 20
12.0327690653
 30
0.0
 10
14.8909978778
 20
12.0249382729
 30
0.0
 10
14.8868564069
 20
12.016806804
 30
0.0
 10
14.8833599809
 20
12.0084985314
 30
0.0
 10
14.8805700605
 20
12.0001445911
 30
0.0
 10
14.8791758818
 20
11.9945196045
 30
0.0
 10
14.8786151523
 20
11.9917326177
 30
0.0
  0
SPLINE
  5
4FF
100
AcDbEntity
  8
0
100
AcDbSpline
 62
7
  6
CONTINUOUS
 70
0
 71
3
 72
15
 73
11
 74
0
 42
0.0000001
 43
0.0000001
 44
0.0000000001
 40
0.0
 40
0.0
 40
0.0
 40
0.0
 40
0.153985174
 40
0.3001149883
 40
0.4372168845
 40
0.565010605
 40
0.6838178808
 40
0.7946671819
 40
0.8992932552
 40
1.0
 40
1.0
 40
1.0
 40
1.0
 10
14.8786151523
 20
11.9917326177
 30
0.0
 10
14.8780707616
 20
11.9890268398
 30
0.0
 10
14.8772369223
 20
11.9837037809
 30
0.0
 10
14.8767699776
 20
11.9758679559
 30
0.0
 10
14.8771367755
 20
11.9684933389
 30
0.0
 10
14.8783281597
 20
11.9616992197
 30
0.0
 10
14.8803361696
 20
11.9555886349
 30
0.0
 10
14.8831374031
 20
11.9502553086
 30
0.0
 10
14.8867033539
 20
11.9458038781
 30
0.0
 10
14.8895798112
 20
11.9434537556
 30
0.0
 10
14.8910965606
 20
11.9424751509
 30
0.0
  0
SPLINE
  5
500
100
AcDbEntity
  8
0
100
AcDbSpline
 62
7
  6
CONTINUOUS
 70
0
 71
3
 72
15
 73
11
 74
0
 42
0.0000001
 43
0.0000001
 44
0.0000000001
 40
0.0
 40
0.0
 40
0.0
 40
0.0
 40
0.1080187781
 40
0.2180644345
 40
0.331972958
 40
0.4513069093
 40
0.577255428
 40
0.7106375724
 40
0.8516339167
 40
1.0
 40
1.0
 40
1.0
 40
1.0
 10
14.3201286591
 20
12.239702966
 30
0.0
 10
14.3189232199
 20
12.2403981089
 30
0.0
 10
14.3163643075
 20
12.2415949874
 30
0.0
 10
14.3122256437
 20
12.2427419837
 30
0.0
 10
14.3078132541
 20
12.2432348038
 30
0.0
 10
14.3031742382
 20
12.2430732831
 30
0.0
 10
14.2983508345
 20
12.2422651846
 30
0.0
 10
14.2933905356
 20
12.2408156189
 30
0.0
 10
14.2883427825
 20
12.2387494425
 30
0.0
 10
14.285034484
 20
12.237019302
 30
0.0
 10
14.2833792739
 20
12.236063666
 30
0.0
  0
SPLINE
  5
501
100
AcDbEntity
  8
0
100
AcDbSpline
 62
7
  6
CONTINUOUS
 70
0
 71
3
 72
15
 73
11
 74
0
 42
0.0000001
 43
0.0000001
 44
0.0000000001
 40
0.0
 40
0.0
 40
0.0
 40
0.0
 40
0.1170196278
 40
0.2389768774
 40
0.364486893
 40
0.4922792463
 40
0.621078169
 40
0.7495749157
 40
0.8764075469
 40
1.0
 40
1.0
 40
1.0
 40
1.0
 10
14.8910965606
 20
11.9424751509
 30
0.0
 10
14.8888900705
 20
11.9407228162
 30
0.0
 10
14.884552783
 20
11.9369278131
 30
0.0
 10
14.8784486048
 20
11.9306094509
 30
0.0
 10
14.8726992722
 20
11.9236269953
 30
0.0
 10
14.8673947435
 20
11.9160994189
 30
0.0
 10
14.8626196851
 20
11.9081415419
 30
0.0
 10
14.8584455022
 20
11.8998782302
 30
0.0
 10
14.8549463631
 20
11.8914431973
 30
0.0
 10
14.8530651539
 20
11.8857063819
 30
0.0
 10
14.8522568241
 20
11.8828423285
 30
0.0
  0
SPLINE
  5
502
100
AcDbEntity
  8
0
100
AcDbSpline
 62
7
  6
CONTINUOUS
 70
0
 71
3
 72
9
 73
5
 74
0
 42
0.0000001
 43
0.0000001
 44
0.0000000001
 40
0.0
 40
0.0
 40
0.0
 40
0.0
 40
0.2545164883
 40
1.0
 40
1.0
 40
1.0
 40
1.0
 10
14.8522568241
 20
11.8828423285
 30
0.0
 10
14.852005384
 20
11.8819514324
 30
0.0
 10
14.8510633611
 20
11.8784383771
 30
0.0
 10
14.8503061411
 20
11.8748751289
 30
0.0
 10
14.849859589
 20
11.8722007657
 30
0.0
  0
SPLINE
  5
503
100
AcDbEntity
  8
0
100
AcDbSpline
 62
7
  6
CONTINUOUS
 70
0
 71
3
 72
15
 73
11
 74
0
 42
0.0000001
 43
0.0000001
 44
0.0000000001
 40
0.0
 40
0.0
 40
0.0
 40
0.0
 40
0.1010705196
 40
0.2054001119
 40
0.3157972062
 40
0.434186101
 40
0.5617369686
 40
0.6988965551
 40
0.8454008293
 40
1.0
 40
1.0
 40
1.0
 40
1.0
 10
14.2219948602
 20
12.1687310307
 30
0.0
 10
14.2204018745
 20
12.1696505563
 30
0.0
 10
14.2169396837
 20
12.1711551935
 30
0.0
 10
14.2112559509
 20
12.1722463574
 30
0.0
 10
14.2051584491
 20
12.1721881678
 30
0.0
 10
14.1987545909
 20
12.1710020861
 30
0.0
 10
14.1921457744
 20
12.1687122575
 30
0.0
 10
14.1854319418
 20
12.1653658563
 30
0.0
 10
14.1787279371
 20
12.1610190406
 30
0.0
 10
14.17443839
 20
12.1575941944
 30
0.0
 10
14.172319808
 20
12.1557429203
 30
0.0
  0
SPLINE
  5
504
100
AcDbEntity
  8
0
100
AcDbSpline
 62
7
  6
CONTINUOUS
 70
0
 71
3
 72
9
 73
5
 74
0
 42
0.0000001
 43
0.0000001
 44
0.0000000001
 40
0.0
 40
0.0
 40
0.0
 40
0.0
 40
0.4968763359
 40
1.0
 40
1.0
 40
1.0
 40
1.0
 10
13.6528903345
 20
10.8663346826
 30
0.0
 10
13.6640684936
 20
10.8610144152
 30
0.0
 10
13.6871439988
 20
10.8514846446
 30
0.0
 10
13.7110732951
 20
10.8443772244
 30
0.0
 10
13.7232509759
 20
10.8414042367
 30
0.0
  0
SPLINE
  5
505
100
AcDbEntity
  8
0
100
AcDbSpline
 62
7
  6
CONTINUOUS
 70
0
 71
3
 72
9
 73
5
 74
0
 42
0.0000001
 43
0.0000001
 44
0.0000000001
 40
0.0
 40
0.0
 40
0.0
 40
0.0
 40
0.4940219858
 40
1.0
 40
1.0
 40
1.0
 40
1.0
 10
13.7232509759
 20
10.8414042367
 30
0.0
 10
13.735561147
 20
10.8383989036
 30
0.0
 10
13.7607965056
 20
10.8335559688
 30
0.0
 10
13.7863715412
 20
10.8311242125
 30
0.0
 10
13.7993332965
 20
10.8304673701
 30
0.0
  0
SPLINE
  5
506
100
AcDbEntity
  8
0
100
AcDbSpline
 62
7
  6
CONTINUOUS
 70
0
 71
3
 72
9
 73
5
 74
0
 42
0.0000001
 43
0.0000001
 44
0.0000000001
 40
0.0
 40
0.0
 40
0.0
 40
0.0
 40
0.4922485278
 40
1.0
 40
1.0
 40
1.0
 40
1.0
 10
13.7993332965
 20
10.8304673701
 30
0.0
 10
13.8125845761
 20
10.829795856
 30
0.0
 10
13.8395772914
 20
10.8296482136
 30
0.0
 10
13.8664809791
 20
10.8317709522
 30
0.0
 10
13.8800728594
 20
10.8333745951
 30
0.0
  0
SPLINE
  5
507
100
AcDbEntity
  8
0
100
AcDbSpline
 62
7
  6
CONTINUOUS
 70
0
 71
3
 72
9
 73
5
 74
0
 42
0.0000001
 43
0.0000001
 44
0.0000000001
 40
0.0
 40
0.0
 40
0.0
 40
0.0
 40
0.2437651004
 40
1.0
 40
1.0
 40
1.0
 40
1.0
 10
13.8800728594
 20
10.8333745951
 30
0.0
 10
13.8870180527
 20
10.8341940262
 30
0.0
 10
13.9154415278
 20
10.8381190649
 30
0.0
 10
13.9435500119
 20
10.8442387337
 30
0.0
 10
13.9644912863
 20
10.8499098618
 30
0.0
  0
SPLINE
  5
508
100
AcDbEntity
  8
0
100
AcDbSpline
 62
7
  6
CONTINUOUS
 70
0
 71
3
 72
15
 73
11
 74
0
 42
0.0000001
 43
0.0000001
 44
0.0000000001
 40
0.0
 40
0.0
 40
0.0
 40
0.0
 40
0.1083025639
 40
0.2216334757
 40
0.3400004941
 40
0.4632905764
 40
0.5912821447
 40
0.7236676132
 40
0.8600568679
 40
1.0
 40
1.0
 40
1.0
 40
1.0
 10
13.9644912863
 20
10.8499098618
 30
0.0
 10
13.9841819619
 20
10.8552423139
 30
0.0
 10
14.0239817078
 20
10.8680553964
 30
0.0
 10
14.0831428264
 20
10.8927460503
 30
0.0
 10
14.1427517251
 20
10.9231766488
 30
0.0
 10
14.2024257616
 20
10.959153368
 30
0.0
 10
14.2617958387
 20
11.0004413589
 30
0.0
 10
14.3204827354
 20
11.0467843977
 30
0.0
 10
14.3781191979
 20
11.0978797486
 30
0.0
 10
14.4151694566
 20
11.1344781226
 30
0.0
 10
14.4334464164
 20
11.1534726203
 30
0.0
  0
SPLINE
  5
509
100
AcDbEntity
  8
0
100
AcDbSpline
 62
7
  6
CONTINUOUS
 70
0
 71
3
 72
13
 73
9
 74
0
 42
0.0000001
 43
0.0000001
 44
0.0000000001
 40
0.0
 40
0.0
 40
0.0
 40
0.0
 40
0.2633330073
 40
0.3920226042
 40
0.5185230668
 40
0.7644108483
 40
0.8835687885
 40
1.0
 40
1.0
 40
1.0
 40
1.0
 10
14.8493916363
 20
11.8739206651
 30
0.0
 10
14.8580638887
 20
11.9039625137
 30
0.0
 10
14.8696332907
 20
11.9490930258
 30
0.0
 10
14.8819871059
 20
12.0094203572
 30
0.0
 10
14.891967088
 20
12.0680844329
 30
0.0
 10
14.8987858553
 20
12.126113192
 30
0.0
 10
14.9022206841
 20
12.1831918659
 30
0.0
 10
14.9028048142
 20
12.2111693381
 30
0.0
 10
14.9028048142
 20
12.2249945408
 30
0.0
  0
SPLINE
  5
50A
100
AcDbEntity
  8
0
100
AcDbSpline
 62
7
  6
CONTINUOUS
 70
0
 71
3
 72
34
 73
30
 74
0
 42
0.0000001
 43
0.0000001
 44
0.0000000001
 40
0.0
 40
0.0
 40
0.0
 40
0.0
 40
0.0761429409
 40
0.112764043
 40
0.1483901598
 40
0.216616874
 40
0.2809320629
 40
0.3117190754
 40
0.3416530574
 40
0.3708029269
 40
0.3992529695
 40
0.427102245
 40
0.4544612932
 40
0.4814527625
 40
0.5082086336
 40
0.5348661531
 40
0.5615656756
 40
0.5884458736
 40
0.6156408175
 40
0.6432775895
 40
0.6714719655
 40
0.7003282182
 40
0.7299372841
 40
0.7916606274
 40
0.8239175966
 40
0.8571462908
 40
0.9265846646
 40
0.9628115768
 40
1.0
 40
1.0
 40
1.0
 40
1.0
 10
14.3182580414
 20
11.1826900451
 30
0.0
 10
14.3021289235
 20
11.172033209
 30
0.0
 10
14.2775853033
 20
11.1572002607
 30
0.0
 10
14.2440549826
 20
11.1399972148
 30
0.0
 10
14.2115632524
 20
11.1252627438
 30
0.0
 10
14.1713796382
 20
11.1105854333
 30
0.0
 10
14.1309471279
 20
11.1008806436
 30
0.0
 10
14.0994788184
 20
11.0965399302
 30
0.0
 10
14.0766961609
 20
11.0949742324
 30
0.0
 10
14.0544521204
 20
11.0950602186
 30
0.0
 10
14.0328054115
 20
11.0968006183
 30
0.0
 10
14.0118136577
 20
11.1001879707
 30
0.0
 10
13.99153367
 20
11.1052178615
 30
0.0
 10
13.9720218517
 20
11.1118799115
 30
0.0
 10
13.9533302818
 20
11.120152325
 30
0.0
 10
13.9355113692
 20
11.130015786
 30
0.0
 10
13.9186160756
 20
11.1414450785
 30
0.0
 10
13.9026877804
 20
11.1544037927
 30
0.0
 10
13.8877706634
 20
11.1688576731
 30
0.0
 10
13.8739067186
 20
11.1847682627
 30
0.0
 10
13.861128458
 20
11.2020880985
 30
0.0
 10
13.8494695682
 20
11.2207727858
 30
0.0
 10
13.8352669749
 20
11.247805698
 30
0.0
 10
13.8236651833
 20
11.2770783962
 30
0.0
 10
13.8145842959
 20
11.3080856753
 30
0.0
 10
13.8069015768
 20
11.3414867545
 30
0.0
 10
13.8019126527
 20
11.3764735339
 30
0.0
 10
13.7994212944
 20
11.4126646288
 30
0.0
 10
13.7990111288
 20
11.4313078941
 30
0.0
 10
13.7990111288
 20
11.4407495748
 30
0.0
  0
SPLINE
  5
50B
100
AcDbEntity
  8
0
100
AcDbSpline
 62
7
  6
CONTINUOUS
 70
0
 71
3
 72
15
 73
11
 74
0
 42
0.0000001
 43
0.0000001
 44
0.0000000001
 40
0.0
 40
0.0
 40
0.0
 40
0.0
 40
0.1154485593
 40
0.2407142367
 40
0.3721772974
 40
0.5063717049
 40
0.6397574733
 40
0.7686871089
 40
0.8897730242
 40
1.0
 40
1.0
 40
1.0
 40
1.0
 10
14.8910965606
 20
11.9424751509
 30
0.0
 10
14.8926476146
 20
11.9415796495
 30
0.0
 10
14.8959789076
 20
11.9398791476
 30
0.0
 10
14.9013174629
 20
11.9376674851
 30
0.0
 10
14.907076396
 20
11.9357509542
 30
0.0
 10
14.9130705735
 20
11.9341868993
 30
0.0
 10
14.919115518
 20
11.933024553
 30
0.0
 10
14.925024097
 20
11.9322988664
 30
0.0
 10
14.9306115451
 20
11.9320314162
 30
0.0
 10
14.9342041866
 20
11.9321708802
 30
0.0
 10
14.9359063386
 20
11.9323345041
 30
0.0
  0
SPLINE
  5
50C
100
AcDbEntity
  8
0
100
AcDbSpline
 62
7
  6
CONTINUOUS
 70
0
 71
3
 72
12
 73
8
 74
0
 42
0.0000001
 43
0.0000001
 44
0.0000000001
 40
0.0
 40
0.0
 40
0.0
 40
0.0
 40
0.2586747698
 40
0.5154371466
 40
0.7644557299
 40
0.8843109386
 40
1.0
 40
1.0
 40
1.0
 40
1.0
 10
14.4357148699
 20
11.1532536947
 30
0.0
 10
14.4330662522
 20
11.1494036801
 30
0.0
 10
14.4282141254
 20
11.141429662
 30
0.0
 10
14.4223546836
 20
11.1288957785
 30
0.0
 10
14.4187502692
 20
11.118151579
 30
0.0
 10
14.4167611975
 20
11.1096217025
 30
0.0
 10
14.4160695764
 20
11.105418861
 30
0.0
 10
14.4158061024
 20
11.1033455529
 30
0.0
  0
SPLINE
  5
50D
100
AcDbEntity
  8
0
100
AcDbSpline
 62
7
  6
CONTINUOUS
 70
0
 71
3
 72
15
 73
11
 74
0
 42
0.0000001
 43
0.0000001
 44
0.0000000001
 40
0.0
 40
0.0
 40
0.0
 40
0.0
 40
0.0999814695
 40
0.2044466077
 40
0.3155131997
 40
0.4347135271
 40
0.562897652
 40
0.7002435909
 40
0.8463608764
 40
1.0
 40
1.0
 40
1.0
 40
1.0
 10
14.4158061024
 20
11.1033455529
 30
0.0
 10
14.4141518614
 20
11.1040940849
 30
0.0
 10
14.4105875566
 20
11.1052481078
 30
0.0
 10
14.4048555254
 20
11.1058622803
 30
0.0
 10
14.3987648828
 20
11.1053763015
 30
0.0
 10
14.3924191598
 20
11.1038208937
 30
0.0
 10
14.3859115033
 20
11.1012250361
 30
0.0
 10
14.3793356189
 20
11.0976359308
 30
0.0
 10
14.3727998952
 20
11.0931085964
 30
0.0
 10
14.3686277543
 20
11.0895985996
 30
0.0
 10
14.3665707023
 20
11.0877135152
 30
0.0
  0
SPLINE
  5
50E
100
AcDbEntity
  8
0
100
AcDbSpline
 62
7
  6
CONTINUOUS
 70
0
 71
3
 72
15
 73
11
 74
0
 42
0.0000001
 43
0.0000001
 44
0.0000000001
 40
0.0
 40
0.0
 40
0.0
 40
0.0
 40
0.1204397093
 40
0.2449034408
 40
0.3719203181
 40
0.5001854978
 40
0.6284225854
 40
0.7553570441
 40
0.8796987923
 40
1.0
 40
1.0
 40
1.0
 40
1.0
 10
14.3665707023
 20
11.0877135152
 30
0.0
 10
14.3644459636
 20
11.0857664027
 30
0.0
 10
14.3602971958
 20
11.0816164686
 30
0.0
 10
14.3545131975
 20
11.0748419297
 30
0.0
 10
14.3491468372
 20
11.0674984447
 30
0.0
 10
14.3442803712
 20
11.0597084792
 30
0.0
 10
14.3399903705
 20
11.0515890125
 30
0.0
 10
14.3363391651
 20
11.0432648114
 30
0.0
 10
14.3333912985
 20
11.0348675699
 30
0.0
 10
14.3318910845
 20
11.0292009332
 30
0.0
 10
14.331276875
 20
11.0263885647
 30
0.0
  0
SPLINE
  5
50F
100
AcDbEntity
  8
0
100
AcDbSpline
 62
7
  6
CONTINUOUS
 70
0
 71
3
 72
9
 73
5
 74
0
 42
0.0000001
 43
0.0000001
 44
0.0000000001
 40
0.0
 40
0.0
 40
0.0
 40
0.0
 40
0.2456189321
 40
1.0
 40
1.0
 40
1.0
 40
1.0
 10
13.3186642906
 20
11.3487019428
 30
0.0
 10
13.3191804386
 20
11.357971561
 30
0.0
 10
13.3216957743
 20
11.3956876174
 30
0.0
 10
13.3258346952
 20
11.4332920782
 30
0.0
 10
13.3297839593
 20
11.4615315843
 30
0.0
  0
SPLINE
  5
510
100
AcDbEntity
  8
0
100
AcDbSpline
 62
7
  6
CONTINUOUS
 70
0
 71
3
 72
23
 73
19
 74
0
 42
0.0000001
 43
0.0000001
 44
0.0000000001
 40
0.0
 40
0.0
 40
0.0
 40
0.0
 40
0.0587573345
 40
0.1192171054
 40
0.1811636352
 40
0.2443546857
 40
0.3085326501
 40
0.3734268018
 40
0.4387550431
 40
0.504230012
 40
0.5695624788
 40
0.634464979
 40
0.6986560822
 40
0.7618636294
 40
0.8238301665
 40
0.8843150667
 40
0.9431015941
 40
1.0
 40
1.0
 40
1.0
 40
1.0
 10
13.3297839593
 20
11.4615315843
 30
0.0
 10
13.3339033094
 20
11.4909873022
 30
0.0
 10
13.3440888152
 20
11.5505094688
 30
0.0
 10
13.3646537657
 20
11.639921614
 30
0.0
 10
13.3905981341
 20
11.730261245
 30
0.0
 10
13.4217583505
 20
11.8209259972
 30
0.0
 10
13.4579235679
 20
11.9113202673
 30
0.0
 10
13.4988564062
 20
12.0008475087
 30
0.0
 10
13.5442886747
 20
12.0889160658
 30
0.0
 10
13.5939164158
 20
12.1749464449
 30
0.0
 10
13.6474167483
 20
12.2583679225
 30
0.0
 10
13.7044325527
 20
12.3386323151
 30
0.0
 10
13.7645892575
 20
12.4152088083
 30
0.0
 10
13.8274912912
 20
12.4875914092
 30
0.0
 10
13.892720447
 20
12.5553054597
 30
0.0
 10
13.9598530136
 20
12.6179012664
 30
0.0
 10
14.0284393208
 20
12.6749677972
 30
0.0
 10
14.0756582079
 20
12.7096775241
 30
0.0
 10
14.0994103674
 20
12.7259672544
 30
0.0
  0
SPLINE
  5
511
100
AcDbEntity
  8
0
100
AcDbSpline
 62
7
  6
CONTINUOUS
 70
0
 71
3
 72
9
 73
5
 74
0
 42
0.0000001
 43
0.0000001
 44
0.0000000001
 40
0.0
 40
0.0
 40
0.0
 40
0.0
 40
0.2548341232
 40
1.0
 40
1.0
 40
1.0
 40
1.0
 10
14.0994103674
 20
12.7259672544
 30
0.0
 10
14.1070641559
 20
12.7312163834
 30
0.0
 10
14.1373153038
 20
12.7514958045
 30
0.0
 10
14.1684438521
 20
12.7704739103
 30
0.0
 10
14.1921084701
 20
12.7837581838
 30
0.0
  0
SPLINE
  5
512
100
AcDbEntity
  8
0
100
AcDbSpline
 62
7
  6
CONTINUOUS
 70
0
 71
3
 72
9
 73
5
 74
0
 42
0.0000001
 43
0.0000001
 44
0.0000000001
 40
0.0
 40
0.0
 40
0.0
 40
0.0
 40
0.2553343007
 40
1.0
 40
1.0
 40
1.0
 40
1.0
 10
14.1921084701
 20
12.7837581838
 30
0.0
 10
14.1997274379
 20
12.7880351365
 30
0.0
 10
14.2297595119
 20
12.804438179
 30
0.0
 10
14.2605745158
 20
12.8194189212
 30
0.0
 10
14.2839196722
 20
12.8296330675
 30
0.0
  0
SPLINE
  5
513
100
AcDbEntity
  8
0
100
AcDbSpline
 62
7
  6
CONTINUOUS
 70
0
 71
3
 72
9
 73
5
 74
0
 42
0.0000001
 43
0.0000001
 44
0.0000000001
 40
0.0
 40
0.0
 40
0.0
 40
0.0
 40
0.2556610786
 40
1.0
 40
1.0
 40
1.0
 40
1.0
 10
14.2839196722
 20
12.8296330675
 30
0.0
 10
14.2914107426
 20
12.8329106163
 30
0.0
 10
14.3208746479
 20
12.8453522551
 30
0.0
 10
14.3509995755
 20
12.8562456106
 30
0.0
 10
14.3737272636
 20
12.8633288495
 30
0.0
  0
SPLINE
  5
514
100
AcDbEntity
  8
0
100
AcDbSpline
 62
7
  6
CONTINUOUS
 70
0
 71
3
 72
9
 73
5
 74
0
 42
0.0000001
 43
0.0000001
 44
0.0000000001
 40
0.0
 40
0.0
 40
0.0
 40
0.0
 40
0.2557665127
 40
1.0
 40
1.0
 40
1.0
 40
1.0
 10
14.3737272636
 20
12.8633288495
 30
0.0
 10
14.3810380098
 20
12.8656072934
 30
0.0
 10
14.4097478945
 20
12.8741020148
 30
0.0
 10
14.4389669731
 20
12.8809032842
 30
0.0
 10
14.4608955019
 20
12.8848570108
 30
0.0
  0
SPLINE
  5
515
100
AcDbEntity
  8
0
100
AcDbSpline
 62
7
  6
CONTINUOUS
 70
0
 71
3
 72
9
 73
5
 74
0
 42
0.0000001
 43
0.0000001
 44
0.0000000001
 40
0.0
 40
0.0
 40
0.0
 40
0.0
 40
0.5073062405
 40
1.0
 40
1.0
 40
1.0
 40
1.0
 10
14.4608955019
 20
12.8848570108
 30
0.0
 10
14.4751336008
 20
12.8874241483
 30
0.0
 10
14.5033745954
 20
12.8915666298
 30
0.0
 10
14.5318412339
 20
12.8937103709
 30
0.0
 10
14.5458823759
 20
12.8942352334
 30
0.0
  0
SPLINE
  5
516
100
AcDbEntity
  8
0
100
AcDbSpline
 62
7
  6
CONTINUOUS
 70
0
 71
3
 72
15
 73
11
 74
0
 42
0.0000001
 43
0.0000001
 44
0.0000000001
 40
0.0
 40
0.0
 40
0.0
 40
0.0
 40
0.1322163339
 40
0.261674233
 40
0.3886818514
 40
0.5135805447
 40
0.6367444303
 40
0.7585806952
 40
0.8795176898
 40
1.0
 40
1.0
 40
1.0
 40
1.0
 10
14.5458823759
 20
12.8942352334
 30
0.0
 10
14.5570934659
 20
12.8946543077
 30
0.0
 10
14.5793136968
 20
12.894813527
 30
0.0
 10
14.6122636025
 20
12.8929399942
 30
0.0
 10
14.6444026389
 20
12.88895824
 30
0.0
 10
14.6756680497
 20
12.8828746104
 30
0.0
 10
14.7059985456
 20
12.8746949996
 30
0.0
 10
14.7353363417
 20
12.8644378482
 30
0.0
 10
14.7636230064
 20
12.85212431
 30
0.0
 10
14.7817580129
 20
12.8425482076
 30
0.0
 10
14.7906118689
 20
12.8374370248
 30
0.0
  0
SPLINE
  5
517
100
AcDbEntity
  8
0
100
AcDbSpline
 62
7
  6
CONTINUOUS
 70
0
 71
3
 72
15
 73
11
 74
0
 42
0.0000001
 43
0.0000001
 44
0.0000000001
 40
0.0
 40
0.0
 40
0.0
 40
0.0
 40
0.1165261327
 40
0.2381107934
 40
0.3633872608
 40
0.4910952044
 40
0.6199641824
 40
0.7486856417
 40
0.8758934704
 40
1.0
 40
1.0
 40
1.0
 40
1.0
 10
14.2834900751
 20
11.0174385723
 30
0.0
 10
14.2812766501
 20
11.0157183448
 30
0.0
 10
14.2769214484
 20
11.0119834501
 30
0.0
 10
14.2707834875
 20
11.0057457531
 30
0.0
 10
14.2649897538
 20
10.998832141
 30
0.0
 10
14.2596309307
 20
10.9913604933
 30
0.0
 10
14.2547925023
 20
10.9834447242
 30
0.0
 10
14.2505468658
 20
10.9752090598
 30
0.0
 10
14.2469693421
 20
10.9667867311
 30
0.0
 10
14.2450323537
 20
10.9610516792
 30
0.0
 10
14.2441950158
 20
10.9581858483
 30
0.0
  0
SPLINE
  5
518
100
AcDbEntity
  8
0
100
AcDbSpline
 62
7
  6
CONTINUOUS
 70
0
 71
3
 72
15
 73
11
 74
0
 42
0.0000001
 43
0.0000001
 44
0.0000000001
 40
0.0
 40
0.0
 40
0.0
 40
0.0
 40
0.1168827907
 40
0.2440059883
 40
0.3773142865
 40
0.5129237521
 40
0.6468505123
 40
0.7750487574
 40
0.893836349
 40
1.0
 40
1.0
 40
1.0
 40
1.0
 10
14.4158061024
 20
11.1033455529
 30
0.0
 10
14.4174276392
 20
11.1024093582
 30
0.0
 10
14.4207143362
 20
11.1002826498
 30
0.0
 10
14.4255244278
 20
11.0966146282
 30
0.0
 10
14.430293544
 20
11.0924232006
 30
0.0
 10
14.4348588272
 20
11.0878559628
 30
0.0
 10
14.4390677583
 20
11.0830665725
 30
0.0
 10
14.4427780165
 20
11.0782153683
 30
0.0
 10
14.445866995
 20
11.0734692537
 30
0.0
 10
14.4475524776
 20
11.0702749746
 30
0.0
 10
14.448249582
 20
11.0687237355
 30
0.0
  0
SPLINE
  5
519
100
AcDbEntity
  8
0
100
AcDbSpline
 62
7
  6
CONTINUOUS
 70
0
 71
3
 72
15
 73
11
 74
0
 42
0.0000001
 43
0.0000001
 44
0.0000000001
 40
0.0
 40
0.0
 40
0.0
 40
0.0
 40
0.1126194524
 40
0.2311173008
 40
0.3543386168
 40
0.4811669847
 40
0.6104418015
 40
0.7409244849
 40
0.8713029084
 40
1.0
 40
1.0
 40
1.0
 40
1.0
 10
14.1987487241
 20
10.9572857876
 30
0.0
 10
14.1965408109
 20
10.9558652638
 30
0.0
 10
14.1921606711
 20
10.9527108798
 30
0.0
 10
14.1859124199
 20
10.9472931052
 30
0.0
 10
14.1799075775
 20
10.9411350708
 30
0.0
 10
14.1742370333
 20
10.9343387791
 30
0.0
 10
14.1689874523
 20
10.9270036319
 30
0.0
 10
14.1642341814
 20
10.919240375
 30
0.0
 10
14.160057264
 20
10.9111681653
 30
0.0
 10
14.1576719538
 20
10.9056125252
 30
0.0
 10
14.1565937983
 20
10.9028127284
 30
0.0
  0
SPLINE
  5
51A
100
AcDbEntity
  8
0
100
AcDbSpline
 62
7
  6
CONTINUOUS
 70
0
 71
3
 72
18
 73
14
 74
0
 42
0.0000001
 43
0.0000001
 44
0.0000000001
 40
0.0
 40
0.0
 40
0.0
 40
0.0
 40
0.0475017068
 40
0.0956337648
 40
0.1449204928
 40
0.1958591589
 40
0.304130835
 40
0.3621821612
 40
0.4229748481
 40
0.5527737081
 40
0.6932288697
 40
0.8431151448
 40
1.0
 40
1.0
 40
1.0
 40
1.0
 10
14.1300254518
 20
12.0735853093
 30
0.0
 10
14.1290372422
 20
12.0741551494
 30
0.0
 10
14.1269647828
 20
12.0751647373
 30
0.0
 10
14.1236470471
 20
12.0762488466
 30
0.0
 10
14.1201327862
 20
12.0768953164
 30
0.0
 10
14.1151230074
 20
12.0771774474
 30
0.0
 10
14.109896438
 20
12.0765409523
 30
0.0
 10
14.1046275759
 20
12.0751153663
 30
0.0
 10
14.0990158939
 20
12.0730533801
 30
0.0
 10
14.0919188823
 20
12.0693998938
 30
0.0
 10
14.0836325302
 20
12.0635992203
 30
0.0
 10
14.0756026339
 20
12.0564349565
 30
0.0
 10
14.0706361712
 20
12.050974157
 30
0.0
 10
14.0682386169
 20
12.0480679561
 30
0.0
  0
SPLINE
  5
51B
100
AcDbEntity
  8
0
100
AcDbSpline
 62
7
  6
CONTINUOUS
 70
0
 71
3
 72
15
 73
11
 74
0
 42
0.0000001
 43
0.0000001
 44
0.0000000001
 40
0.0
 40
0.0
 40
0.0
 40
0.0
 40
0.1090710415
 40
0.2246360704
 40
0.3458020466
 40
0.47164577
 40
0.6011658055
 40
0.733246341
 40
0.8666843982
 40
1.0
 40
1.0
 40
1.0
 40
1.0
 10
14.1134513825
 20
10.9080393444
 30
0.0
 10
14.1113001892
 20
10.9069393917
 30
0.0
 10
14.1069973247
 20
10.904418794
 30
0.0
 10
14.1007858295
 20
10.8999189587
 30
0.0
 10
14.09471663
 20
10.8946436424
 30
0.0
 10
14.0888771158
 20
10.8886764257
 30
0.0
 10
14.0833508581
 20
10.8820997167
 30
0.0
 10
14.0782127955
 20
10.8750070398
 30
0.0
 10
14.0735425368
 20
10.8674995041
 30
0.0
 10
14.0707730213
 20
10.862273331
 30
0.0
 10
14.0694828523
 20
10.8596169087
 30
0.0
  0
SPLINE
  5
51C
100
AcDbEntity
  8
0
100
AcDbSpline
 62
7
  6
CONTINUOUS
 70
0
 71
3
 72
14
 73
10
 74
0
 42
0.0000001
 43
0.0000001
 44
0.0000000001
 40
0.0
 40
0.0
 40
0.0
 40
0.0
 40
0.1060830226
 40
0.2190262855
 40
0.3382451672
 40
0.4630574998
 40
0.5926661905
 40
0.7261290042
 40
1.0
 40
1.0
 40
1.0
 40
1.0
 10
14.0287100315
 20
10.8703412456
 30
0.0
 10
14.0266619563
 20
10.8695680532
 30
0.0
 10
14.0225309997
 20
10.8677053982
 30
0.0
 10
14.01649518
 20
10.8641783958
 30
0.0
 10
14.010507181
 20
10.8598700496
 30
0.0
 10
14.0046481329
 20
10.854844836
 30
0.0
 10
13.9989941414
 20
10.8491672105
 30
0.0
 10
13.9917670896
 20
10.8407590152
 30
0.0
 10
13.9869702986
 20
10.8338139306
 30
0.0
 10
13.9840703184
 20
10.8289629793
 30
0.0
  0
SPLINE
  5
51D
100
AcDbEntity
  8
0
100
AcDbSpline
 62
7
  6
CONTINUOUS
 70
0
 71
3
 72
45
 73
41
 74
0
 42
0.0000001
 43
0.0000001
 44
0.0000000001
 40
0.0
 40
0.0
 40
0.0
 40
0.0
 40
0.0306566434
 40
0.062384548
 40
0.0950970174
 40
0.1287158364
 40
0.1631517519
 40
0.1982982005
 40
0.234041209
 40
0.2702608118
 40
0.3068314067
 40
0.3436229525
 40
0.3805032643
 40
0.4173391417
 40
0.4539980206
 40
0.4903489765
 40
0.5262649328
 40
0.5616233019
 40
0.5963083769
 40
0.6302122222
 40
0.6632370297
 40
0.6952967988
 40
0.7263192132
 40
0.7562486379
 40
0.7850472919
 40
0.799019318
 40
0.8127048511
 40
0.8392192385
 40
0.8520630562
 40
0.8646383682
 40
0.889014971
 40
0.912454809
 40
0.923867684
 40
0.9350989409
 40
0.9461702038
 40
0.9571048195
 40
0.9679280361
 40
0.9786664617
 40
0.9893476552
 40
1.0
 40
1.0
 40
1.0
 40
1.0
 10
13.2616099751
 20
11.2774502586
 30
0.0
 10
13.2616099751
 20
11.3032509697
 30
0.0
 10
13.2633147941
 20
11.355765719
 30
0.0
 10
13.2706404614
 20
11.4355049005
 30
0.0
 10
13.2827550343
 20
11.517179029
 30
0.0
 10
13.2995827933
 20
11.6003359958
 30
0.0
 10
13.32103541
 20
11.6845347954
 30
0.0
 10
13.3469953615
 20
11.7693240632
 30
0.0
 10
13.3773246968
 20
11.8542444834
 30
0.0
 10
13.4118591473
 20
11.938838135
 30
0.0
 10
13.4504105061
 20
12.0226498303
 30
0.0
 10
13.4927742079
 20
12.1052254253
 30
0.0
 10
13.538716902
 20
12.1861212777
 30
0.0
 10
13.5879959565
 20
12.264897531
 30
0.0
 10
13.6403392187
 20
12.3411326197
 30
0.0
 10
13.695470453
 20
12.4144108235
 30
0.0
 10
13.7530861029
 20
12.484341065
 30
0.0
 10
13.8128809259
 20
12.5505418239
 30
0.0
 10
13.8745280486
 20
12.6126599225
 30
0.0
 10
13.9376989556
 20
12.6703572088
 30
0.0
 10
14.0020517017
 20
12.7233249131
 30
0.0
 10
14.0672414574
 20
12.7712764865
 30
0.0
 10
14.1329200626
 20
12.8139532212
 30
0.0
 10
14.1987324835
 20
12.8511254232
 30
0.0
 10
14.253948802
 20
12.8776090297
 30
0.0
 10
14.2978619287
 20
12.8957798435
 30
0.0
 10
14.3406244435
 20
12.911611441
 30
0.0
 10
14.3833813805
 20
12.9246534608
 30
0.0
 10
14.4259382882
 20
12.9346694362
 30
0.0
 10
14.4671323589
 20
12.9424383136
 30
0.0
 10
14.5176923875
 20
12.9483847113
 30
0.0
 10
14.5676342624
 20
12.9491757477
 30
0.0
 10
14.6063494195
 20
12.9465828057
 30
0.0
 10
14.6345249235
 20
12.9430918475
 30
0.0
 10
14.6620540719
 20
12.9380414122
 30
0.0
 10
14.6888991007
 20
12.931434897
 30
0.0
 10
14.7150226753
 20
12.9232819546
 30
0.0
 10
14.7403898169
 20
12.9135953599
 30
0.0
 10
14.764963968
 20
12.9023881141
 30
0.0
 10
14.7808045226
 20
12.8939055494
 30
0.0
 10
14.7885687068
 20
12.8894234286
 30
0.0
  0
SPLINE
  5
51E
100
AcDbEntity
  8
0
100
AcDbSpline
 62
7
  6
CONTINUOUS
 70
0
 71
3
 72
9
 73
5
 74
0
 42
0.0000001
 43
0.0000001
 44
0.0000000001
 40
0.0
 40
0.0
 40
0.0
 40
0.0
 40
0.4968510681
 40
1.0
 40
1.0
 40
1.0
 40
1.0
 10
14.9196735047
 20
12.6604474435
 30
0.0
 10
14.9186908843
 20
12.6610145387
 30
0.0
 10
14.9166314535
 20
12.6620197469
 30
0.0
 10
14.9144539535
 20
12.6627326768
 30
0.0
 10
14.9133409532
 20
12.6630176457
 30
0.0
  0
SPLINE
  5
51F
100
AcDbEntity
  8
0
100
AcDbSpline
 62
7
  6
CONTINUOUS
 70
0
 71
3
 72
14
 73
10
 74
0
 42
0.0000001
 43
0.0000001
 44
0.0000000001
 40
0.0
 40
0.0
 40
0.0
 40
0.0
 40
0.1037741649
 40
0.21449827
 40
0.3319362487
 40
0.4556893527
 40
0.5851996308
 40
0.7197360113
 40
1.0
 40
1.0
 40
1.0
 40
1.0
 10
13.9456294043
 20
10.8446829435
 30
0.0
 10
13.9437126602
 20
10.8442261841
 30
0.0
 10
13.9398129807
 20
10.8430085613
 30
0.0
 10
13.9340425493
 20
10.8404453823
 30
0.0
 10
13.928238038
 20
10.8371134497
 30
0.0
 10
13.9224732654
 20
10.8330596754
 30
0.0
 10
13.9168160976
 20
10.8283334971
 30
0.0
 10
13.9094090797
 20
10.8211157113
 30
0.0
 10
13.9043749153
 20
10.8150158991
 30
0.0
 10
13.9012561879
 20
10.8107040393
 30
0.0
  0
SPLINE
  5
520
100
AcDbEntity
  8
0
100
AcDbSpline
 62
7
  6
CONTINUOUS
 70
0
 71
3
 72
14
 73
10
 74
0
 42
0.0000001
 43
0.0000001
 44
0.0000000001
 40
0.0
 40
0.0
 40
0.0
 40
0.0
 40
0.1025978583
 40
0.2117978587
 40
0.3277596125
 40
0.4504289921
 40
0.5795484903
 40
0.7146686257
 40
1.0
 40
1.0
 40
1.0
 40
1.0
 10
13.8652925838
 20
10.8313989332
 30
0.0
 10
13.8635566585
 20
10.831243794
 30
0.0
 10
13.8599936861
 20
10.8306577237
 30
0.0
 10
13.8546448292
 20
10.8290693441
 30
0.0
 10
13.8491938726
 20
10.8267600215
 30
0.0
 10
13.8437046221
 20
10.8237590662
 30
0.0
 10
13.8382334836
 20
10.8201021999
 30
0.0
 10
13.8309116903
 20
10.8142986686
 30
0.0
 10
13.8258278986
 20
10.8092376206
 30
0.0
 10
13.822616489
 20
10.8056072073
 30
0.0
  0
LINE
  5
521
100
AcDbEntity
  8
0
100
AcDbLine
 62
7
  6
CONTINUOUS
 10
15.0273300419
 20
12.3371421158
 11
15.0271836459
 21
12.3394466738
  0
LINE
  5
522
100
AcDbEntity
  8
0
100
AcDbLine
 62
7
  6
CONTINUOUS
 10
15.0271836459
 20
12.3394466738
 11
15.0270599921
 21
12.3413315889
  0
SPLINE
  5
523
100
AcDbEntity
  8
0
100
AcDbSpline
 62
7
  6
CONTINUOUS
 70
0
 71
3
 72
9
 73
5
 74
0
 42
0.0000001
 43
0.0000001
 44
0.0000000001
 40
0.0
 40
0.0
 40
0.0
 40
0.0
 40
0.2560030816
 40
1.0
 40
1.0
 40
1.0
 40
1.0
 10
15.0270599921
 20
12.3413315889
 30
0.0
 10
15.0264679289
 20
12.3502295952
 30
0.0
 10
15.0236960097
 20
12.3849538916
 30
0.0
 10
15.0190424399
 20
12.4195361295
 30
0.0
 10
15.0143968898
 20
12.4450329671
 30
0.0
  0
SPLINE
  5
524
100
AcDbEntity
  8
0
100
AcDbSpline
 62
7
  6
CONTINUOUS
 70
0
 71
3
 72
9
 73
5
 74
0
 42
0.0000001
 43
0.0000001
 44
0.0000000001
 40
0.0
 40
0.0
 40
0.0
 40
0.0
 40
0.2565140503
 40
1.0
 40
1.0
 40
1.0
 40
1.0
 10
15.0143968898
 20
12.4450329671
 30
0.0
 10
15.0128411359
 20
12.4535716333
 30
0.0
 10
15.0062583557
 20
12.4867609907
 30
0.0
 10
14.9975504853
 20
12.519540867
 30
0.0
 10
14.9897567844
 20
12.5434592164
 30
0.0
  0
SPLINE
  5
525
100
AcDbEntity
  8
0
100
AcDbSpline
 62
7
  6
CONTINUOUS
 70
0
 71
3
 72
9
 73
5
 74
0
 42
0.0000001
 43
0.0000001
 44
0.0000000001
 40
0.0
 40
0.0
 40
0.0
 40
0.0
 40
0.508475428
 40
1.0
 40
1.0
 40
1.0
 40
1.0
 10
14.9897567844
 20
12.5434592164
 30
0.0
 10
14.9846461328
 20
12.5591434659
 30
0.0
 10
14.9734710411
 20
12.5896368827
 30
0.0
 10
14.9599142439
 20
12.6191563832
 30
0.0
 10
14.9526412272
 20
12.633347131
 30
0.0
  0
SPLINE
  5
526
100
AcDbEntity
  8
0
100
AcDbSpline
 62
7
  6
CONTINUOUS
 70
0
 71
3
 72
9
 73
5
 74
0
 42
0.0000001
 43
0.0000001
 44
0.0000000001
 40
0.0
 40
0.0
 40
0.0
 40
0.0
 40
0.5070459733
 40
1.0
 40
1.0
 40
1.0
 40
1.0
 10
14.9526412272
 20
12.633347131
 30
0.0
 10
14.9458132871
 20
12.6466694676
 30
0.0
 10
14.9312777493
 20
12.6724123208
 30
0.0
 10
14.9145538257
 20
12.696797979
 30
0.0
 10
14.9057725445
 20
12.7084044786
 30
0.0
  0
SPLINE
  5
527
100
AcDbEntity
  8
0
100
AcDbSpline
 62
7
  6
CONTINUOUS
 70
0
 71
3
 72
9
 73
5
 74
0
 42
0.0000001
 43
0.0000001
 44
0.0000000001
 40
0.0
 40
0.0
 40
0.0
 40
0.0
 40
0.5042224621
 40
1.0
 40
1.0
 40
1.0
 40
1.0
 10
14.898372071
 20
12.717927177
 30
0.0
 10
14.8902836778
 20
12.7280598277
 30
0.0
 10
14.8733834356
 20
12.747486668
 30
0.0
 10
14.8548243059
 20
12.7653403497
 30
0.0
 10
14.8452403285
 20
12.7737461021
 30
0.0
  0
LINE
  5
528
100
AcDbEntity
  8
0
100
AcDbLine
 62
7
  6
CONTINUOUS
 10
14.7817751585
 20
12.819442418
 11
14.7806135806
 21
12.8201155822
  0
SPLINE
  5
529
100
AcDbEntity
  8
0
100
AcDbSpline
 62
7
  6
CONTINUOUS
 70
0
 71
3
 72
12
 73
8
 74
0
 42
0.0000001
 43
0.0000001
 44
0.0000000001
 40
0.0
 40
0.0
 40
0.0
 40
0.0
 40
0.2116572862
 40
0.3268283551
 40
0.4485883076
 40
0.7118265327
 40
1.0
 40
1.0
 40
1.0
 40
1.0
 10
13.7887468835
 20
10.8306623923
 30
0.0
 10
13.7856557705
 20
10.8308934193
 30
0.0
 10
13.7808104229
 20
10.8305016606
 30
0.0
 10
13.774449344
 20
10.8288375158
 30
0.0
 10
13.7675895812
 20
10.8262280357
 30
0.0
 10
13.7589399988
 20
10.8213880398
 30
0.0
 10
13.752564284
 20
10.8163826179
 30
0.0
 10
13.7494194566
 20
10.813568164
 30
0.0
  0
SPLINE
  5
52A
100
AcDbEntity
  8
0
100
AcDbSpline
 62
7
  6
CONTINUOUS
 70
0
 71
3
 72
14
 73
10
 74
0
 42
0.0000001
 43
0.0000001
 44
0.0000000001
 40
0.0
 40
0.0
 40
0.0
 40
0.0
 40
0.1058251068
 40
0.2158608739
 40
0.3310060277
 40
0.451955963
 40
0.5791923263
 40
0.7129786227
 40
1.0
 40
1.0
 40
1.0
 40
1.0
 10
13.7169901935
 20
10.8424829226
 30
0.0
 10
13.7157301657
 20
10.8428125317
 30
0.0
 10
13.713106224
 20
10.843292101
 30
0.0
 10
13.7090252924
 20
10.8434701588
 30
0.0
 10
13.7047692618
 20
10.8431181726
 30
0.0
 10
13.7003764983
 20
10.8422361821
 30
0.0
 10
13.6958799673
 20
10.8408379907
 30
0.0
 10
13.6896477029
 20
10.8382396888
 30
0.0
 10
13.6851402298
 20
10.8356326404
 30
0.0
 10
13.6822077865
 20
10.8336630926
 30
0.0
  0
SPLINE
  5
52B
100
AcDbEntity
  8
0
100
AcDbSpline
 62
7
  6
CONTINUOUS
 70
0
 71
3
 72
15
 73
11
 74
0
 42
0.0000001
 43
0.0000001
 44
0.0000000001
 40
0.0
 40
0.0
 40
0.0
 40
0.0
 40
0.0930038961
 40
0.2040652358
 40
0.3291751983
 40
0.463982393
 40
0.6038925352
 40
0.7436734407
 40
0.8777654291
 40
1.0
 40
1.0
 40
1.0
 40
1.0
 10
13.6703717811
 20
10.7045981002
 30
0.0
 10
13.6695643738
 20
10.7048093089
 30
0.0
 10
13.6678112283
 20
10.7053426895
 30
0.0
 10
13.6650261409
 20
10.706328477
 30
0.0
 10
13.661928561
 20
10.7075496816
 30
0.0
 10
13.6586290985
 20
10.7089600921
 30
0.0
 10
13.6552473089
 20
10.7105096552
 30
0.0
 10
13.651909118
 20
10.7121364192
 30
0.0
 10
13.6487529912
 20
10.7137721577
 30
0.0
 10
13.6467395247
 20
10.7148851401
 30
0.0
 10
13.6457896005
 20
10.7154335791
 30
0.0
  0
SPLINE
  5
52C
100
AcDbEntity
  8
0
100
AcDbSpline
 62
7
  6
CONTINUOUS
 70
0
 71
3
 72
14
 73
10
 74
0
 42
0.0000001
 43
0.0000001
 44
0.0000000001
 40
0.0
 40
0.0
 40
0.0
 40
0.0
 40
0.1110366527
 40
0.2243098963
 40
0.3408764305
 40
0.4616667975
 40
0.5874794851
 40
0.7189238308
 40
1.0
 40
1.0
 40
1.0
 40
1.0
 10
13.6509579721
 20
10.8667064254
 30
0.0
 10
13.6499539404
 20
10.8671907947
 30
0.0
 10
13.6478557533
 20
10.8680306625
 30
0.0
 10
13.6445300918
 20
10.8688751755
 30
0.0
 10
13.641027662
 20
10.8693084888
 30
0.0
 10
13.637373771
 20
10.8693237585
 30
0.0
 10
13.6335922007
 20
10.8689242738
 30
0.0
 10
13.6282942501
 20
10.8678222796
 30
0.0
 10
13.6243721821
 20
10.8664122996
 30
0.0
 10
13.6217927269
 20
10.8652679843
 30
0.0
  0
SPLINE
  5
52D
100
AcDbEntity
  8
0
100
AcDbSpline
 62
7
  6
CONTINUOUS
 70
0
 71
3
 72
11
 73
7
 74
0
 42
0.0000001
 43
0.0000001
 44
0.0000000001
 40
0.0
 40
0.0
 40
0.0
 40
0.0
 40
0.1952320588
 40
0.4407841983
 40
0.7165457847
 40
1.0
 40
1.0
 40
1.0
 40
1.0
 10
13.5953081768
 20
10.7321347087
 30
0.0
 10
13.5941318969
 20
10.7327021747
 30
0.0
 10
13.591501772
 20
10.7340361518
 30
0.0
 10
13.5872655525
 20
10.7362791616
 30
0.0
 10
13.5825396449
 20
10.7388577889
 30
0.0
 10
13.5792721441
 20
10.7406792999
 30
0.0
 10
13.5776195893
 20
10.741609095
 30
0.0
  0
SPLINE
  5
52E
100
AcDbEntity
  8
0
100
AcDbSpline
 62
7
  6
CONTINUOUS
 70
0
 71
3
 72
21
 73
17
 74
0
 42
0.0000001
 43
0.0000001
 44
0.0000000001
 40
0.0
 40
0.0
 40
0.0
 40
0.0
 40
0.0752144121
 40
0.1485620926
 40
0.2894176164
 40
0.4225741131
 40
0.4864099839
 40
0.5485002382
 40
0.6089456975
 40
0.6678768898
 40
0.7254504185
 40
0.78184566
 40
0.8372670328
 40
0.891937792
 40
0.9460978639
 40
1.0
 40
1.0
 40
1.0
 40
1.0
 10
13.2927226734
 20
11.2954131834
 30
0.0
 10
13.2927226734
 20
11.2793089114
 30
0.0
 10
13.2933917382
 20
11.2474943894
 30
0.0
 10
13.297456278
 20
11.1856445238
 30
0.0
 10
13.3074914125
 20
11.1118247972
 30
0.0
 10
13.3247224253
 20
11.0414008073
 30
0.0
 10
13.3426744003
 20
10.9888812894
 30
0.0
 10
13.357912316
 20
10.9519708187
 30
0.0
 10
13.3750818713
 20
10.9170832947
 30
0.0
 10
13.3941421926
 20
10.8843029631
 30
0.0
 10
13.4150461011
 20
10.8537083147
 30
0.0
 10
13.4377502503
 20
10.8253786555
 30
0.0
 10
13.4621963796
 20
10.7993823004
 30
0.0
 10
13.4883265893
 20
10.7757839126
 30
0.0
 10
13.5160777963
 20
10.7546499873
 30
0.0
 10
13.5356331434
 20
10.7422221956
 30
0.0
 10
13.5456282635
 20
10.7364521148
 30
0.0
  0
SPLINE
  5
52F
100
AcDbEntity
  8
0
100
AcDbSpline
 62
7
  6
CONTINUOUS
 70
0
 71
3
 72
16
 73
12
 74
0
 42
0.0000001
 43
0.0000001
 44
0.0000000001
 40
0.0
 40
0.0
 40
0.0
 40
0.0
 40
0.0342980729
 40
0.0754467812
 40
0.1764379356
 40
0.2984686054
 40
0.4357391034
 40
0.5815771829
 40
0.7289561563
 40
0.8708741537
 40
1.0
 40
1.0
 40
1.0
 40
1.0
 10
14.0708467385
 20
11.9422614382
 30
0.0
 10
14.0706052789
 20
11.9425659291
 30
0.0
 10
14.0700448201
 20
11.9432124284
 30
0.0
 10
14.0686581268
 20
11.9446530506
 30
0.0
 10
14.0664571784
 20
11.9466848666
 30
0.0
 10
14.0633340093
 20
11.94931477
 30
0.0
 10
14.0597193486
 20
11.9521456745
 30
0.0
 10
14.0557913337
 20
11.9550383323
 30
0.0
 10
14.0517406303
 20
11.9578500742
 30
0.0
 10
14.0477690765
 20
11.9604401646
 30
0.0
 10
14.0451436141
 20
11.9620349593
 30
0.0
 10
14.0438765819
 20
11.9627664807
 30
0.0
  0
SPLINE
  5
530
100
AcDbEntity
  8
0
100
AcDbSpline
 62
7
  6
CONTINUOUS
 70
0
 71
3
 72
10
 73
6
 74
0
 42
0.0000001
 43
0.0000001
 44
0.0000000001
 40
0.0
 40
0.0
 40
0.0
 40
0.0
 40
0.2453930256
 40
0.4927024412
 40
1.0
 40
1.0
 40
1.0
 40
1.0
 10
13.5332720327
 20
10.9559503686
 30
0.0
 10
13.5324823742
 20
10.9564066861
 30
0.0
 10
13.5308439545
 20
10.9572351593
 30
0.0
 10
13.5273562463
 20
10.9585346461
 30
0.0
 10
13.5245769709
 20
10.9590757571
 30
0.0
 10
13.5227001843
 20
10.9592559038
 30
0.0
  0
SPLINE
  5
531
100
AcDbEntity
  8
0
100
AcDbSpline
 62
7
  6
CONTINUOUS
 70
0
 71
3
 72
11
 73
7
 74
0
 42
0.0000001
 43
0.0000001
 44
0.0000000001
 40
0.0
 40
0.0
 40
0.0
 40
0.0
 40
0.2398946653
 40
0.4840448654
 40
0.7362913519
 40
1.0
 40
1.0
 40
1.0
 40
1.0
 10
14.0160797445
 20
11.3180656128
 30
0.0
 10
14.0149059585
 20
11.3187429795
 30
0.0
 10
14.0124193
 20
11.319915281
 30
0.0
 10
14.008401324
 20
11.321055314
 30
0.0
 10
14.0041233373
 20
11.3215762448
 30
0.0
 10
14.0011988091
 20
11.3215126273
 30
0.0
 10
13.9997144479
 20
11.3213861262
 30
0.0
  0
SPLINE
  5
532
100
AcDbEntity
  8
0
100
AcDbSpline
 62
7
  6
CONTINUOUS
 70
0
 71
3
 72
11
 73
7
 74
0
 42
0.0000001
 43
0.0000001
 44
0.0000000001
 40
0.0
 40
0.0
 40
0.0
 40
0.0
 40
0.2355402701
 40
0.4773903136
 40
0.7308057525
 40
1.0
 40
1.0
 40
1.0
 40
1.0
 10
13.5889824343
 20
10.9046920117
 30
0.0
 10
13.5875443772
 20
10.9055214061
 30
0.0
 10
13.5844493308
 20
10.9069083707
 30
0.0
 10
13.5793951569
 20
10.9080493405
 30
0.0
 10
13.5739843049
 20
10.9082529147
 30
0.0
 10
13.570313545
 20
10.9077880567
 30
0.0
 10
13.5684524383
 20
10.9074193118
 30
0.0
  0
SPLINE
  5
533
100
AcDbEntity
  8
0
100
AcDbSpline
 62
7
  6
CONTINUOUS
 70
0
 71
3
 72
9
 73
5
 74
0
 42
0.0000001
 43
0.0000001
 44
0.0000000001
 40
0.0
 40
0.0
 40
0.0
 40
0.0
 40
0.2549411465
 40
1.0
 40
1.0
 40
1.0
 40
1.0
 10
13.4033872
 20
10.9566168463
 30
0.0
 10
13.4029906524
 20
10.9555153133
 30
0.0
 10
13.4015004944
 20
10.9511715003
 30
0.0
 10
13.400276435
 20
10.9467352478
 30
0.0
 10
13.3995368571
 20
10.9433946892
 30
0.0
  0
LINE
  5
534
100
AcDbEntity
  8
0
100
AcDbLine
 62
7
  6
CONTINUOUS
 10
13.598494741
 20
10.7307734205
 11
13.5953081768
 21
10.7321347087
  0
SPLINE
  5
535
100
AcDbEntity
  8
0
100
AcDbSpline
 62
7
  6
CONTINUOUS
 70
0
 71
3
 72
9
 73
5
 74
0
 42
0.0000001
 43
0.0000001
 44
0.0000000001
 40
0.0
 40
0.0
 40
0.0
 40
0.0
 40
0.5108714061
 40
1.0
 40
1.0
 40
1.0
 40
1.0
 10
13.4470215066
 20
10.882004015
 30
0.0
 10
13.4464433101
 20
10.8795835639
 30
0.0
 10
13.4454853751
 20
10.8748020651
 30
0.0
 10
13.4449149465
 20
10.8699576354
 30
0.0
 10
13.4447441868
 20
10.8675811231
 30
0.0
  0
SPLINE
  5
536
100
AcDbEntity
  8
0
100
AcDbSpline
 62
7
  6
CONTINUOUS
 70
0
 71
3
 72
18
 73
14
 74
0
 42
0.0000001
 43
0.0000001
 44
0.0000000001
 40
0.0
 40
0.0
 40
0.0
 40
0.0
 40
0.0239239354
 40
0.0565189542
 40
0.0974290096
 40
0.1460456141
 40
0.2017156329
 40
0.263640189
 40
0.4025087884
 40
0.5545624535
 40
0.7108618106
 40
0.8624461281
 40
1.0
 40
1.0
 40
1.0
 40
1.0
 10
14.0011086571
 20
11.8241083063
 30
0.0
 10
14.000832596
 20
11.8241544205
 30
0.0
 10
14.0001895611
 20
11.824314463
 30
0.0
 10
13.9991026456
 20
11.824657775
 30
0.0
 10
13.9977584232
 20
11.8251429783
 30
0.0
 10
13.9961766815
 20
11.8257625203
 30
0.0
 10
13.9943809767
 20
11.8265088722
 30
0.0
 10
13.9916293808
 20
11.8277053055
 30
0.0
 10
13.9878781044
 20
11.8294291378
 30
0.0
 10
13.9831694319
 20
11.831710734
 30
0.0
 10
13.9783710906
 20
11.8341464144
 30
0.0
 10
13.9737688875
 20
11.8365916054
 30
0.0
 10
13.970814726
 20
11.8382401764
 30
0.0
 10
13.9694210806
 20
11.8390447979
 30
0.0
  0
SPLINE
  5
537
100
AcDbEntity
  8
0
100
AcDbSpline
 62
7
  6
CONTINUOUS
 70
0
 71
3
 72
9
 73
5
 74
0
 42
0.0000001
 43
0.0000001
 44
0.0000000001
 40
0.0
 40
0.0
 40
0.0
 40
0.0
 40
0.5183700462
 40
1.0
 40
1.0
 40
1.0
 40
1.0
 10
13.5007265507
 20
10.8193196536
 30
0.0
 10
13.5004008224
 20
10.816340027
 30
0.0
 10
13.5000786825
 20
10.8105524025
 30
0.0
 10
13.5004910819
 20
10.8047634706
 30
0.0
 10
13.500901568
 20
10.8020089535
 30
0.0
  0
SPLINE
  5
538
100
AcDbEntity
  8
0
100
AcDbSpline
 62
7
  6
CONTINUOUS
 70
0
 71
3
 72
11
 73
7
 74
0
 42
0.0000001
 43
0.0000001
 44
0.0000000001
 40
0.0
 40
0.0
 40
0.0
 40
0.0
 40
0.2758211677
 40
0.5335631471
 40
0.7742739433
 40
1.0
 40
1.0
 40
1.0
 40
1.0
 10
13.5639295288
 20
10.7687942312
 30
0.0
 10
13.564045307
 20
10.7665403655
 30
0.0
 10
13.5645016167
 20
10.7621869673
 30
0.0
 10
13.5659480116
 20
10.7559996104
 30
0.0
 10
13.5681206639
 20
10.7504631751
 30
0.0
 10
13.5700924389
 20
10.7471680613
 30
0.0
 10
13.571187685
 20
10.7456809001
 30
0.0
  0
SPLINE
  5
539
100
AcDbEntity
  8
0
100
AcDbSpline
 62
7
  6
CONTINUOUS
 70
0
 71
3
 72
11
 73
7
 74
0
 42
0.0000001
 43
0.0000001
 44
0.0000000001
 40
0.0
 40
0.0
 40
0.0
 40
0.0
 40
0.2697733996
 40
0.5247009622
 40
0.7671132137
 40
1.0
 40
1.0
 40
1.0
 40
1.0
 10
13.6362575672
 20
10.7317142084
 30
0.0
 10
13.636705241
 20
10.7300535628
 30
0.0
 10
13.6377625221
 20
10.7268691962
 30
0.0
 10
13.639911744
 20
10.722458268
 30
0.0
 10
13.6425601584
 20
10.7186076753
 30
0.0
 10
13.6446707015
 20
10.7164095795
 30
0.0
 10
13.6457896005
 20
10.7154335791
 30
0.0
  0
SPLINE
  5
53A
100
AcDbEntity
  8
0
100
AcDbSpline
 62
7
  6
CONTINUOUS
 70
0
 71
3
 72
13
 73
9
 74
0
 42
0.0000001
 43
0.0000001
 44
0.0000000001
 40
0.0
 40
0.0
 40
0.0
 40
0.0
 40
0.1155986737
 40
0.2392601099
 40
0.5008294282
 40
0.7627996175
 40
0.8862123531
 40
1.0
 40
1.0
 40
1.0
 40
1.0
 10
13.7470867806
 20
10.6919386364
 30
0.0
 10
13.7462531705
 20
10.6921255866
 30
0.0
 10
13.7445373221
 20
10.6925556403
 30
0.0
 10
13.7409855008
 20
10.6935995398
 30
0.0
 10
13.7364733921
 20
10.6951982048
 30
0.0
 10
13.7320736716
 20
10.697079432
 30
0.0
 10
13.7287638979
 20
10.6987102525
 30
0.0
 10
13.7272227775
 20
10.6995471845
 30
0.0
 10
13.726494509
 20
10.6999676505
 30
0.0
  0
SPLINE
  5
53B
100
AcDbEntity
  8
0
100
AcDbSpline
 62
7
  6
CONTINUOUS
 70
0
 71
3
 72
11
 73
7
 74
0
 42
0.0000001
 43
0.0000001
 44
0.0000000001
 40
0.0
 40
0.0
 40
0.0
 40
0.0
 40
0.2593013936
 40
0.5108817169
 40
0.7569804496
 40
1.0
 40
1.0
 40
1.0
 40
1.0
 10
13.7170969165
 20
10.7093147945
 30
0.0
 10
13.7176994475
 20
10.7083268841
 30
0.0
 10
13.7189954089
 20
10.7064438216
 30
0.0
 10
13.7212389434
 20
10.7039069425
 30
0.0
 10
13.7237316052
 20
10.7017226523
 30
0.0
 10
13.7255539275
 20
10.7005075025
 30
0.0
 10
13.726494509
 20
10.6999676505
 30
0.0
  0
LINE
  5
53C
100
AcDbEntity
  8
0
100
AcDbLine
 62
7
  6
CONTINUOUS
 10
13.8951842263
 20
10.7100611352
 11
13.8938387344
 21
10.7097873395
  0
LINE
  5
53D
100
AcDbEntity
  8
0
100
AcDbLine
 62
7
  6
CONTINUOUS
 10
14.2757028357
 20
10.8920984595
 11
14.2747589695
 21
10.8913991024
  0
SPLINE
  5
53E
100
AcDbEntity
  8
0
100
AcDbSpline
 62
7
  6
CONTINUOUS
 70
0
 71
3
 72
11
 73
7
 74
0
 42
0.0000001
 43
0.0000001
 44
0.0000000001
 40
0.0
 40
0.0
 40
0.0
 40
0.0
 40
0.2396649693
 40
0.4838560375
 40
0.7363579318
 40
1.0
 40
1.0
 40
1.0
 40
1.0
 10
13.881810998
 20
10.8280918042
 30
0.0
 10
13.8806279413
 20
10.8287749351
 30
0.0
 10
13.8781187683
 20
10.8299559331
 30
0.0
 10
13.874060854
 20
10.8310956439
 30
0.0
 10
13.8697412463
 20
10.8316072191
 30
0.0
 10
13.8667894134
 20
10.8315327045
 30
0.0
 10
13.8652925838
 20
10.8313989332
 30
0.0
  0
SPLINE
  5
53F
100
AcDbEntity
  8
0
100
AcDbSpline
 62
7
  6
CONTINUOUS
 70
0
 71
3
 72
11
 73
7
 74
0
 42
0.0000001
 43
0.0000001
 44
0.0000000001
 40
0.0
 40
0.0
 40
0.0
 40
0.0
 40
0.2385049275
 40
0.4819792609
 40
0.7347867099
 40
1.0
 40
1.0
 40
1.0
 40
1.0
 10
14.1748651655
 20
11.2765301497
 30
0.0
 10
14.1736118938
 20
11.2772537205
 30
0.0
 10
14.1709429395
 20
11.2784924633
 30
0.0
 10
14.1666140035
 20
11.2796425382
 30
0.0
 10
14.1619959764
 20
11.2800834689
 30
0.0
 10
14.1588452038
 20
11.2799135834
 30
0.0
 10
14.157247493
 20
11.2797215833
 30
0.0
  0
SPLINE
  5
540
100
AcDbEntity
  8
0
100
AcDbSpline
 62
7
  6
CONTINUOUS
 70
0
 71
3
 72
11
 73
7
 74
0
 42
0.0000001
 43
0.0000001
 44
0.0000000001
 40
0.0
 40
0.0
 40
0.0
 40
0.0
 40
0.2337334879
 40
0.4746304409
 40
0.7287966901
 40
1.0
 40
1.0
 40
1.0
 40
1.0
 10
13.9677369601
 20
10.8423002571
 30
0.0
 10
13.9662017194
 20
10.8431865493
 30
0.0
 10
13.962875828
 20
10.8446477502
 30
0.0
 10
13.9574245983
 20
10.8457636797
 30
0.0
 10
13.9515815044
 20
10.8458061495
 30
0.0
 10
13.9476302633
 20
10.8451597474
 30
0.0
 10
13.9456294043
 20
10.8446829435
 30
0.0
  0
SPLINE
  5
541
100
AcDbEntity
  8
0
100
AcDbSpline
 62
7
  6
CONTINUOUS
 70
0
 71
3
 72
13
 73
9
 74
0
 42
0.0000001
 43
0.0000001
 44
0.0000000001
 40
0.0
 40
0.0
 40
0.0
 40
0.0
 40
0.1131770153
 40
0.2276599738
 40
0.3447136147
 40
0.4654583897
 40
0.7213000166
 40
1.0
 40
1.0
 40
1.0
 40
1.0
 10
14.0565972755
 20
10.86974329
 30
0.0
 10
14.0556560748
 20
10.8702866781
 30
0.0
 10
14.0536874796
 20
10.8712547508
 30
0.0
 10
14.0505419301
 20
10.8723138048
 30
0.0
 10
14.0472159799
 20
10.8729785589
 30
0.0
 10
14.0424797438
 20
10.873344057
 30
0.0
 10
14.0361666043
 20
10.8727374783
 30
0.0
 10
14.0312138052
 20
10.8712864739
 30
0.0
 10
14.0287100315
 20
10.8703412456
 30
0.0
  0
SPLINE
  5
542
100
AcDbEntity
  8
0
100
AcDbSpline
 62
7
  6
CONTINUOUS
 70
0
 71
3
 72
14
 73
10
 74
0
 42
0.0000001
 43
0.0000001
 44
0.0000000001
 40
0.0
 40
0.0
 40
0.0
 40
0.0
 40
0.1097745164
 40
0.2212908418
 40
0.3362217891
 40
0.4559954941
 40
0.7138173496
 40
0.853406119
 40
1.0
 40
1.0
 40
1.0
 40
1.0
 10
14.1472343169
 20
10.9100645189
 30
0.0
 10
14.146116975
 20
10.9107095414
 30
0.0
 10
14.1437568079
 20
10.9118321033
 30
0.0
 10
14.1399543315
 20
10.9129594182
 30
0.0
 10
14.1359103982
 20
10.9135269542
 30
0.0
 10
14.1301067933
 20
10.913536173
 30
0.0
 10
14.1240767989
 20
10.9123682314
 30
0.0
 10
14.118045853
 20
10.91023311
 30
0.0
 10
14.1149853707
 20
10.9088237065
 30
0.0
 10
14.1134513825
 20
10.9080393444
 30
0.0
  0
SPLINE
  5
543
100
AcDbEntity
  8
0
100
AcDbSpline
 62
7
  6
CONTINUOUS
 70
0
 71
3
 72
14
 73
10
 74
0
 42
0.0000001
 43
0.0000001
 44
0.0000000001
 40
0.0
 40
0.0
 40
0.0
 40
0.0
 40
0.1064797617
 40
0.2151982375
 40
0.3282312119
 40
0.4472788637
 40
0.7073396642
 40
0.8497920686
 40
1.0
 40
1.0
 40
1.0
 40
1.0
 10
14.2384649947
 20
10.9627357232
 30
0.0
 10
14.2371712166
 20
10.9634832041
 30
0.0
 10
14.2344109087
 20
10.9647562554
 30
0.0
 10
14.2299277252
 20
10.9659059036
 30
0.0
 10
14.2251407681
 20
10.9663047698
 30
0.0
 10
14.2182298617
 20
10.9658175484
 30
0.0
 10
14.2111113889
 20
10.9637735325
 30
0.0
 10
14.2040728083
 20
10.9605042177
 30
0.0
 10
14.200521343
 20
10.9584262523
 30
0.0
 10
14.1987487241
 20
10.9572857876
 30
0.0
  0
SPLINE
  5
544
100
AcDbEntity
  8
0
100
AcDbSpline
 62
7
  6
CONTINUOUS
 70
0
 71
3
 72
9
 73
5
 74
0
 42
0.0000001
 43
0.0000001
 44
0.0000000001
 40
0.0
 40
0.0
 40
0.0
 40
0.0
 40
0.5048733605
 40
1.0
 40
1.0
 40
1.0
 40
1.0
 10
14.5446612315
 20
12.761427914
 30
0.0
 10
14.5456143652
 20
12.7603042436
 30
0.0
 10
14.5476851182
 20
12.758225756
 30
0.0
 10
14.5500872855
 20
12.7565379463
 30
0.0
 10
14.5513390415
 20
12.7558160127
 30
0.0
  0
SPLINE
  5
545
100
AcDbEntity
  8
0
100
AcDbSpline
 62
7
  6
CONTINUOUS
 70
0
 71
3
 72
11
 73
7
 74
0
 42
0.0000001
 43
0.0000001
 44
0.0000000001
 40
0.0
 40
0.0
 40
0.0
 40
0.0
 40
0.2441289575
 40
0.5006061467
 40
0.7568729862
 40
1.0
 40
1.0
 40
1.0
 40
1.0
 10
14.3361544213
 20
11.0224426151
 30
0.0
 10
14.3383794232
 20
11.0207895935
 30
0.0
 10
14.342714878
 20
11.0170884264
 30
0.0
 10
14.3486019668
 20
11.0108069908
 30
0.0
 10
14.3537879527
 20
11.0039495888
 30
0.0
 10
14.3566931566
 20
10.9990610059
 30
0.0
 10
14.3579389598
 20
10.996597644
 30
0.0
  0
SPLINE
  5
546
100
AcDbEntity
  8
0
100
AcDbSpline
 62
7
  6
CONTINUOUS
 70
0
 71
3
 72
15
 73
11
 74
0
 42
0.0000001
 43
0.0000001
 44
0.0000000001
 40
0.0
 40
0.0
 40
0.0
 40
0.0
 40
0.1031831795
 40
0.2092725847
 40
0.3206379799
 40
0.4391663913
 40
0.5661008559
 40
0.7020335962
 40
0.8469522303
 40
1.0
 40
1.0
 40
1.0
 40
1.0
 10
14.3291021218
 20
11.0270739421
 30
0.0
 10
14.3276321257
 20
11.0279217135
 30
0.0
 10
14.3244615236
 20
11.0293329666
 30
0.0
 10
14.3192788187
 20
11.030467873
 30
0.0
 10
14.3137260845
 20
11.0306215707
 30
0.0
 10
14.3078904907
 20
11.0298104064
 30
0.0
 10
14.3018498476
 20
11.0280517011
 30
0.0
 10
14.2956828508
 20
11.0253770324
 30
0.0
 10
14.2894800984
 20
11.0218242511
 30
0.0
 10
14.2854774573
 20
11.0189831242
 30
0.0
 10
14.2834900751
 20
11.0174385723
 30
0.0
  0
LINE
  5
547
100
AcDbEntity
  8
0
100
AcDbLine
 62
7
  6
CONTINUOUS
 10
14.9999500494
 20
12.170823014
 11
14.9998626176
 21
12.1698839623
  0
SPLINE
  5
548
100
AcDbEntity
  8
0
100
AcDbSpline
 62
7
  6
CONTINUOUS
 70
0
 71
3
 72
11
 73
7
 74
0
 42
0.0000001
 43
0.0000001
 44
0.0000000001
 40
0.0
 40
0.0
 40
0.0
 40
0.0
 40
0.2431868951
 40
0.4993580662
 40
0.7558288224
 40
1.0
 40
1.0
 40
1.0
 40
1.0
 10
13.937135958
 20
11.6998611431
 30
0.0
 10
13.9355079433
 20
11.7001550681
 30
0.0
 10
13.9321891667
 20
11.7008963676
 30
0.0
 10
13.927252893
 20
11.7023468125
 30
0.0
 10
13.922412033
 20
11.7041093659
 30
0.0
 10
13.9192932615
 20
11.7054864244
 30
0.0
 10
13.9178019897
 20
11.706217951
 30
0.0
  0
SPLINE
  5
549
100
AcDbEntity
  8
0
100
AcDbSpline
 62
7
  6
CONTINUOUS
 70
0
 71
3
 72
11
 73
7
 74
0
 42
0.0000001
 43
0.0000001
 44
0.0000000001
 40
0.0
 40
0.0
 40
0.0
 40
0.0
 40
0.2659018473
 40
0.518612193
 40
0.7618375441
 40
1.0
 40
1.0
 40
1.0
 40
1.0
 10
14.6133933042
 20
12.7505998873
 30
0.0
 10
14.6140245669
 20
12.7490704458
 30
0.0
 10
14.6154561592
 20
12.7461638628
 30
0.0
 10
14.6181813099
 20
12.7422606444
 30
0.0
 10
14.621400826
 20
12.7389888614
 30
0.0
 10
14.6238639665
 20
12.7372507515
 30
0.0
 10
14.6251471799
 20
12.7365093739
 30
0.0
  0
SPLINE
  5
54A
100
AcDbEntity
  8
0
100
AcDbSpline
 62
7
  6
CONTINUOUS
 70
0
 71
3
 72
14
 73
10
 74
0
 42
0.0000001
 43
0.0000001
 44
0.0000000001
 40
0.0
 40
0.0
 40
0.0
 40
0.0
 40
0.2792169998
 40
0.4100156592
 40
0.5354774609
 40
0.6562890289
 40
0.7733132005
 40
0.8875237501
 40
1.0
 40
1.0
 40
1.0
 40
1.0
 10
14.6777853886
 20
12.7286634018
 30
0.0
 10
14.6781847535
 20
12.7259987656
 30
0.0
 10
14.6790663023
 20
12.7221146329
 30
0.0
 10
14.6809197512
 20
12.7172840664
 30
0.0
 10
14.6825648131
 20
12.7140304928
 30
0.0
 10
14.6844880865
 20
12.7110901525
 30
0.0
 10
14.6866795518
 20
12.7084829602
 30
0.0
 10
14.6891209338
 20
12.7062251602
 30
0.0
 10
14.6909130733
 20
12.7049576332
 30
0.0
 10
14.6918393305
 20
12.7043918674
 30
0.0
  0
SPLINE
  5
54B
100
AcDbEntity
  8
0
100
AcDbSpline
 62
7
  6
CONTINUOUS
 70
0
 71
3
 72
14
 73
10
 74
0
 42
0.0000001
 43
0.0000001
 44
0.0000000001
 40
0.0
 40
0.0
 40
0.0
 40
0.0
 40
0.2863694765
 40
0.4197738566
 40
0.5467062971
 40
0.6675191824
 40
0.7827868493
 40
0.8932895255
 40
1.0
 40
1.0
 40
1.0
 40
1.0
 10
14.73692281
 20
12.6950081969
 30
0.0
 10
14.7368088638
 20
12.6916150301
 30
0.0
 10
14.7369827616
 20
12.6866131483
 30
0.0
 10
14.738063596
 20
12.6802149537
 30
0.0
 10
14.739240583
 20
12.6758440163
 30
0.0
 10
14.7407949302
 20
12.6718213032
 30
0.0
 10
14.7427211362
 20
12.6681798643
 30
0.0
 10
14.7449993909
 20
12.6649498582
 30
0.0
 10
14.746766215
 20
12.6630620737
 30
0.0
 10
14.7476972102
 20
12.6622054725
 30
0.0
  0
SPLINE
  5
54C
100
AcDbEntity
  8
0
100
AcDbSpline
 62
7
  6
CONTINUOUS
 70
0
 71
3
 72
13
 73
9
 74
0
 42
0.0000001
 43
0.0000001
 44
0.0000000001
 40
0.0
 40
0.0
 40
0.0
 40
0.0
 40
0.1165271843
 40
0.2433241773
 40
0.5111147956
 40
0.7725088268
 40
0.8919833962
 40
1.0
 40
1.0
 40
1.0
 40
1.0
 10
14.8760903494
 20
12.7295894928
 30
0.0
 10
14.8769072449
 20
12.7291178579
 30
0.0
 10
14.8785879792
 20
12.7280893832
 30
0.0
 10
14.8820313415
 20
12.7257942927
 30
0.0
 10
14.8862929038
 20
12.7226196762
 30
0.0
 10
14.8903019477
 20
12.7192215747
 30
0.0
 10
14.8931664102
 20
12.7164895664
 30
0.0
 10
14.8944394105
 20
12.7151574817
 30
0.0
 10
14.8950236187
 20
12.7145069147
 30
0.0
  0
SPLINE
  5
54D
100
AcDbEntity
  8
0
100
AcDbSpline
 62
7
  6
CONTINUOUS
 70
0
 71
3
 72
14
 73
10
 74
0
 42
0.0000001
 43
0.0000001
 44
0.0000000001
 40
0.0
 40
0.0
 40
0.0
 40
0.0
 40
0.1225060952
 40
0.2566525173
 40
0.5365900696
 40
0.6715916068
 40
0.7965868298
 40
0.9073568731
 40
1.0
 40
1.0
 40
1.0
 40
1.0
 10
14.8200613128
 20
12.7886208961
 30
0.0
 10
14.821012288
 20
12.7880718503
 30
0.0
 10
14.8229877886
 20
12.7868923702
 30
0.0
 10
14.8270629781
 20
12.784337269
 30
0.0
 10
14.8311558834
 20
12.7816009103
 30
0.0
 10
14.8350957776
 20
12.7787897011
 30
0.0
 10
14.8377550171
 20
12.7767956258
 30
0.0
 10
14.8400575623
 20
12.7749609766
 30
0.0
 10
14.841439932
 20
12.7737706675
 30
0.0
 10
14.8420510305
 20
12.7732084006
 30
0.0
  0
SPLINE
  5
54E
100
AcDbEntity
  8
0
100
AcDbSpline
 62
7
  6
CONTINUOUS
 70
0
 71
3
 72
12
 73
8
 74
0
 42
0.0000001
 43
0.0000001
 44
0.0000000001
 40
0.0
 40
0.0
 40
0.0
 40
0.0
 40
0.2883419234
 40
0.5511497323
 40
0.6726968352
 40
0.7877785517
 40
1.0
 40
1.0
 40
1.0
 40
1.0
 10
14.7896599717
 20
12.6493719516
 30
0.0
 10
14.7889561179
 20
12.6453786771
 30
0.0
 10
14.7881054879
 20
12.6376448371
 30
0.0
 10
14.7885683608
 20
12.6281433075
 30
0.0
 10
14.7899548049
 20
12.6212436709
 30
0.0
 10
14.7918700052
 20
12.615223127
 30
0.0
 10
14.7940556688
 20
12.6110893696
 30
0.0
 10
14.7958427163
 20
12.6086991837
 30
0.0
  0
SPLINE
  5
54F
100
AcDbEntity
  8
0
100
AcDbSpline
 62
7
  6
CONTINUOUS
 70
0
 71
3
 72
13
 73
9
 74
0
 42
0.0000001
 43
0.0000001
 44
0.0000000001
 40
0.0
 40
0.0
 40
0.0
 40
0.0
 40
0.1376372995
 40
0.2717238137
 40
0.5287777143
 40
0.6518309804
 40
0.7713130881
 40
1.0
 40
1.0
 40
1.0
 40
1.0
 10
14.9028048142
 20
12.2249945408
 30
0.0
 10
14.9028048142
 20
12.2394641474
 30
0.0
 10
14.902180354
 20
12.2680361298
 30
0.0
 10
14.8983866827
 20
12.3235083451
 30
0.0
 10
14.8907857624
 20
12.3771452028
 30
0.0
 10
14.8790877484
 20
12.4283750798
 30
0.0
 10
14.865254318
 20
12.4759608839
 30
0.0
 10
14.851814558
 20
12.5101545718
 30
0.0
 10
14.841448677
 20
12.5318465774
 30
0.0
  0
SPLINE
  5
550
100
AcDbEntity
  8
0
100
AcDbSpline
 62
7
  6
CONTINUOUS
 70
0
 71
3
 72
9
 73
5
 74
0
 42
0.0000001
 43
0.0000001
 44
0.0000000001
 40
0.0
 40
0.0
 40
0.0
 40
0.0
 40
0.5074405937
 40
1.0
 40
1.0
 40
1.0
 40
1.0
 10
14.841448677
 20
12.5318465774
 30
0.0
 10
14.8356088491
 20
12.5440672058
 30
0.0
 10
14.8231230689
 20
12.5676978402
 30
0.0
 10
14.8086241248
 20
12.5901565833
 30
0.0
 10
14.8009861213
 20
12.600857353
 30
0.0
  0
SPLINE
  5
551
100
AcDbEntity
  8
0
100
AcDbSpline
 62
7
  6
CONTINUOUS
 70
0
 71
3
 72
9
 73
5
 74
0
 42
0.0000001
 43
0.0000001
 44
0.0000000001
 40
0.0
 40
0.0
 40
0.0
 40
0.0
 40
0.5053592367
 40
1.0
 40
1.0
 40
1.0
 40
1.0
 10
14.8009861213
 20
12.600857353
 30
0.0
 10
14.7935144504
 20
12.6113250924
 30
0.0
 10
14.7777728658
 20
12.6313752212
 30
0.0
 10
14.7601532083
 20
12.6498036383
 30
0.0
 10
14.7510034195
 20
12.6584488154
 30
0.0
  0
SPLINE
  5
552
100
AcDbEntity
  8
0
100
AcDbSpline
 62
7
  6
CONTINUOUS
 70
0
 71
3
 72
13
 73
9
 74
0
 42
0.0000001
 43
0.0000001
 44
0.0000000001
 40
0.0
 40
0.0
 40
0.0
 40
0.0
 40
0.2862405746
 40
0.421378319
 40
0.550346988
 40
0.6727947939
 40
0.7885588087
 40
1.0
 40
1.0
 40
1.0
 40
1.0
 10
14.8349602232
 20
12.5922123893
 30
0.0
 10
14.8336285816
 20
12.5877608389
 30
0.0
 10
14.8320794005
 20
12.5810676286
 30
0.0
 10
14.8310650889
 20
12.5721843936
 30
0.0
 10
14.8308656579
 20
12.5659052971
 30
0.0
 10
14.8312136545
 20
12.5599441454
 30
0.0
 10
14.8323713332
 20
12.552732803
 30
0.0
 10
14.8340826939
 20
12.5476249794
 30
0.0
 10
14.8356481984
 20
12.5445705374
 30
0.0
  0
SPLINE
  5
553
100
AcDbEntity
  8
0
100
AcDbSpline
 62
7
  6
CONTINUOUS
 70
0
 71
3
 72
11
 73
7
 74
0
 42
0.0000001
 43
0.0000001
 44
0.0000000001
 40
0.0
 40
0.0
 40
0.0
 40
0.0
 40
0.2618671682
 40
0.5140003003
 40
0.7589642489
 40
1.0
 40
1.0
 40
1.0
 40
1.0
 10
14.8356481984
 20
12.5445705374
 30
0.0
 10
14.8362749254
 20
12.5433477357
 30
0.0
 10
14.837654078
 20
12.5410196741
 30
0.0
 10
14.8401354112
 20
12.5378885077
 30
0.0
 10
14.8429655984
 20
12.5352239629
 30
0.0
 10
14.8450787568
 20
12.5337750528
 30
0.0
 10
14.846174151
 20
12.5331428299
 30
0.0
  0
SPLINE
  5
554
100
AcDbEntity
  8
0
100
AcDbSpline
 62
7
  6
CONTINUOUS
 70
0
 71
3
 72
11
 73
7
 74
0
 42
0.0000001
 43
0.0000001
 44
0.0000000001
 40
0.0
 40
0.0
 40
0.0
 40
0.0
 40
0.2465162727
 40
0.5002287302
 40
0.7539045601
 40
1.0
 40
1.0
 40
1.0
 40
1.0
 10
14.9225802938
 20
12.0498788074
 30
0.0
 10
14.9246464245
 20
12.0491509742
 30
0.0
 10
14.9289151341
 20
12.0478840703
 30
0.0
 10
14.9354884441
 20
12.0465503322
 30
0.0
 10
14.9421484005
 20
12.0457870206
 30
0.0
 10
14.9465955947
 20
12.045673025
 30
0.0
 10
14.9487817835
 20
12.0457263719
 30
0.0
  0
SPLINE
  5
555
100
AcDbEntity
  8
0
100
AcDbSpline
 62
7
  6
CONTINUOUS
 70
0
 71
3
 72
14
 73
10
 74
0
 42
0.0000001
 43
0.0000001
 44
0.0000000001
 40
0.0
 40
0.0
 40
0.0
 40
0.0
 40
0.2816735586
 40
0.4163872152
 40
0.5458092393
 40
0.6692797927
 40
0.7863154588
 40
0.8966017659
 40
1.0
 40
1.0
 40
1.0
 40
1.0
 10
14.8721713
 20
12.524627528
 30
0.0
 10
14.8701680629
 20
12.5198341898
 30
0.0
 10
14.8676511305
 20
12.5125446151
 30
0.0
 10
14.8654194802
 20
12.5027211301
 30
0.0
 10
14.8643779284
 20
12.495640267
 30
0.0
 10
14.8639560038
 20
12.4888217761
 30
0.0
 10
14.8641607706
 20
12.4823442233
 30
0.0
 10
14.8649930121
 20
12.4762899484
 30
0.0
 10
14.865987382
 20
12.4724632946
 30
0.0
 10
14.8665947312
 20
12.4706555485
 30
0.0
  0
SPLINE
  5
556
100
AcDbEntity
  8
0
100
AcDbSpline
 62
7
  6
CONTINUOUS
 70
0
 71
3
 72
11
 73
7
 74
0
 42
0.0000001
 43
0.0000001
 44
0.0000000001
 40
0.0
 40
0.0
 40
0.0
 40
0.0
 40
0.2692680952
 40
0.522992895
 40
0.764728328
 40
1.0
 40
1.0
 40
1.0
 40
1.0
 10
14.8665947312
 20
12.4706555485
 30
0.0
 10
14.867203761
 20
12.4688428001
 30
0.0
 10
14.8686372258
 20
12.4653979871
 30
0.0
 10
14.871526655
 20
12.46076731
 30
0.0
 10
14.8750603363
 20
12.4569240608
 30
0.0
 10
14.8778266415
 20
12.4549211528
 30
0.0
 10
14.8792735679
 20
12.4540855396
 30
0.0
  0
SPLINE
  5
557
100
AcDbEntity
  8
0
100
AcDbSpline
 62
7
  6
CONTINUOUS
 70
0
 71
3
 72
14
 73
10
 74
0
 42
0.0000001
 43
0.0000001
 44
0.0000000001
 40
0.0
 40
0.0
 40
0.0
 40
0.0
 40
0.2755591218
 40
0.4093193531
 40
0.5389194659
 40
0.6634666924
 40
0.7822204599
 40
0.8945653468
 40
1.0
 40
1.0
 40
1.0
 40
1.0
 10
14.9001984892
 20
12.446360046
 30
0.0
 10
14.8975915617
 20
12.4414324271
 30
0.0
 10
14.894188615
 20
12.4338457995
 30
0.0
 10
14.8908021279
 20
12.4234752476
 30
0.0
 10
14.8889217715
 20
12.4158478487
 30
0.0
 10
14.8877021027
 20
12.4083945853
 30
0.0
 10
14.8871584133
 20
12.4012098652
 30
0.0
 10
14.8873028872
 20
12.3943923271
 30
0.0
 10
14.8878701043
 20
12.39001128
 30
0.0
 10
14.8882788793
 20
12.3879178121
 30
0.0
  0
SPLINE
  5
558
100
AcDbEntity
  8
0
100
AcDbSpline
 62
7
  6
CONTINUOUS
 70
0
 71
3
 72
9
 73
5
 74
0
 42
0.0000001
 43
0.0000001
 44
0.0000000001
 40
0.0
 40
0.0
 40
0.0
 40
0.0
 40
0.4964393842
 40
1.0
 40
1.0
 40
1.0
 40
1.0
 10
14.695421581
 20
12.1415315934
 30
0.0
 10
14.694383276
 20
12.1421311026
 30
0.0
 10
14.6921997212
 20
12.1431859029
 30
0.0
 10
14.689886467
 20
12.1439110682
 30
0.0
 10
14.6887038585
 20
12.1441947264
 30
0.0
  0
SPLINE
  5
559
100
AcDbEntity
  8
0
100
AcDbSpline
 62
7
  6
CONTINUOUS
 70
0
 71
3
 72
9
 73
5
 74
0
 42
0.0000001
 43
0.0000001
 44
0.0000000001
 40
0.0
 40
0.0
 40
0.0
 40
0.0
 40
0.4897916571
 40
1.0
 40
1.0
 40
1.0
 40
1.0
 10
14.581231842
 20
12.8749972133
 30
0.0
 10
14.5792417055
 20
12.8735423285
 30
0.0
 10
14.5753086542
 20
12.8703910096
 30
0.0
 10
14.5716372451
 20
12.8669402567
 30
0.0
 10
14.5698311719
 20
12.865114701
 30
0.0
  0
SPLINE
  5
55A
100
AcDbEntity
  8
0
100
AcDbSpline
 62
7
  6
CONTINUOUS
 70
0
 71
3
 72
9
 73
5
 74
0
 42
0.0000001
 43
0.0000001
 44
0.0000000001
 40
0.0
 40
0.0
 40
0.0
 40
0.0
 40
0.4794737083
 40
1.0
 40
1.0
 40
1.0
 40
1.0
 10
14.669975628
 20
12.8641083346
 30
0.0
 10
14.6669972539
 20
12.8629297977
 30
0.0
 10
14.6609975218
 20
12.8599211123
 30
0.0
 10
14.6554908223
 20
12.8561037962
 30
0.0
 10
14.6527537753
 20
12.8539589622
 30
0.0
  0
SPLINE
  5
55B
100
AcDbEntity
  8
0
100
AcDbSpline
 62
7
  6
CONTINUOUS
 70
0
 71
3
 72
13
 73
9
 74
0
 42
0.0000001
 43
0.0000001
 44
0.0000000001
 40
0.0
 40
0.0
 40
0.0
 40
0.0
 40
0.2768004386
 40
0.5321611531
 40
0.653166903
 40
0.7707584205
 40
0.8859820466
 40
1.0
 40
1.0
 40
1.0
 40
1.0
 10
14.8882788793
 20
12.3879178121
 30
0.0
 10
14.888760911
 20
12.3854491727
 30
0.0
 10
14.8900481305
 20
12.3807614827
 30
0.0
 10
14.8926645904
 20
12.3753848523
 30
0.0
 10
14.8952774075
 20
12.371724276
 30
0.0
 10
14.897440159
 20
12.3693347791
 30
0.0
 10
14.8998291706
 20
12.3672673816
 30
0.0
 10
14.9015690612
 20
12.3661099368
 30
0.0
 10
14.9024663639
 20
12.3655919691
 30
0.0
  0
SPLINE
  5
55C
100
AcDbEntity
  8
0
100
AcDbSpline
 62
7
  6
CONTINUOUS
 70
0
 71
3
 72
10
 73
6
 74
0
 42
0.0000001
 43
0.0000001
 44
0.0000000001
 40
0.0
 40
0.0
 40
0.0
 40
0.0
 40
0.227556935
 40
0.5960810594
 40
1.0
 40
1.0
 40
1.0
 40
1.0
 10
14.7513127344
 20
12.8348139242
 30
0.0
 10
14.7495541699
 20
12.8347578207
 30
0.0
 10
14.7449549586
 20
12.8342468878
 30
0.0
 10
14.7374880016
 20
12.8320699186
 30
0.0
 10
14.7320909319
 20
12.8294513052
 30
0.0
 10
14.7293792614
 20
12.8279019561
 30
0.0
  0
SPLINE
  5
55D
100
AcDbEntity
  8
0
100
AcDbSpline
 62
7
  6
CONTINUOUS
 70
0
 71
3
 72
15
 73
11
 74
0
 42
0.0000001
 43
0.0000001
 44
0.0000000001
 40
0.0
 40
0.0
 40
0.0
 40
0.0
 40
0.1170871938
 40
0.2410582398
 40
0.3695857329
 40
0.5004172155
 40
0.6312376071
 40
0.7596306426
 40
0.8832550921
 40
1.0
 40
1.0
 40
1.0
 40
1.0
 10
13.3628863761
 20
11.574726472
 30
0.0
 10
13.3642767679
 20
11.5740214531
 30
0.0
 10
13.3672013279
 20
11.5726903198
 30
0.0
 10
13.3718173574
 20
11.5709754423
 30
0.0
 10
13.3767114644
 20
11.5695154421
 30
0.0
 10
13.381774803
 20
11.568339276
 30
0.0
 10
13.3868986883
 20
11.5674745643
 30
0.0
 10
13.3919709135
 20
11.5669364482
 30
0.0
 10
13.3968803107
 20
11.5667410184
 30
0.0
 10
13.4000828383
 20
11.5668421372
 30
0.0
 10
13.4016329028
 20
11.5669576924
 30
0.0
  0
SPLINE
  5
55E
100
AcDbEntity
  8
0
100
AcDbSpline
 62
7
  6
CONTINUOUS
 70
0
 71
3
 72
14
 73
10
 74
0
 42
0.0000001
 43
0.0000001
 44
0.0000000001
 40
0.0
 40
0.0
 40
0.0
 40
0.0
 40
0.2685644978
 40
0.401019863
 40
0.5305719512
 40
0.6561532946
 40
0.7768177256
 40
0.8917046129
 40
1.0
 40
1.0
 40
1.0
 40
1.0
 10
14.9186311515
 20
12.3589012963
 30
0.0
 10
14.9154770049
 20
12.3539971177
 30
0.0
 10
14.9112589239
 20
12.3463384346
 30
0.0
 10
14.9067848593
 20
12.3357161465
 30
0.0
 10
14.9040816743
 20
12.3277383151
 30
0.0
 10
14.9020564267
 20
12.3198261448
 30
0.0
 10
14.9007350259
 20
12.3120876247
 30
0.0
 10
14.9001423057
 20
12.3046356574
 30
0.0
 10
14.9002357655
 20
12.2997801189
 30
0.0
 10
14.9004179566
 20
12.2974359409
 30
0.0
  0
SPLINE
  5
55F
100
AcDbEntity
  8
0
100
AcDbSpline
 62
7
  6
CONTINUOUS
 70
0
 71
3
 72
11
 73
7
 74
0
 42
0.0000001
 43
0.0000001
 44
0.0000000001
 40
0.0
 40
0.0
 40
0.0
 40
0.0
 40
0.2301383803
 40
0.4716449998
 40
0.727542197
 40
1.0
 40
1.0
 40
1.0
 40
1.0
 10
14.8200613128
 20
12.7886208961
 30
0.0
 10
14.8185061833
 20
12.7890714219
 30
0.0
 10
14.8152258139
 20
12.7896942006
 30
0.0
 10
14.8100870147
 20
12.7897834521
 30
0.0
 10
14.8047026478
 20
12.7890461542
 30
0.0
 10
14.8011099529
 20
12.7880490297
 30
0.0
 10
14.7992954947
 20
12.7874310762
 30
0.0
  0
SPLINE
  5
560
100
AcDbEntity
  8
0
100
AcDbSpline
 62
7
  6
CONTINUOUS
 70
0
 71
3
 72
11
 73
7
 74
0
 42
0.0000001
 43
0.0000001
 44
0.0000000001
 40
0.0
 40
0.0
 40
0.0
 40
0.0
 40
0.2398506875
 40
0.48461247
 40
0.7371415365
 40
1.0
 40
1.0
 40
1.0
 40
1.0
 10
14.8760903494
 20
12.7295894928
 30
0.0
 10
14.8749957872
 20
12.7301547564
 30
0.0
 10
14.8726938276
 20
12.731129788
 30
0.0
 10
14.8690172083
 20
12.7320842157
 30
0.0
 10
14.8651268226
 20
12.7325304533
 30
0.0
 10
14.8624721511
 20
12.7324882619
 30
0.0
 10
14.8611257313
 20
12.7323889736
 30
0.0
  0
SPLINE
  5
561
100
AcDbEntity
  8
0
100
AcDbSpline
 62
7
  6
CONTINUOUS
 70
0
 71
3
 72
13
 73
9
 74
0
 42
0.0000001
 43
0.0000001
 44
0.0000000001
 40
0.0
 40
0.0
 40
0.0
 40
0.0
 40
0.1133651027
 40
0.2279695145
 40
0.3450684241
 40
0.4657838809
 40
0.7213493236
 40
1.0
 40
1.0
 40
1.0
 40
1.0
 10
14.6533051312
 20
12.2205610331
 30
0.0
 10
14.6523670158
 20
12.2211034371
 30
0.0
 10
14.6504053895
 20
12.2220697688
 30
0.0
 10
14.6472715121
 20
12.2231265527
 30
0.0
 10
14.6439602561
 20
12.2237921635
 30
0.0
 10
14.6392486582
 20
12.2241619924
 30
0.0
 10
14.6329669181
 20
12.2235713297
 30
0.0
 10
14.6280362599
 20
12.2221400325
 30
0.0
 10
14.6255418414
 20
12.2212059789
 30
0.0
  0
SPLINE
  5
562
100
AcDbEntity
  8
0
100
AcDbSpline
 62
7
  6
CONTINUOUS
 70
0
 71
3
 72
14
 73
10
 74
0
 42
0.0000001
 43
0.0000001
 44
0.0000000001
 40
0.0
 40
0.0
 40
0.0
 40
0.0
 40
0.1455927749
 40
0.2844234204
 40
0.5417138737
 40
0.6617041147
 40
0.7771446827
 40
0.8893859544
 40
1.0
 40
1.0
 40
1.0
 40
1.0
 10
14.9004179566
 20
12.2974359409
 30
0.0
 10
14.9005443477
 20
12.2958097196
 30
0.0
 10
14.900921083
 20
12.292640021
 30
0.0
 10
14.9021787828
 20
12.2866986945
 30
0.0
 10
14.9042113915
 20
12.2812233938
 30
0.0
 10
14.9070743005
 20
12.2764879092
 30
0.0
 10
14.9095234024
 20
12.2734424144
 30
0.0
 10
14.9123066937
 20
12.2708508789
 30
0.0
 10
14.9143766326
 20
12.2694347791
 30
0.0
 10
14.9154497545
 20
12.2688149869
 30
0.0
  0
LINE
  5
563
100
AcDbEntity
  8
0
100
AcDbLine
 62
7
  6
CONTINUOUS
 10
15.0002095219
 20
12.388808754
 11
15.0003221152
 21
12.3876892093
  0
SPLINE
  5
564
100
AcDbEntity
  8
0
100
AcDbSpline
 62
7
  6
CONTINUOUS
 70
0
 71
3
 72
49
 73
45
 74
0
 42
0.0000001
 43
0.0000001
 44
0.0000000001
 40
0.0
 40
0.0
 40
0.0
 40
0.0
 40
0.0325363133
 40
0.0665423286
 40
0.1018543742
 40
0.1383115634
 40
0.1757168842
 40
0.2138503607
 40
0.2524801126
 40
0.2913639345
 40
0.3302533816
 40
0.3689007029
 40
0.4070631247
 40
0.4445068207
 40
0.4810135011
 40
0.5163839336
 40
0.5504455114
 40
0.5669434109
 40
0.5830647917
 40
0.6141272518
 40
0.6435878761
 40
0.6577213412
 40
0.6714619732
 40
0.6978006605
 40
0.7227642924
 40
0.7348074455
 40
0.7466008871
 40
0.7581860053
 40
0.7696085414
 40
0.780918216
 40
0.7921669788
 40
0.8034083011
 40
0.8146958629
 40
0.8260819951
 40
0.837617066
 40
0.8493481526
 40
0.8613179934
 40
0.8735651642
 40
0.8861227493
 40
0.9122592373
 40
0.9258913039
 40
0.9399146675
 40
0.9691603675
 40
1.0
 40
1.0
 40
1.0
 40
1.0
 10
13.7990111288
 20
11.4407495748
 30
0.0
 10
13.7990111288
 20
11.4594292659
 30
0.0
 10
13.8006676309
 20
11.4976461875
 30
0.0
 10
13.8076828566
 20
11.5557500771
 30
0.0
 10
13.8192301221
 20
11.6154189815
 30
0.0
 10
13.8351931357
 20
11.6760754324
 30
0.0
 10
13.8554162744
 20
11.7371533813
 30
0.0
 10
13.8797136969
 20
11.798070443
 30
0.0
 10
13.907851622
 20
11.8582482746
 30
0.0
 10
13.9395608109
 20
11.9171160037
 30
0.0
 10
13.9745438709
 20
11.9741108734
 30
0.0
 10
14.0124635708
 20
12.0286927545
 30
0.0
 10
14.0529612865
 20
12.080341358
 30
0.0
 10
14.0956529507
 20
12.1285648289
 30
0.0
 10
14.1401309575
 20
12.1729083975
 30
0.0
 10
14.1859758868
 20
12.2129459962
 30
0.0
 10
14.2253717382
 20
12.2427229664
 30
0.0
 10
14.2572104791
 20
12.2639964905
 30
0.0
 10
14.2884081538
 20
12.2830754428
 30
0.0
 10
14.3273584416
 20
12.3036741505
 30
0.0
 10
14.3670150115
 20
12.3201358709
 30
0.0
 10
14.3983336221
 20
12.3303174035
 30
0.0
 10
14.4284301283
 20
12.3383017731
 30
0.0
 10
14.465309343
 20
12.3447513685
 30
0.0
 10
14.501769427
 20
12.3463168341
 30
0.0
 10
14.5297467292
 20
12.344445041
 30
0.0
 10
14.5498981266
 20
12.3415603871
 30
0.0
 10
14.5694142747
 20
12.337182708
 30
0.0
 10
14.588246623
 20
12.3313178161
 30
0.0
 10
14.6063491217
 20
12.323983404
 30
0.0
 10
14.6236772123
 20
12.3151971805
 30
0.0
 10
14.6401851587
 20
12.3049767143
 30
0.0
 10
14.6558332638
 20
12.2933509195
 30
0.0
 10
14.6705842764
 20
12.2803504343
 30
0.0
 10
14.684399435
 20
12.2660049823
 30
0.0
 10
14.697246437
 20
12.25035186
 30
0.0
 10
14.7090972421
 20
12.2334317382
 30
0.0
 10
14.7199218574
 20
12.2152830753
 30
0.0
 10
14.7331256658
 20
12.1891658655
 30
0.0
 10
14.7439612752
 20
12.1610455636
 30
0.0
 10
14.7525028942
 20
12.1313559779
 30
0.0
 10
14.7597709215
 20
12.099490026
 30
0.0
 10
14.7658795882
 20
12.0573070342
 30
0.0
 10
14.7675877384
 20
12.0228015119
 30
0.0
 10
14.7677275362
 20
12.0050964682
 30
0.0
  0
SPLINE
  5
565
100
AcDbEntity
  8
0
100
AcDbSpline
 62
7
  6
CONTINUOUS
 70
0
 71
3
 72
15
 73
11
 74
0
 42
0.0000001
 43
0.0000001
 44
0.0000000001
 40
0.0
 40
0.0
 40
0.0
 40
0.0
 40
0.123341724
 40
0.2520301856
 40
0.3834764718
 40
0.5153336395
 40
0.6451291165
 40
0.7704609434
 40
0.8893520793
 40
1.0
 40
1.0
 40
1.0
 40
1.0
 10
14.172319808
 20
12.1557429203
 30
0.0
 10
14.1694141768
 20
12.1532039013
 30
0.0
 10
14.1637869537
 20
12.1476534358
 30
0.0
 10
14.1561625846
 20
12.1383661225
 30
0.0
 10
14.1493505289
 20
12.1281448427
 30
0.0
 10
14.1435431578
 20
12.1172828979
 30
0.0
 10
14.1388940142
 20
12.1060829751
 30
0.0
 10
14.1355379473
 20
12.0948495444
 30
0.0
 10
14.1335704859
 20
12.0838990093
 30
0.0
 10
14.1332046234
 20
12.0766998192
 30
0.0
 10
14.1332973781
 20
12.0732395128
 30
0.0
  0
SPLINE
  5
566
100
AcDbEntity
  8
0
100
AcDbSpline
 62
7
  6
CONTINUOUS
 70
0
 71
3
 72
16
 73
12
 74
0
 42
0.0000001
 43
0.0000001
 44
0.0000000001
 40
0.0
 40
0.0
 40
0.0
 40
0.0
 40
0.1362127838
 40
0.2743556152
 40
0.4113635723
 40
0.5446938071
 40
0.6719078694
 40
0.7325769639
 40
0.7910165258
 40
0.9005939123
 40
1.0
 40
1.0
 40
1.0
 40
1.0
 10
14.0682386169
 20
12.0480679561
 30
0.0
 10
14.0655805371
 20
12.0448459586
 30
0.0
 10
14.0605700412
 20
12.0380660818
 30
0.0
 10
14.0541054223
 20
12.027211666
 30
0.0
 10
14.0487889447
 20
12.0158457263
 30
0.0
 10
14.0447789913
 20
12.0043103628
 30
0.0
 10
14.0425799853
 20
11.9946833464
 30
0.0
 10
14.0416030409
 20
11.9871883028
 30
0.0
 10
14.0411628191
 20
11.9801850612
 30
0.0
 10
14.0415211493
 20
11.9719604687
 30
0.0
 10
14.0428994563
 20
11.965653881
 30
0.0
 10
14.0438765819
 20
11.9627664807
 30
0.0
  0
SPLINE
  5
567
100
AcDbEntity
  8
0
100
AcDbSpline
 62
7
  6
CONTINUOUS
 70
0
 71
3
 72
18
 73
14
 74
0
 42
0.0000001
 43
0.0000001
 44
0.0000000001
 40
0.0
 40
0.0
 40
0.0
 40
0.0
 40
0.045446726
 40
0.0926522419
 40
0.1419835436
 40
0.1937232613
 40
0.2480784854
 40
0.3051687736
 40
0.4275399996
 40
0.5601713822
 40
0.7014032602
 40
0.849053727
 40
1.0
 40
1.0
 40
1.0
 40
1.0
 10
14.0438765819
 20
11.9627664807
 30
0.0
 10
14.0426509095
 20
11.9630909663
 30
0.0
 10
14.0401005314
 20
11.9635693507
 30
0.0
 10
14.0361343739
 20
11.9637726945
 30
0.0
 10
14.0319985606
 20
11.9634741161
 30
0.0
 10
14.027728822
 20
11.9626713513
 30
0.0
 10
14.0233571228
 20
11.9613748599
 30
0.0
 10
14.0172937238
 20
11.9589482524
 30
0.0
 10
14.0096579081
 20
11.9546848272
 30
0.0
 10
14.0008210224
 20
11.9479960841
 30
0.0
 10
13.992351216
 20
11.9397999508
 30
0.0
 10
13.9845011925
 20
11.9303413847
 30
0.0
 10
13.9798469084
 20
11.9234125795
 30
0.0
 10
13.9776755044
 20
11.9198043874
 30
0.0
  0
SPLINE
  5
568
100
AcDbEntity
  8
0
100
AcDbSpline
 62
7
  6
CONTINUOUS
 70
0
 71
3
 72
16
 73
12
 74
0
 42
0.0000001
 43
0.0000001
 44
0.0000000001
 40
0.0
 40
0.0
 40
0.0
 40
0.0
 40
0.1482441886
 40
0.2943032157
 40
0.4350224663
 40
0.5680941583
 40
0.6916322059
 40
0.7494683788
 40
0.804606764
 40
0.9069281428
 40
1.0
 40
1.0
 40
1.0
 40
1.0
 10
13.9776755044
 20
11.9198043874
 30
0.0
 10
13.9754962037
 20
11.9161830733
 30
0.0
 10
13.971526244
 20
11.9087723635
 30
0.0
 10
13.9667801057
 20
11.8972915624
 30
0.0
 10
13.9633962683
 20
11.885783513
 30
0.0
 10
13.9614757449
 20
11.8745924572
 30
0.0
 10
13.9611259674
 20
11.8655997029
 30
0.0
 10
13.9616733531
 20
11.858871266
 30
0.0
 10
13.9626957866
 20
11.8528125808
 30
0.0
 10
13.9648634001
 20
11.8459538828
 30
0.0
 10
13.9677512636
 20
11.8411070394
 30
0.0
 10
13.9694210806
 20
11.8390447979
 30
0.0
  0
SPLINE
  5
569
100
AcDbEntity
  8
0
100
AcDbSpline
 62
7
  6
CONTINUOUS
 70
0
 71
3
 72
16
 73
12
 74
0
 42
0.0000001
 43
0.0000001
 44
0.0000000001
 40
0.0
 40
0.0
 40
0.0
 40
0.0
 40
0.097366093
 40
0.2049483226
 40
0.2625450403
 40
0.322523646
 40
0.4489270532
 40
0.5823488082
 40
0.7204457578
 40
0.8607008827
 40
1.0
 40
1.0
 40
1.0
 40
1.0
 10
13.9694210806
 20
11.8390447979
 30
0.0
 10
13.9665015111
 20
11.8387009108
 30
0.0
 10
13.9604350002
 20
11.8372376223
 30
0.0
 10
13.9531689011
 20
11.833981412
 30
0.0
 10
13.9473142047
 20
11.8305169229
 30
0.0
 10
13.9412511672
 20
11.8263234791
 30
0.0
 10
13.933877388
 20
11.8200480544
 30
0.0
 10
13.9256580513
 20
11.8112542983
 30
0.0
 10
13.9181563798
 20
11.8013118115
 30
0.0
 10
13.9115986197
 20
11.7905183416
 30
0.0
 10
13.9079403109
 20
11.7828930367
 30
0.0
 10
13.9063208841
 20
11.7790114859
 30
0.0
  0
SPLINE
  5
56A
100
AcDbEntity
  8
0
100
AcDbSpline
 62
7
  6
CONTINUOUS
 70
0
 71
3
 72
19
 73
15
 74
0
 42
0.0000001
 43
0.0000001
 44
0.0000000001
 40
0.0
 40
0.0
 40
0.0
 40
0.0
 40
0.1568671127
 40
0.3072784506
 40
0.3791792454
 40
0.4485582026
 40
0.5790260286
 40
0.640030442
 40
0.6981629488
 40
0.8061773556
 40
0.856785778
 40
0.9056169405
 40
0.9531724169
 40
1.0
 40
1.0
 40
1.0
 40
1.0
 10
13.9063208841
 20
11.7790114859
 30
0.0
 10
13.9047793601
 20
11.7753166576
 30
0.0
 10
13.9021173127
 20
11.7679235319
 30
0.0
 10
13.8998155299
 20
11.758501556
 30
0.0
 10
13.8987136443
 20
11.75113413
 30
0.0
 10
13.8981264556
 20
11.7442206927
 30
0.0
 10
13.8982352283
 20
11.7375345689
 30
0.0
 10
13.8991293554
 20
11.7312193132
 30
0.0
 10
13.9004536319
 20
11.7255705792
 30
0.0
 10
13.9025042078
 20
11.7203754791
 30
0.0
 10
13.905319332
 20
11.7158767059
 30
0.0
 10
13.9077160012
 20
11.7129750612
 30
0.0
 10
13.9104188388
 20
11.7104975119
 30
0.0
 10
13.9124181284
 20
11.7091358837
 30
0.0
 10
13.9134528167
 20
11.7085377839
 30
0.0
  0
SPLINE
  5
56B
100
AcDbEntity
  8
0
100
AcDbSpline
 62
7
  6
CONTINUOUS
 70
0
 71
3
 72
16
 73
12
 74
0
 42
0.0000001
 43
0.0000001
 44
0.0000000001
 40
0.0
 40
0.0
 40
0.0
 40
0.0
 40
0.052371055
 40
0.1071978671
 40
0.2234146124
 40
0.3470985354
 40
0.4763705292
 40
0.6088454376
 40
0.7419737082
 40
0.8732847666
 40
1.0
 40
1.0
 40
1.0
 40
1.0
 10
13.914075691
 20
11.7075988789
 30
0.0
 10
13.9125676063
 20
11.7069299475
 30
0.0
 10
13.9095386395
 20
11.7054270475
 30
0.0
 10
13.9034847269
 20
11.7018275455
 30
0.0
 10
13.8960302875
 20
11.6962433136
 30
0.0
 10
13.887612823
 20
11.6881842576
 30
0.0
 10
13.8797888023
 20
11.6788702716
 30
0.0
 10
13.8727756894
 20
11.6685719997
 30
0.0
 10
13.8667782283
 20
11.6575770223
 30
0.0
 10
13.8619751865
 20
11.6462083136
 30
0.0
 10
13.8595973654
 20
11.6384155029
 30
0.0
 10
13.8586582292
 20
11.6345357874
 30
0.0
  0
SPLINE
  5
56C
100
AcDbEntity
  8
0
100
AcDbSpline
 62
7
  6
CONTINUOUS
 70
0
 71
3
 72
17
 73
13
 74
0
 42
0.0000001
 43
0.0000001
 44
0.0000000001
 40
0.0
 40
0.0
 40
0.0
 40
0.0
 40
0.1555095435
 40
0.3030331718
 40
0.4410358311
 40
0.5690633196
 40
0.6873889509
 40
0.7970896539
 40
0.8493563012
 40
0.9003144512
 40
0.9503786965
 40
1.0
 40
1.0
 40
1.0
 40
1.0
 10
13.8586582292
 20
11.6345357874
 30
0.0
 10
13.8579405
 20
11.6315707385
 30
0.0
 10
13.8568021989
 20
11.6257253151
 30
0.0
 10
13.8560010595
 20
11.6170946722
 30
0.0
 10
13.8561775298
 20
11.6089637541
 30
0.0
 10
13.857325758
 20
11.6014858554
 30
0.0
 10
13.8594389024
 20
11.5947964962
 30
0.0
 10
13.8620204215
 20
11.5898979156
 30
0.0
 10
13.864532439
 20
11.5865515229
 30
0.0
 10
13.8665955428
 20
11.5843547173
 30
0.0
 10
13.8688570434
 20
11.5824425041
 30
0.0
 10
13.87049373
 20
11.58136219
 30
0.0
 10
13.8713369076
 20
11.5808757427
 30
0.0
  0
SPLINE
  5
56D
100
AcDbEntity
  8
0
100
AcDbSpline
 62
7
  6
CONTINUOUS
 70
0
 71
3
 72
15
 73
11
 74
0
 42
0.0000001
 43
0.0000001
 44
0.0000000001
 40
0.0
 40
0.0
 40
0.0
 40
0.0
 40
0.1212142782
 40
0.2476998699
 40
0.3774394937
 40
0.5083460601
 40
0.6381198751
 40
0.7646097104
 40
0.8858952801
 40
1.0
 40
1.0
 40
1.0
 40
1.0
 10
13.8781213248
 20
11.5735756932
 30
0.0
 10
13.8753291422
 20
11.5712356686
 30
0.0
 10
13.8698973723
 20
11.5661193887
 30
0.0
 10
13.8624718084
 20
11.5575207232
 30
0.0
 10
13.8557333092
 20
11.548014134
 30
0.0
 10
13.8498544873
 20
11.5378398716
 30
0.0
 10
13.8449785084
 20
11.5272558492
 30
0.0
 10
13.8412317408
 20
11.5165248976
 30
0.0
 10
13.8387157486
 20
11.5059240012
 30
0.0
 10
13.8378632618
 20
11.4988798556
 30
0.0
 10
13.8376823595
 20
11.4954552315
 30
0.0
  0
SPLINE
  5
56E
100
AcDbEntity
  8
0
100
AcDbSpline
 62
7
  6
CONTINUOUS
 70
0
 71
3
 72
15
 73
11
 74
0
 42
0.0000001
 43
0.0000001
 44
0.0000000001
 40
0.0
 40
0.0
 40
0.0
 40
0.0
 40
0.1502612011
 40
0.2927995933
 40
0.4271501598
 40
0.5534193423
 40
0.6723943443
 40
0.7852965373
 40
0.8938182543
 40
1.0
 40
1.0
 40
1.0
 40
1.0
 10
13.8376823595
 20
11.4954552315
 30
0.0
 10
13.8375701494
 20
11.4933310069
 30
0.0
 10
13.8375270775
 20
11.4891795585
 30
0.0
 10
13.8380382078
 20
11.4831444428
 30
0.0
 10
13.8391261682
 20
11.4775290055
 30
0.0
 10
13.8407866779
 20
11.472402633
 30
0.0
 10
13.8429988007
 20
11.4678207805
 30
0.0
 10
13.8457494188
 20
11.4638379127
 30
0.0
 10
13.849004968
 20
11.4605033253
 30
0.0
 10
13.8515005926
 20
11.4587331638
 30
0.0
 10
13.8528022684
 20
11.4579813894
 30
0.0
  0
SPLINE
  5
56F
100
AcDbEntity
  8
0
100
AcDbSpline
 62
7
  6
CONTINUOUS
 70
0
 71
3
 72
14
 73
10
 74
0
 42
0.0000001
 43
0.0000001
 44
0.0000000001
 40
0.0
 40
0.0
 40
0.0
 40
0.0
 40
0.2674415683
 40
0.4020463877
 40
0.5342102847
 40
0.661739381
 40
0.7827781543
 40
0.8959180562
 40
1.0
 40
1.0
 40
1.0
 40
1.0
 10
13.8718001227
 20
11.4506445881
 30
0.0
 10
13.8667807782
 20
11.4447330484
 30
0.0
 10
13.8600897423
 20
11.435075709
 30
0.0
 10
13.8530724699
 20
11.4212505989
 30
0.0
 10
13.8488665586
 20
11.4105982376
 30
0.0
 10
13.8458356564
 20
11.3999629687
 30
0.0
 10
13.8440580189
 20
11.3896022084
 30
0.0
 10
13.8435861929
 20
11.3797799361
 30
0.0
 10
13.8441690691
 20
11.3734777238
 30
0.0
 10
13.8447112661
 20
11.3705087609
 30
0.0
  0
SPLINE
  5
570
100
AcDbEntity
  8
0
100
AcDbSpline
 62
7
  6
CONTINUOUS
 70
0
 71
3
 72
13
 73
9
 74
0
 42
0.0000001
 43
0.0000001
 44
0.0000000001
 40
0.0
 40
0.0
 40
0.0
 40
0.0
 40
0.2774733244
 40
0.5330851586
 40
0.6540032136
 40
0.77138092
 40
0.8863106602
 40
1.0
 40
1.0
 40
1.0
 40
1.0
 10
13.8447112661
 20
11.3705087609
 30
0.0
 10
13.8451744648
 20
11.3679723761
 30
0.0
 10
13.846437445
 20
11.3631552551
 30
0.0
 10
13.8490595393
 20
11.3576216976
 30
0.0
 10
13.8517016402
 20
11.3538575312
 30
0.0
 10
13.8538955778
 20
11.3514052327
 30
0.0
 10
13.8563251865
 20
11.3492871847
 30
0.0
 10
13.8580984801
 20
11.3481046518
 30
0.0
 10
13.859013637
 20
11.3475769058
 30
0.0
  0
SPLINE
  5
571
100
AcDbEntity
  8
0
100
AcDbSpline
 62
7
  6
CONTINUOUS
 70
0
 71
3
 72
15
 73
11
 74
0
 42
0.0000001
 43
0.0000001
 44
0.0000000001
 40
0.0
 40
0.0
 40
0.0
 40
0.0
 40
0.1454872175
 40
0.2881917902
 40
0.4262459476
 40
0.5579296374
 40
0.6817442961
 40
0.7967984631
 40
0.9027970207
 40
1.0
 40
1.0
 40
1.0
 40
1.0
 10
13.888235894
 20
11.3390790143
 30
0.0
 10
13.8864922349
 20
11.3359040606
 30
0.0
 10
13.8833045669
 20
11.3294640638
 30
0.0
 10
13.8794396817
 20
11.3195659605
 30
0.0
 10
13.8765938348
 20
11.3096832609
 30
0.0
 10
13.8748231066
 20
11.3000280437
 30
0.0
 10
13.8741707191
 20
11.2908042799
 30
0.0
 10
13.8746523363
 20
11.2822036928
 30
0.0
 10
13.8762725789
 20
11.2744154039
 30
0.0
 10
13.8781651426
 20
11.2696829834
 30
0.0
 10
13.8793032969
 20
11.2675472219
 30
0.0
  0
SPLINE
  5
572
100
AcDbEntity
  8
0
100
AcDbSpline
 62
7
  6
CONTINUOUS
 70
0
 71
3
 72
11
 73
7
 74
0
 42
0.0000001
 43
0.0000001
 44
0.0000000001
 40
0.0
 40
0.0
 40
0.0
 40
0.0
 40
0.2610768827
 40
0.5130515553
 40
0.7583738832
 40
1.0
 40
1.0
 40
1.0
 40
1.0
 10
13.8793032969
 20
11.2675472219
 30
0.0
 10
13.8799255285
 20
11.266379596
 30
0.0
 10
13.8812883054
 20
11.2641557036
 30
0.0
 10
13.8837177682
 20
11.2611627691
 30
0.0
 10
13.8864715833
 20
11.2586065785
 30
0.0
 10
13.8885187256
 20
11.2572089689
 30
0.0
 10
13.8895792259
 20
11.2565968063
 30
0.0
  0
SPLINE
  5
573
100
AcDbEntity
  8
0
100
AcDbSpline
 62
7
  6
CONTINUOUS
 70
0
 71
3
 72
15
 73
11
 74
0
 42
0.0000001
 43
0.0000001
 44
0.0000000001
 40
0.0
 40
0.0
 40
0.0
 40
0.0
 40
0.1535576551
 40
0.2998393551
 40
0.4378127501
 40
0.5667640988
 40
0.6865146107
 40
0.7976718074
 40
0.9015290267
 40
1.0
 40
1.0
 40
1.0
 40
1.0
 10
13.9306284982
 20
11.2472486752
 30
0.0
 10
13.929852658
 20
11.2443960872
 30
0.0
 10
13.9285690637
 20
11.2387592045
 30
0.0
 10
13.9274637497
 20
11.2303904676
 30
0.0
 10
13.9272387755
 20
11.2224230068
 30
0.0
 10
13.9278948114
 20
11.2149883639
 30
0.0
 10
13.9294343398
 20
11.2082090515
 30
0.0
 10
13.9318377599
 20
11.2021951018
 30
0.0
 10
13.9350814867
 20
11.197063312
 30
0.0
 10
13.9378178953
 20
11.1942407323
 30
0.0
 10
13.9392849074
 20
11.1930400667
 30
0.0
  0
SPLINE
  5
574
100
AcDbEntity
  8
0
100
AcDbSpline
 62
7
  6
CONTINUOUS
 70
0
 71
3
 72
13
 73
9
 74
0
 42
0.0000001
 43
0.0000001
 44
0.0000000001
 40
0.0
 40
0.0
 40
0.0
 40
0.0
 40
0.2857174487
 40
0.5433613604
 40
0.6631794929
 40
0.7782496003
 40
0.8899853158
 40
1.0
 40
1.0
 40
1.0
 40
1.0
 10
13.9995616947
 20
11.1842217202
 30
0.0
 10
13.9997446691
 20
11.1808937954
 30
0.0
 10
14.0005932194
 20
11.1745744626
 30
0.0
 10
14.0031630405
 20
11.1672000515
 30
0.0
 10
14.0060649647
 20
11.1622231234
 30
0.0
 10
14.0085682108
 20
11.1590298497
 30
0.0
 10
14.0114329647
 20
11.156319618
 30
0.0
 10
14.0135756898
 20
11.1548482688
 30
0.0
 10
14.0146871515
 20
11.1542066904
 30
0.0
  0
SPLINE
  5
575
100
AcDbEntity
  8
0
100
AcDbSpline
 62
7
  6
CONTINUOUS
 70
0
 71
3
 72
9
 73
5
 74
0
 42
0.0000001
 43
0.0000001
 44
0.0000000001
 40
0.0
 40
0.0
 40
0.0
 40
0.0
 40
0.5087585953
 40
1.0
 40
1.0
 40
1.0
 40
1.0
 10
14.092852806
 20
11.1572547649
 30
0.0
 10
14.0939765991
 20
11.1556035197
 30
0.0
 10
14.0965190248
 20
11.1525664846
 30
0.0
 10
14.0996951197
 20
11.1501890224
 30
0.0
 10
14.101365274
 20
11.1492246015
 30
0.0
  0
SPLINE
  5
576
100
AcDbEntity
  8
0
100
AcDbSpline
 62
7
  6
CONTINUOUS
 70
0
 71
3
 72
15
 73
11
 74
0
 42
0.0000001
 43
0.0000001
 44
0.0000000001
 40
0.0
 40
0.0
 40
0.0
 40
0.0
 40
0.1206205184
 40
0.2474014894
 40
0.3778993445
 40
0.5096943895
 40
0.6402685684
 40
0.7670577736
 40
0.8876881497
 40
1.0
 40
1.0
 40
1.0
 40
1.0
 10
13.9280001235
 20
12.569174986
 30
0.0
 10
13.9293420176
 20
12.5682530583
 30
0.0
 10
13.9320223912
 20
12.5662558238
 30
0.0
 10
13.9359016038
 20
12.5629389293
 30
0.0
 10
13.9396780596
 20
12.5592850499
 30
0.0
 10
13.943265615
 20
12.5553759867
 30
0.0
 10
13.9465851752
 20
12.5513012168
 30
0.0
 10
13.9495605981
 20
12.5471523424
 30
0.0
 10
13.9521243569
 20
12.5430246735
 30
0.0
 10
13.9535817795
 20
12.5402339746
 30
0.0
 10
13.9542207506
 20
12.5388592899
 30
0.0
  0
SPLINE
  5
577
100
AcDbEntity
  8
0
100
AcDbSpline
 62
7
  6
CONTINUOUS
 70
0
 71
3
 72
15
 73
11
 74
0
 42
0.0000001
 43
0.0000001
 44
0.0000000001
 40
0.0
 40
0.0
 40
0.0
 40
0.0
 40
0.1298438172
 40
0.260998327
 40
0.3918993472
 40
0.5212550912
 40
0.6478509755
 40
0.7705600436
 40
0.8883081976
 40
1.0
 40
1.0
 40
1.0
 40
1.0
 10
14.927487344
 20
12.2639517582
 30
0.0
 10
14.9256526746
 20
12.2615830268
 30
0.0
 10
14.9221410022
 20
12.2566825931
 30
0.0
 10
14.917405923
 20
12.248969778
 30
0.0
 10
14.9132387096
 20
12.2409479893
 30
0.0
 10
14.909698827
 20
12.2327446282
 30
0.0
 10
14.9068410753
 20
12.224478717
 30
0.0
 10
14.904704939
 20
12.2162728749
 30
0.0
 10
14.9033298467
 20
12.2082543618
 30
0.0
 10
14.9029165583
 20
12.202966028
 30
0.0
 10
14.9028537119
 20
12.2003895047
 30
0.0
  0
SPLINE
  5
578
100
AcDbEntity
  8
0
100
AcDbSpline
 62
7
  6
CONTINUOUS
 70
0
 71
3
 72
15
 73
11
 74
0
 42
0.0000001
 43
0.0000001
 44
0.0000000001
 40
0.0
 40
0.0
 40
0.0
 40
0.0
 40
0.1296158075
 40
0.2651882976
 40
0.4030647519
 40
0.5395299642
 40
0.6707821144
 40
0.7932899289
 40
0.9038801886
 40
1.0
 40
1.0
 40
1.0
 40
1.0
 10
13.8408108096
 20
12.4808394035
 30
0.0
 10
13.8423994043
 20
12.4797458686
 30
0.0
 10
13.8455758797
 20
12.4774001072
 30
0.0
 10
13.8501896537
 20
12.4735641328
 30
0.0
 10
13.8546660976
 20
12.4694171392
 30
0.0
 10
13.858870419
 20
12.4650835337
 30
0.0
 10
13.862676413
 20
12.4606944197
 30
0.0
 10
13.8659704259
 20
12.4563832061
 30
0.0
 10
13.868653771
 20
12.4522797983
 30
0.0
 10
13.8700986581
 20
12.449555977
 30
0.0
 10
13.8706797835
 20
12.4482491705
 30
0.0
  0
SPLINE
  5
579
100
AcDbEntity
  8
0
100
AcDbSpline
 62
7
  6
CONTINUOUS
 70
0
 71
3
 72
17
 73
13
 74
0
 42
0.0000001
 43
0.0000001
 44
0.0000000001
 40
0.0
 40
0.0
 40
0.0
 40
0.0
 40
0.1396255469
 40
0.2851627689
 40
0.4314396029
 40
0.5731624506
 40
0.7051461922
 40
0.8227277676
 40
0.8748617849
 40
0.9219894112
 40
0.9637635416
 40
1.0
 40
1.0
 40
1.0
 40
1.0
 10
13.7571016417
 20
12.3840243853
 30
0.0
 10
13.7589277161
 20
12.3828147663
 30
0.0
 10
13.7625932183
 20
12.3802468611
 30
0.0
 10
13.7679599394
 20
12.3761197416
 30
0.0
 10
13.7731721608
 20
12.371747606
 30
0.0
 10
13.7780341149
 20
12.3672978738
 30
0.0
 10
13.7823596976
 20
12.3629392291
 30
0.0
 10
13.7855008029
 20
12.3593935508
 30
0.0
 10
13.7876030063
 20
12.3567179916
 30
0.0
 10
13.7888890228
 20
12.3549163553
 30
0.0
 10
13.7899362609
 20
12.3532545751
 30
0.0
 10
13.7905117127
 20
12.3521723642
 30
0.0
 10
13.7907510336
 20
12.3516567381
 30
0.0
  0
SPLINE
  5
57A
100
AcDbEntity
  8
0
100
AcDbSpline
 62
7
  6
CONTINUOUS
 70
0
 71
3
 72
15
 73
11
 74
0
 42
0.0000001
 43
0.0000001
 44
0.0000000001
 40
0.0
 40
0.0
 40
0.0
 40
0.0
 40
0.1492972714
 40
0.2909958432
 40
0.4247625314
 40
0.5508252241
 40
0.6699762766
 40
0.7834063728
 40
0.8927550467
 40
1.0
 40
1.0
 40
1.0
 40
1.0
 10
14.9028537119
 20
12.2003895047
 30
0.0
 10
14.9028047214
 20
12.1983810361
 30
0.0
 10
14.9028736394
 20
12.1944596286
 30
0.0
 10
14.9035112503
 20
12.1887702262
 30
0.0
 10
14.9046798461
 20
12.1834830158
 30
0.0
 10
14.9063716379
 20
12.178657599
 30
0.0
 10
14.9085680732
 20
12.1743421064
 30
0.0
 10
14.9112555614
 20
12.1705837069
 30
0.0
 10
14.9144052687
 20
12.1674242637
 30
0.0
 10
14.9168052538
 20
12.1657388913
 30
0.0
 10
14.9180554006
 20
12.1650178582
 30
0.0
  0
SPLINE
  5
57B
100
AcDbEntity
  8
0
100
AcDbSpline
 62
7
  6
CONTINUOUS
 70
0
 71
3
 72
15
 73
11
 74
0
 42
0.0000001
 43
0.0000001
 44
0.0000000001
 40
0.0
 40
0.0
 40
0.0
 40
0.0
 40
0.1006858228
 40
0.2053720096
 40
0.3162961936
 40
0.4351640738
 40
0.5630057564
 40
0.7000710197
 40
0.8459813747
 40
1.0
 40
1.0
 40
1.0
 40
1.0
 10
14.5890830433
 20
12.2728006946
 30
0.0
 10
14.5874779356
 20
12.2736144612
 30
0.0
 10
14.5840074003
 20
12.2749099447
 30
0.0
 10
14.5783807739
 20
12.2757507464
 30
0.0
 10
14.5723755672
 20
12.2754966976
 30
0.0
 10
14.5660966868
 20
12.2741717805
 30
0.0
 10
14.5596372332
 20
12.2718045282
 30
0.0
 10
14.5530916237
 20
12.2684415644
 30
0.0
 10
14.5465588028
 20
12.2641367071
 30
0.0
 10
14.5423810955
 20
12.2607634224
 30
0.0
 10
14.5403147586
 20
12.2589445105
 30
0.0
  0
SPLINE
  5
57C
100
AcDbEntity
  8
0
100
AcDbSpline
 62
7
  6
CONTINUOUS
 70
0
 71
3
 72
15
 73
11
 74
0
 42
0.0000001
 43
0.0000001
 44
0.0000000001
 40
0.0
 40
0.0
 40
0.0
 40
0.0
 40
0.0966161421
 40
0.2014668732
 40
0.3152306983
 40
0.4379808422
 40
0.5691768093
 40
0.7076087212
 40
0.8517764288
 40
1.0
 40
1.0
 40
1.0
 40
1.0
 10
14.4985199309
 20
12.2964909886
 30
0.0
 10
14.4962623352
 20
12.2966206913
 30
0.0
 10
14.4915162786
 20
12.2963596957
 30
0.0
 10
14.4843159364
 20
12.2946074319
 30
0.0
 10
14.4769175104
 20
12.2915163615
 30
0.0
 10
14.4694665124
 20
12.2871665391
 30
0.0
 10
14.4621070415
 20
12.2816432551
 30
0.0
 10
14.4549791343
 20
12.2750639341
 30
0.0
 10
14.4482304618
 20
12.2675543061
 30
0.0
 10
14.4441092015
 20
12.2620787069
 30
0.0
 10
14.4421405251
 20
12.2592221949
 30
0.0
  0
SPLINE
  5
57D
100
AcDbEntity
  8
0
100
AcDbSpline
 62
7
  6
CONTINUOUS
 70
0
 71
3
 72
14
 73
10
 74
0
 42
0.0000001
 43
0.0000001
 44
0.0000000001
 40
0.0
 40
0.0
 40
0.0
 40
0.0
 40
0.1019012199
 40
0.2130285795
 40
0.3325301649
 40
0.4592259209
 40
0.5914468537
 40
0.7271216053
 40
1.0
 40
1.0
 40
1.0
 40
1.0
 10
14.3944387397
 20
12.2839833453
 30
0.0
 10
14.3916730824
 20
12.2832065453
 30
0.0
 10
14.3860387203
 20
12.2810362517
 30
0.0
 10
14.3778614536
 20
12.2763986645
 30
0.0
 10
14.3697837598
 20
12.270339003
 30
0.0
 10
14.3620012173
 20
12.2630147807
 30
0.0
 10
14.3546946416
 20
12.2546019065
 30
0.0
 10
14.3458173964
 20
12.2421910203
 30
0.0
 10
14.3404060865
 20
12.2319272294
 30
0.0
 10
14.3374685559
 20
12.224817519
 30
0.0
  0
SPLINE
  5
57E
100
AcDbEntity
  8
0
100
AcDbSpline
 62
7
  6
CONTINUOUS
 70
0
 71
3
 72
15
 73
11
 74
0
 42
0.0000001
 43
0.0000001
 44
0.0000000001
 40
0.0
 40
0.0
 40
0.0
 40
0.0
 40
0.1118658935
 40
0.2317729511
 40
0.3577355877
 40
0.4877262704
 40
0.6193757999
 40
0.7501860368
 40
0.8778579233
 40
1.0
 40
1.0
 40
1.0
 40
1.0
 10
14.2833792739
 20
12.236063666
 30
0.0
 10
14.2803514443
 20
12.2343155478
 30
0.0
 10
14.2743472709
 20
12.2302166738
 30
0.0
 10
14.2659386994
 20
12.2228130424
 30
0.0
 10
14.2580159207
 20
12.2141094731
 30
0.0
 10
14.2508003081
 20
12.2043545667
 30
0.0
 10
14.244483052
 20
12.1938188648
 30
0.0
 10
14.2392435253
 20
12.1827868772
 30
0.0
 10
14.2352287237
 20
12.1715682404
 30
0.0
 10
14.2333891536
 20
12.1639601445
 30
0.0
 10
14.2327193419
 20
12.1602019609
 30
0.0
  0
SPLINE
  5
57F
100
AcDbEntity
  8
0
100
AcDbSpline
 62
7
  6
CONTINUOUS
 70
0
 71
3
 72
18
 73
14
 74
0
 42
0.0000001
 43
0.0000001
 44
0.0000000001
 40
0.0
 40
0.0
 40
0.0
 40
0.0
 40
0.150681172
 40
0.3077083463
 40
0.4639253266
 40
0.6120370057
 40
0.7451565991
 40
0.8041431853
 40
0.8571939345
 40
0.9037040361
 40
0.9431938977
 40
0.9753518348
 40
1.0
 40
1.0
 40
1.0
 40
1.0
 10
13.67802449
 20
12.2799112399
 30
0.0
 10
13.6800991673
 20
12.2786141619
 30
0.0
 10
13.6842912623
 20
12.2758935669
 30
0.0
 10
13.6904919568
 20
12.2716140291
 30
0.0
 10
13.696539611
 20
12.2671908652
 30
0.0
 10
13.7021502306
 20
12.2628328944
 30
0.0
 10
13.706399325
 20
12.2592997695
 30
0.0
 10
13.7093708559
 20
12.2566501901
 30
0.0
 10
13.7112457244
 20
12.2548852172
 30
0.0
 10
13.7128364768
 20
12.253282183
 30
0.0
 10
13.7141257101
 20
12.2518595928
 30
0.0
 10
13.7150999958
 20
12.2506357745
 30
0.0
 10
13.7156035371
 20
12.2498581681
 30
0.0
 10
13.7157846537
 20
12.2495012537
 30
0.0
  0
SPLINE
  5
580
100
AcDbEntity
  8
0
100
AcDbSpline
 62
7
  6
CONTINUOUS
 70
0
 71
3
 72
11
 73
7
 74
0
 42
0.0000001
 43
0.0000001
 44
0.0000000001
 40
0.0
 40
0.0
 40
0.0
 40
0.0
 40
0.2714095662
 40
0.5252899339
 40
0.7662216893
 40
1.0
 40
1.0
 40
1.0
 40
1.0
 10
14.503641651
 20
12.162806547
 30
0.0
 10
14.5042295491
 20
12.1608346256
 30
0.0
 10
14.5056424151
 20
12.1570904964
 30
0.0
 10
14.5086032083
 20
12.1520556624
 30
0.0
 10
14.512293266
 20
12.1478960573
 30
0.0
 10
14.5152209868
 20
12.1457467861
 30
0.0
 10
14.5167556477
 20
12.144860115
 30
0.0
  0
SPLINE
  5
581
100
AcDbEntity
  8
0
100
AcDbSpline
 62
7
  6
CONTINUOUS
 70
0
 71
3
 72
12
 73
8
 74
0
 42
0.0000001
 43
0.0000001
 44
0.0000000001
 40
0.0
 40
0.0
 40
0.0
 40
0.0
 40
0.2870984276
 40
0.5489718267
 40
0.6703915966
 40
0.7857412185
 40
1.0
 40
1.0
 40
1.0
 40
1.0
 10
14.565205433
 20
12.1365175511
 30
0.0
 10
14.5647436423
 20
12.1328347032
 30
0.0
 10
14.5643136164
 20
12.1257234096
 30
0.0
 10
14.5651594406
 20
12.1170493722
 30
0.0
 10
14.566731903
 20
12.1107845341
 30
0.0
 10
14.5687541109
 20
12.1053094071
 30
0.0
 10
14.5709372213
 20
12.1015758567
 30
0.0
 10
14.5726742534
 20
12.0994181734
 30
0.0
  0
SPLINE
  5
582
100
AcDbEntity
  8
0
100
AcDbSpline
 62
7
  6
CONTINUOUS
 70
0
 71
3
 72
14
 73
10
 74
0
 42
0.0000001
 43
0.0000001
 44
0.0000000001
 40
0.0
 40
0.0
 40
0.0
 40
0.0
 40
0.2814707844
 40
0.4161621285
 40
0.54558776
 40
0.6690329031
 40
0.7860646973
 40
0.8964262489
 40
1.0
 40
1.0
 40
1.0
 40
1.0
 10
14.6145645822
 20
12.0841562411
 30
0.0
 10
14.6126126205
 20
12.0794129462
 30
0.0
 10
14.6101636085
 20
12.0722024408
 30
0.0
 10
14.6080016922
 20
12.0624911316
 30
0.0
 10
14.6069976866
 20
12.0554922699
 30
0.0
 10
14.6066033492
 20
12.0487545806
 30
0.0
 10
14.6068218876
 20
12.0423544385
 30
0.0
 10
14.6076552063
 20
12.0363697429
 30
0.0
 10
14.6086419381
 20
12.032585508
 30
0.0
 10
14.6092430374
 20
12.0307963646
 30
0.0
  0
SPLINE
  5
583
100
AcDbEntity
  8
0
100
AcDbSpline
 62
7
  6
CONTINUOUS
 70
0
 71
3
 72
11
 73
7
 74
0
 42
0.0000001
 43
0.0000001
 44
0.0000000001
 40
0.0
 40
0.0
 40
0.0
 40
0.0
 40
0.269365497
 40
0.5230526212
 40
0.7647214914
 40
1.0
 40
1.0
 40
1.0
 40
1.0
 10
14.6092430374
 20
12.0307963646
 30
0.0
 10
14.6098522938
 20
12.0289829415
 30
0.0
 10
14.6112854067
 20
12.0255374596
 30
0.0
 10
14.6141754363
 20
12.0209070759
 30
0.0
 10
14.6177087215
 20
12.0170644978
 30
0.0
 10
14.6204745545
 20
12.0150614223
 30
0.0
 10
14.6219218493
 20
12.0142263153
 30
0.0
  0
SPLINE
  5
584
100
AcDbEntity
  8
0
100
AcDbSpline
 62
7
  6
CONTINUOUS
 70
0
 71
3
 72
9
 73
5
 74
0
 42
0.0000001
 43
0.0000001
 44
0.0000000001
 40
0.0
 40
0.0
 40
0.0
 40
0.0
 40
0.4945204946
 40
1.0
 40
1.0
 40
1.0
 40
1.0
 10
14.2126269786
 20
11.2822348346
 30
0.0
 10
14.2093134944
 20
11.2786029147
 30
0.0
 10
14.2030890896
 20
11.2708140049
 30
0.0
 10
14.1978392041
 20
11.2623412507
 30
0.0
 10
14.1954488647
 20
11.2579209086
 30
0.0
  0
SPLINE
  5
585
100
AcDbEntity
  8
0
100
AcDbSpline
 62
7
  6
CONTINUOUS
 70
0
 71
3
 72
14
 73
10
 74
0
 42
0.0000001
 43
0.0000001
 44
0.0000000001
 40
0.0
 40
0.0
 40
0.0
 40
0.0
 40
0.103189246
 40
0.212881862
 40
0.3291731669
 40
0.4519970194
 40
0.5811100572
 40
0.7159993819
 40
1.0
 40
1.0
 40
1.0
 40
1.0
 10
14.157247493
 20
11.2797215833
 30
0.0
 10
14.1555248918
 20
11.2795145749
 30
0.0
 10
14.1519985019
 20
11.2788352616
 30
0.0
 10
14.1467186925
 20
11.2771387334
 30
0.0
 10
14.1413512143
 20
11.2747497422
 30
0.0
 10
14.1359544623
 20
11.2716984693
 30
0.0
 10
14.1305839247
 20
11.2680161398
 30
0.0
 10
14.1234110426
 20
11.2622221331
 30
0.0
 10
14.1184305696
 20
11.2572007318
 30
0.0
 10
14.1152847039
 20
11.2536083553
 30
0.0
  0
SPLINE
  5
586
100
AcDbEntity
  8
0
100
AcDbSpline
 62
7
  6
CONTINUOUS
 70
0
 71
3
 72
12
 73
8
 74
0
 42
0.0000001
 43
0.0000001
 44
0.0000000001
 40
0.0
 40
0.0
 40
0.0
 40
0.0
 40
0.1068667631
 40
0.2177007081
 40
0.454103942
 40
0.7143813021
 40
1.0
 40
1.0
 40
1.0
 40
1.0
 10
14.0819843924
 20
11.2840455781
 30
0.0
 10
14.0807857801
 20
11.2843591217
 30
0.0
 10
14.0782955246
 20
11.2848238937
 30
0.0
 10
14.0730263224
 20
11.285106727
 30
0.0
 10
14.0659793043
 20
11.2841681721
 30
0.0
 10
14.0573665583
 20
11.2811862369
 30
0.0
 10
14.0517795824
 20
11.2781535342
 30
0.0
 10
14.0489802649
 20
11.2763848129
 30
0.0
  0
SPLINE
  5
587
100
AcDbEntity
  8
0
100
AcDbSpline
 62
7
  6
CONTINUOUS
 70
0
 71
3
 72
9
 73
5
 74
0
 42
0.0000001
 43
0.0000001
 44
0.0000000001
 40
0.0
 40
0.0
 40
0.0
 40
0.0
 40
0.4952785604
 40
1.0
 40
1.0
 40
1.0
 40
1.0
 10
13.6703201781
 20
10.7014122086
 30
0.0
 10
13.6825207814
 20
10.6978806523
 30
0.0
 10
13.70748671
 20
10.691855838
 30
0.0
 10
13.7328756573
 20
10.6880075108
 30
0.0
 10
13.7457415896
 20
10.6865916435
 30
0.0
  0
SPLINE
  5
588
100
AcDbEntity
  8
0
100
AcDbSpline
 62
7
  6
CONTINUOUS
 70
0
 71
3
 72
9
 73
5
 74
0
 42
0.0000001
 43
0.0000001
 44
0.0000000001
 40
0.0
 40
0.0
 40
0.0
 40
0.0
 40
0.4921939503
 40
1.0
 40
1.0
 40
1.0
 40
1.0
 10
13.7565263233
 20
10.6855282843
 30
0.0
 10
13.7719942939
 20
10.6841787576
 30
0.0
 10
13.8035676191
 20
10.6829491526
 30
0.0
 10
13.8351164981
 20
10.684548
 30
0.0
 10
13.8510683921
 20
10.6860152274
 30
0.0
  0
SPLINE
  5
589
100
AcDbEntity
  8
0
100
AcDbSpline
 62
7
  6
CONTINUOUS
 70
0
 71
3
 72
9
 73
5
 74
0
 42
0.0000001
 43
0.0000001
 44
0.0000000001
 40
0.0
 40
0.0
 40
0.0
 40
0.0
 40
0.4914177695
 40
1.0
 40
1.0
 40
1.0
 40
1.0
 10
13.8510683921
 20
10.6860152274
 30
0.0
 10
13.867119682
 20
10.687491597
 30
0.0
 10
13.899669401
 20
10.6918495396
 30
0.0
 10
13.9317860131
 20
10.6986737726
 30
0.0
 10
13.9479731305
 20
10.7027071656
 30
0.0
  0
SPLINE
  5
58A
100
AcDbEntity
  8
0
100
AcDbSpline
 62
7
  6
CONTINUOUS
 70
0
 71
3
 72
9
 73
5
 74
0
 42
0.0000001
 43
0.0000001
 44
0.0000000001
 40
0.0
 40
0.0
 40
0.0
 40
0.0
 40
0.243729124
 40
1.0
 40
1.0
 40
1.0
 40
1.0
 10
13.9479731305
 20
10.7027071656
 30
0.0
 10
13.9560869435
 20
10.704728909
 30
0.0
 10
13.9892309625
 20
10.7136056717
 30
0.0
 10
14.0217587105
 20
10.7247409009
 30
0.0
 10
14.0459109153
 20
10.73422142
 30
0.0
  0
SPLINE
  5
58B
100
AcDbEntity
  8
0
100
AcDbSpline
 62
7
  6
CONTINUOUS
 70
0
 71
3
 72
9
 73
5
 74
0
 42
0.0000001
 43
0.0000001
 44
0.0000000001
 40
0.0
 40
0.0
 40
0.0
 40
0.0
 40
0.2441211038
 40
1.0
 40
1.0
 40
1.0
 40
1.0
 10
14.0459109153
 20
10.73422142
 30
0.0
 10
14.0540921339
 20
10.737432812
 30
0.0
 10
14.0874066614
 20
10.7510902803
 30
0.0
 10
14.1199150121
 20
10.766693642
 30
0.0
 10
14.1439783677
 20
10.7794028988
 30
0.0
  0
SPLINE
  5
58C
100
AcDbEntity
  8
0
100
AcDbSpline
 62
7
  6
CONTINUOUS
 70
0
 71
3
 72
45
 73
41
 74
0
 42
0.0000001
 43
0.0000001
 44
0.0000000001
 40
0.0
 40
0.0
 40
0.0
 40
0.0
 40
0.0106523655
 40
0.021333578
 40
0.032072019
 40
0.0428952492
 40
0.0538298806
 40
0.0649011584
 40
0.0761324286
 40
0.0875453175
 40
0.1109851888
 40
0.1353618317
 40
0.1479371726
 40
0.160781023
 40
0.1872954766
 40
0.200981043
 40
0.2149531012
 40
0.2437517938
 40
0.2736812314
 40
0.3047036113
 40
0.3367633138
 40
0.3697880205
 40
0.4036917492
 40
0.4383766932
 40
0.4737349358
 40
0.509650787
 40
0.5460016463
 40
0.5826604215
 40
0.6194961875
 40
0.6563763932
 40
0.6931678514
 40
0.7297384004
 40
0.7659580048
 40
0.8017010892
 40
0.836847654
 40
0.8712837002
 40
0.9049026452
 40
0.9376152811
 40
0.9693433174
 40
1.0
 40
1.0
 40
1.0
 40
1.0
 10
14.7665718431
 20
12.8513165773
 30
0.0
 10
14.7590777223
 20
12.8556428568
 30
0.0
 10
14.7437881348
 20
12.8638304648
 30
0.0
 10
14.7200687243
 20
12.8746480319
 30
0.0
 10
14.6955839158
 20
12.8839978742
 30
0.0
 10
14.6703689718
 20
12.8918673975
 30
0.0
 10
14.6444576431
 20
12.8982442178
 30
0.0
 10
14.6178859914
 20
12.9031191106
 30
0.0
 10
14.5906904601
 20
12.9064887775
 30
0.0
 10
14.5533218409
 20
12.9089916788
 30
0.0
 10
14.5051169547
 20
12.908228286
 30
0.0
 10
14.4563153883
 20
12.9024888524
 30
0.0
 10
14.4165540207
 20
12.8949902489
 30
0.0
 10
14.3754771962
 20
12.8853226939
 30
0.0
 10
14.3342072893
 20
12.8727343473
 30
0.0
 10
14.2929320083
 20
12.8574534095
 30
0.0
 10
14.2505461671
 20
12.8399145974
 30
0.0
 10
14.1972502623
 20
12.8143521905
 30
0.0
 10
14.1337268997
 20
12.778472886
 30
0.0
 10
14.070332717
 20
12.7372806367
 30
0.0
 10
14.0074105062
 20
12.6909969913
 30
0.0
 10
13.9452961855
 20
12.6398718007
 30
0.0
 10
13.8843226622
 20
12.5841815306
 30
0.0
 10
13.8248198909
 20
12.5242242734
 30
0.0
 10
13.7671049888
 20
12.4603263438
 30
0.0
 10
13.711493421
 20
12.3928286465
 30
0.0
 10
13.6582798369
 20
12.3220994228
 30
0.0
 10
13.6077572204
 20
12.2485161848
 30
0.0
 10
13.560192268
 20
12.1724801522
 30
0.0
 10
13.5158475323
 20
12.0943982813
 30
0.0
 10
13.4749573703
 20
12.0146949937
 30
0.0
 10
13.4377467648
 20
11.9337985865
 30
0.0
 10
13.4044134482
 20
11.8521472301
 30
0.0
 10
13.3751387865
 20
11.7701804002
 30
0.0
 10
13.3500816815
 20
11.6883399969
 30
0.0
 10
13.3293749899
 20
11.6070695203
 30
0.0
 10
13.3131324383
 20
11.5268045589
 30
0.0
 10
13.301439115
 20
11.4479708624
 30
0.0
 10
13.2943682256
 20
11.3710048699
 30
0.0
 10
13.2927226734
 20
11.3203165342
 30
0.0
 10
13.2927226734
 20
11.2954131834
 30
0.0
  0
SPLINE
  5
58D
100
AcDbEntity
  8
0
100
AcDbSpline
 62
7
  6
CONTINUOUS
 70
0
 71
3
 72
23
 73
19
 74
0
 42
0.0000001
 43
0.0000001
 44
0.0000000001
 40
0.0
 40
0.0
 40
0.0
 40
0.0
 40
0.1636189999
 40
0.3341399405
 40
0.5020002506
 40
0.581890196
 40
0.6575404214
 40
0.727878109
 40
0.791872867
 40
0.8486423446
 40
0.8973464131
 40
0.9372978809
 40
0.9538242783
 40
0.9679646138
 40
0.9796644095
 40
0.9889015454
 40
0.9956704823
 40
1.0
 40
1.0
 40
1.0
 40
1.0
 10
13.6051552623
 20
12.1694692169
 30
0.0
 10
13.6074765083
 20
12.1681001625
 30
0.0
 10
13.6122026236
 20
12.165280025
 30
0.0
 10
13.619266703
 20
12.1609830587
 30
0.0
 10
13.6251229767
 20
12.1573545477
 30
0.0
 10
13.6296314549
 20
12.1545179228
 30
0.0
 10
13.6327703723
 20
12.1525208581
 30
0.0
 10
13.6356779015
 20
12.1506479153
 30
0.0
 10
13.6383124803
 20
12.1489256215
 30
0.0
 10
13.6406363317
 20
12.1473793314
 30
0.0
 10
13.6426161779
 20
12.1460311692
 30
0.0
 10
13.6440338473
 20
12.1450352073
 30
0.0
 10
13.6449730597
 20
12.1443490908
 30
0.0
 10
13.6455300319
 20
12.1439285597
 30
0.0
 10
13.645983098
 20
12.1435702227
 30
0.0
 10
13.6463322955
 20
12.1432756212
 30
0.0
 10
13.6465749513
 20
12.1430457096
 30
0.0
 10
13.6466972845
 20
12.1429073283
 30
0.0
 10
13.6467333729
 20
12.1428458246
 30
0.0
  0
SPLINE
  5
58E
100
AcDbEntity
  8
0
100
AcDbSpline
 62
7
  6
CONTINUOUS
 70
0
 71
3
 72
15
 73
11
 74
0
 42
0.0000001
 43
0.0000001
 44
0.0000000001
 40
0.0
 40
0.0
 40
0.0
 40
0.0
 40
0.1260299916
 40
0.2543699656
 40
0.3835692884
 40
0.5123810355
 40
0.6395971105
 40
0.7640551326
 40
0.8846020532
 40
1.0
 40
1.0
 40
1.0
 40
1.0
 10
14.9243565177
 20
12.1601500634
 30
0.0
 10
14.9224297441
 20
12.157960185
 30
0.0
 10
14.9187090614
 20
12.153389634
 30
0.0
 10
14.91361044
 20
12.1461137568
 30
0.0
 10
14.9090075041
 20
12.1384389854
 30
0.0
 10
14.904964923
 20
12.1304841286
 30
0.0
 10
14.901543251
 20
12.1223617805
 30
0.0
 10
14.8987895751
 20
12.1141900861
 30
0.0
 10
14.8967514141
 20
12.1060930407
 30
0.0
 10
14.8958625694
 20
12.1006965948
 30
0.0
 10
14.8955543911
 20
12.098043652
 30
0.0
  0
SPLINE
  5
58F
100
AcDbEntity
  8
0
100
AcDbSpline
 62
7
  6
CONTINUOUS
 70
0
 71
3
 72
14
 73
10
 74
0
 42
0.0000001
 43
0.0000001
 44
0.0000000001
 40
0.0
 40
0.0
 40
0.0
 40
0.0
 40
0.121113669
 40
0.242615832
 40
0.3648898871
 40
0.4883074624
 40
0.6132202127
 40
0.7399594541
 40
1.0
 40
1.0
 40
1.0
 40
1.0
 10
13.5696714988
 20
10.7225707836
 30
0.0
 10
13.5614961535
 20
10.7272902737
 30
0.0
 10
13.5454429199
 20
10.7373181809
 30
0.0
 10
13.5224070368
 20
10.7540338387
 30
0.0
 10
13.5004361471
 20
10.7724095147
 30
0.0
 10
13.4795684753
 20
10.7924129528
 30
0.0
 10
13.4598339463
 20
10.8140102869
 30
0.0
 10
13.4348702598
 20
10.8451387938
 30
0.0
 10
13.4182648388
 20
10.8704159966
 30
0.0
 10
13.4081172356
 20
10.8879607324
 30
0.0
  0
SPLINE
  5
590
100
AcDbEntity
  8
0
100
AcDbSpline
 62
7
  6
CONTINUOUS
 70
0
 71
3
 72
9
 73
5
 74
0
 42
0.0000001
 43
0.0000001
 44
0.0000000001
 40
0.0
 40
0.0
 40
0.0
 40
0.0
 40
0.4929174403
 40
1.0
 40
1.0
 40
1.0
 40
1.0
 10
13.4081172356
 20
10.8879607324
 30
0.0
 10
13.4012276357
 20
10.8998725314
 30
0.0
 10
13.3881790822
 20
10.924585437
 30
0.0
 10
13.3769505322
 20
10.9501722108
 30
0.0
 10
13.3716988487
 20
10.9633181983
 30
0.0
  0
SPLINE
  5
591
100
AcDbEntity
  8
0
100
AcDbSpline
 62
7
  6
CONTINUOUS
 70
0
 71
3
 72
9
 73
5
 74
0
 42
0.0000001
 43
0.0000001
 44
0.0000000001
 40
0.0
 40
0.0
 40
0.0
 40
0.0
 40
0.2444065853
 40
1.0
 40
1.0
 40
1.0
 40
1.0
 10
13.3716988487
 20
10.9633181983
 30
0.0
 10
13.3689968966
 20
10.970081711
 30
0.0
 10
13.3584190568
 20
10.997944318
 30
0.0
 10
13.3497231196
 20
11.0265123706
 30
0.0
 10
13.3441294544
 20
11.0483229633
 30
0.0
  0
SPLINE
  5
592
100
AcDbEntity
  8
0
100
AcDbSpline
 62
7
  6
CONTINUOUS
 70
0
 71
3
 72
9
 73
5
 74
0
 42
0.0000001
 43
0.0000001
 44
0.0000000001
 40
0.0
 40
0.0
 40
0.0
 40
0.0
 40
0.244363078
 40
1.0
 40
1.0
 40
1.0
 40
1.0
 10
13.3441294544
 20
11.0483229633
 30
0.0
 10
13.3422075026
 20
11.0558169602
 30
0.0
 10
13.3348110978
 20
11.0866036125
 30
0.0
 10
13.3292520786
 20
11.1178245465
 30
0.0
 10
13.3259874941
 20
11.1415242054
 30
0.0
  0
SPLINE
  5
593
100
AcDbEntity
  8
0
100
AcDbSpline
 62
7
  6
CONTINUOUS
 70
0
 71
3
 72
9
 73
5
 74
0
 42
0.0000001
 43
0.0000001
 44
0.0000000001
 40
0.0
 40
0.0
 40
0.0
 40
0.0
 40
0.2451698451
 40
1.0
 40
1.0
 40
1.0
 40
1.0
 10
13.3248420118
 20
11.1501427541
 30
0.0
 10
13.3238889484
 20
11.1575827303
 30
0.0
 10
13.320371202
 20
11.1879756108
 30
0.0
 10
13.3182990305
 20
11.2185320223
 30
0.0
 10
13.3174722411
 20
11.241610631
 30
0.0
  0
SPLINE
  5
594
100
AcDbEntity
  8
0
100
AcDbSpline
 62
7
  6
CONTINUOUS
 70
0
 71
3
 72
22
 73
18
 74
0
 42
0.0000001
 43
0.0000001
 44
0.0000000001
 40
0.0
 40
0.0
 40
0.0
 40
0.0
 40
0.1618472327
 40
0.3295673405
 40
0.4944314627
 40
0.5730126888
 40
0.6476144382
 40
0.7172576936
 40
0.7809936028
 40
0.8380087474
 40
0.887535813
 40
0.9289160394
 40
0.9616685127
 40
0.9746749128
 40
0.9853898913
 40
0.9938185446
 40
1.0
 40
1.0
 40
1.0
 40
1.0
 10
13.5404881289
 20
12.053549081
 30
0.0
 10
13.5427770196
 20
12.052280078
 30
0.0
 10
13.5474586659
 20
12.0497334445
 30
0.0
 10
13.5545331127
 20
12.0460081366
 30
0.0
 10
13.5604567611
 20
12.042988379
 30
0.0
 10
13.5650643817
 20
12.0407036052
 30
0.0
 10
13.5683053567
 20
12.0391290045
 30
0.0
 10
13.5713434819
 20
12.0376865051
 30
0.0
 10
13.5741385496
 20
12.0363954765
 30
0.0
 10
13.5766528197
 20
12.0352727855
 30
0.0
 10
13.5788525688
 20
12.03433286
 30
0.0
 10
13.5807085929
 20
12.0335884611
 30
0.0
 10
13.5820327557
 20
12.0331049845
 30
0.0
 10
13.5829038461
 20
12.0328305094
 30
0.0
 10
13.583405977
 20
12.0326945301
 30
0.0
 10
13.5838071076
 20
12.0326119293
 30
0.0
 10
13.5840432711
 20
12.0325869198
 30
0.0
 10
13.5841432158
 20
12.032588456
 30
0.0
  0
SPLINE
  5
595
100
AcDbEntity
  8
0
100
AcDbSpline
 62
7
  6
CONTINUOUS
 70
0
 71
3
 72
21
 73
17
 74
0
 42
0.0000001
 43
0.0000001
 44
0.0000000001
 40
0.0
 40
0.0
 40
0.0
 40
0.0
 40
0.053901968
 40
0.1080618715
 40
0.1627324816
 40
0.2181537013
 40
0.2745488319
 40
0.3321222827
 40
0.3910534175
 40
0.4514988941
 40
0.5135891449
 40
0.5774249953
 40
0.7105816545
 40
0.8514377453
 40
0.9247855837
 40
1.0
 40
1.0
 40
1.0
 40
1.0
 10
13.5236313998
 20
10.6983452635
 30
0.0
 10
13.5132760534
 20
10.7043232146
 30
0.0
 10
13.4930159034
 20
10.7171987112
 30
0.0
 10
13.4642645242
 20
10.7390940934
 30
0.0
 10
13.4371925698
 20
10.7635427824
 30
0.0
 10
13.4118652681
 20
10.7904757846
 30
0.0
 10
13.3883428234
 20
10.8198263109
 30
0.0
 10
13.3666854411
 20
10.8515234445
 30
0.0
 10
13.3469380156
 20
10.8854850433
 30
0.0
 10
13.3291496314
 20
10.9216298761
 30
0.0
 10
13.313362404
 20
10.9598705303
 30
0.0
 10
13.2947632557
 20
11.0142828106
 30
0.0
 10
13.2769111053
 20
11.0872450004
 30
0.0
 10
13.2665142417
 20
11.1637253646
 30
0.0
 10
13.2623031668
 20
11.2278044447
 30
0.0
 10
13.2616099751
 20
11.2607655912
 30
0.0
 10
13.2616099751
 20
11.2774502586
 30
0.0
  0
ENDSEC
  0
SECTION
  2
OBJECTS
  0
DICTIONARY
  5
C
100
AcDbDictionary
280
0
281
1
  3
ACAD_GROUP
350
D
  3
ACAD_MLINESTYLE
350
17
  3
ACAD_LAYOUT
350
1A
  3
ACAD_PLOTSETTINGS
350
19
  3
ACAD_PLOTSTYLENAME
350
E
  0
DICTIONARY
  5
D
102
{ACAD_REACTORS
330
C
102
}
100
AcDbDictionary
280
0
281
1
  0
ACDBDICTIONARYWDFLT
  5
E
102
{ACAD_REACTORS
330
C
102
}
100
AcDbDictionary
281
1
  3
Normal
350
F
100
AcDbDictionaryWithDefault
340
F
  0
DICTIONARY
  5
17
102
{ACAD_REACTORS
330
C
102
}
100
AcDbDictionary
280
0
281
1
  3
Standard
350
18
  0
DICTIONARY
  5
19
102
{ACAD_REACTORS
330
C
102
}
100
AcDbDictionary
281
1
  0
DICTIONARY
  5
1A
102
{ACAD_REACTORS
330
C
102
}
100
AcDbDictionary
281
1
  3
Model
350
596
  3
Layout1
350
597
  0
ACDBPLACEHOLDER
  5
F
102
{ACAD_REACTORS
330
E
102
}
  0
MLINESTYLE
  5
18
102
{ACAD_REACTORS
330
17
102
}
100
AcDbMlineStyle
  2
STANDARD
 70
0
  3

 62
256
 51
90.0
 52
90.0
 71
2
 49
0.5
 62
256
  6
BYLAYER
 49
-0.5
 62
256
  6
BYLAYER
  0
LAYOUT
  5
596
102
{ACAD_REACTORS
330
1A
102
}
100
AcDbPlotSettings
  1

  2
none_device
  4
ANSI_C_(22.00_x_17.00_Inches)
  6

 40
0.0
 41
0.0
 42
0.0
 43
0.0
 44
558.8
 45
431.8
 46
0.0
 47
0.0
 48
0.0
 49
0.0
140
0.0
141
0.0
142
1.0
143
1.0
 70
1024
 72
0
 73
0
 74
0
  7

 75
0
147
1.0
148
0.0
149
0.0
100
AcDbLayout
  1
Model
 70
0
 71
0
 10
0.0
 20
0.0
 11
22.0
 21
17.0
 12
0.0
 22
0.0
 32
0.0
 14
0.0
 24
0.0
 34
0.0
 15
0.0
 25
0.0
 35
0.0
146
0.0
 13
0.0
 23
0.0
 33
0.0
 16
1.0
 26
0.0
 36
0.0
 17
0.0
 27
1.0
 37
0.0
 76
0
330
20F
345
0
346
0
  0
LAYOUT
  5
597
102
{ACAD_REACTORS
330
1A
102
}
100
AcDbPlotSettings
  1

  2
none_device
  4
ANSI_C_(22.00_x_17.00_Inches)
  6

 40
0.0
 41
0.0
 42
0.0
 43
0.0
 44
558.8
 45
431.8
 46
0.0
 47
0.0
 48
0.0
 49
0.0
140
0.0
141
0.0
142
1.0
143
1.0
 70
0
 72
0
 73
0
 74
0
  7

 75
0
147
1.0
148
0.0
149
0.0
100
AcDbLayout
  1
Layout1
 70
0
 71
1
 10
0.0
 20
0.0
 11
22.0
 21
17.0
 12
0.0
 22
0.0
 32
0.0
 14
0.0
 24
0.0
 34
0.0
 15
0.0
 25
0.0
 35
0.0
146
0.0
 13
0.0
 23
0.0
 33
0.0
 16
1.0
 26
0.0
 36
0.0
 17
0.0
 27
1.0
 37
0.0
 76
0
330
210
345
0
346
0
  0
ENDSEC
  0
EOF
