999
DXF file: 0031dor-zz-xx.dxf
999
Pro/ENGINEER 2015070 by Parametric Technology Corporation
  0
SECTION
  2
HEADER
  9
$ACADVER
  1
AC1021
  9
$DWGCODEPAGE
  3
ANSI_936
  9
$EXTMAX
 10
22.0
 20
17.0
 30
0.0
  9
$EXTMIN
 10
0.0
 20
0.0
 30
0.0
  9
$LIMMIN
 10
0.0
 20
0.0
  9
$LIMMAX
 10
22.0
 20
17.0
  9
$VIEWCTR
 10
11.0
 20
8.5
  9
$VIEWSIZE
 40
17.0
  9
$CLAYER
  8
0
  9
$LTSCALE
 40
1.21
  9
$CELTYPE
  6
BYLAYER
  9
$DIMSCALE
 40
1.0
  9
$DIMASZ
 40
0.125
  9
$DIMEXO
 40
0.0625
  9
$DIMDLI
 40
0.836
  9
$DIMEXE
 40
0.125
  9
$DIMCEN
 40
0.198
  9
$DIMLFAC
 40
1.0
  9
$DIMBLK
  1
_FILLED
  9
$DIMTXT
 40
0.12
  9
$DIMTOL
 70
1
  9
$DIMLIM
 70
0
  9
$DIMTFAC
 40
1.0
  9
$DIMTP
 40
0.001
  9
$DIMTM
 40
0.001
  9
$DIMGAP
 40
0.09
  9
$DIMDSEP
 70
46
  9
$PDMODE
 70
3
  9
$PDSIZE
 40
0.125
  9
$HANDSEED
  5
375
  9
$TILEMODE
 70
1
  9
$MEASUREMENT
 70
0
  9
$INSUNITS
 70
1
  0
ENDSEC
  0
SECTION
  2
CLASSES
  0
CLASS
  1
ACDBDICTIONARYWDFLT
  2
AcDbDictionaryWithDefault
  3
AutoCAD 2000
 90
0
 91
1
280
0
281
0
  0
CLASS
  1
ACDBPLACEHOLDER
  2
AcDbPlaceHolder
  3
AutoCAD 2000
 90
0
 91
1
280
0
281
0
  0
CLASS
  1
LAYOUT
  2
AcDbLayout
  3
AutoCAD 2000
 90
0
 91
0
280
0
281
0
  0
ENDSEC
  0
SECTION
  2
TABLES
  0
TABLE
  2
VPORT
  5
8
100
AcDbSymbolTable
 70
2
  0
VPORT
  5
1F4
100
AcDbSymbolTableRecord
100
AcDbViewportTableRecord
  2
*ACTIVE
 70
0
 10
0.0
 20
0.0
 11
1.0
 21
1.0
 12
11.0
 22
8.5
 13
0.0
 23
0.0
 14
1.0
 24
1.0
 15
0.0
 25
0.0
 16
0.0
 26
0.0
 36
1.0
 17
0.0
 27
0.0
 37
0.0
 40
17.0
 41
1.2941176471
 42
50.0
 43
0.0
 44
0.0
 50
0.0
 51
0.0
 71
0
 72
100
 73
1
 74
1
 75
0
 76
0
 77
0
 78
0
  0
ENDTAB
  0
TABLE
  2
LTYPE
  5
5
100
AcDbSymbolTable
 70
6
  0
LTYPE
  5
14
100
AcDbSymbolTableRecord
100
AcDbLinetypeTableRecord
  2
BYBLOCK
 70
0
  3

 72
65
 73
0
 40
0.0
  0
LTYPE
  5
15
100
AcDbSymbolTableRecord
100
AcDbLinetypeTableRecord
  2
BYLAYER
 70
0
  3

 72
65
 73
0
 40
0.0
  0
LTYPE
  5
16
100
AcDbSymbolTableRecord
100
AcDbLinetypeTableRecord
  2
CONTINUOUS
 70
64
  3
Solid line
 72
65
 73
0
 40
0.0
  0
LTYPE
  5
1F5
100
AcDbSymbolTableRecord
100
AcDbLinetypeTableRecord
  2
CENTER
 70
64
  3
____ _ ____ _ ____ _ ____ _ ____ _ ____ _ ____
 72
65
 73
4
 40
0.6
 49
0.375
 74
0
 49
-0.075
 74
0
 49
0.075
 74
0
 49
-0.075
 74
0
  0
LTYPE
  5
1F6
100
AcDbSymbolTableRecord
100
AcDbLinetypeTableRecord
  2
HIDDEN
 70
64
  3
- - - - - - - - - - - - - - - - - - - -
 72
65
 73
2
 40
0.2
 49
0.1
 74
0
 49
-0.1
 74
0
  0
LTYPE
  5
1F7
100
AcDbSymbolTableRecord
100
AcDbLinetypeTableRecord
  2
PHANTOM
 70
64
  3
_____ _ _ _____ _ _ _____ _ _ _____
 72
65
 73
6
 40
0.8
 49
0.45
 74
0
 49
-0.05
 74
0
 49
0.1
 74
0
 49
-0.05
 74
0
 49
0.1
 74
0
 49
-0.05
 74
0
  0
LTYPE
  5
1F8
100
AcDbSymbolTableRecord
100
AcDbLinetypeTableRecord
  2
DOT
 70
64
  3
. . . . . . . . . . . . . . . . . . . .
 72
65
 73
2
 40
0.2
 49
0.1
 74
0
 49
-0.1
 74
0
  0
LTYPE
  5
1F9
100
AcDbSymbolTableRecord
100
AcDbLinetypeTableRecord
  2
DASHED
 70
64
  3
- - - - - - - - - - - - - - - - - - - -
 72
65
 73
2
 40
0.2
 49
0.1
 74
0
 49
-0.1
 74
0
  0
ENDTAB
  0
TABLE
  2
LAYER
  5
2
100
AcDbSymbolTable
 70
36
  0
LAYER
  5
10
100
AcDbSymbolTableRecord
100
AcDbLayerTableRecord
  2
0
 70
0
 62
7
  6
CONTINUOUS
370
-3
390
F
  0
LAYER
  5
1FA
100
AcDbSymbolTableRecord
100
AcDbLayerTableRecord
  2
DEFAULT_1
 70
0
 62
7
  6
CENTER
370
-3
390
F
  0
LAYER
  5
1FB
100
AcDbSymbolTableRecord
100
AcDbLayerTableRecord
  2
DEFAULT_2
 70
0
 62
8
  6
HIDDEN
370
-3
390
F
  0
LAYER
  5
1FC
100
AcDbSymbolTableRecord
100
AcDbLayerTableRecord
  2
DEFAULT_3
 70
0
 62
7
  6
PHANTOM
370
-3
390
F
  0
LAYER
  5
1FD
100
AcDbSymbolTableRecord
100
AcDbLayerTableRecord
  2
10921
 70
0
 62
7
  6
CONTINUOUS
370
-3
390
F
  0
LAYER
  5
1FE
100
AcDbSymbolTableRecord
100
AcDbLayerTableRecord
  2
10949
 70
0
 62
7
  6
CONTINUOUS
370
-3
390
F
  0
LAYER
  5
1FF
100
AcDbSymbolTableRecord
100
AcDbLayerTableRecord
  2
10951
 70
0
 62
7
  6
CONTINUOUS
370
-3
390
F
  0
LAYER
  5
200
100
AcDbSymbolTableRecord
100
AcDbLayerTableRecord
  2
10952
 70
0
 62
7
  6
CONTINUOUS
370
-3
390
F
  0
LAYER
  5
201
100
AcDbSymbolTableRecord
100
AcDbLayerTableRecord
  2
10953
 70
0
 62
7
  6
CONTINUOUS
370
-3
390
F
  0
LAYER
  5
202
100
AcDbSymbolTableRecord
100
AcDbLayerTableRecord
  2
10954
 70
0
 62
7
  6
CONTINUOUS
370
-3
390
F
  0
LAYER
  5
203
100
AcDbSymbolTableRecord
100
AcDbLayerTableRecord
  2
10955
 70
0
 62
7
  6
CONTINUOUS
370
-3
390
F
  0
LAYER
  5
204
100
AcDbSymbolTableRecord
100
AcDbLayerTableRecord
  2
INTF_10921
 70
0
 62
7
  6
CONTINUOUS
370
-3
390
F
  0
LAYER
  5
205
100
AcDbSymbolTableRecord
100
AcDbLayerTableRecord
  2
INTF_10949
 70
0
 62
7
  6
CONTINUOUS
370
-3
390
F
  0
LAYER
  5
206
100
AcDbSymbolTableRecord
100
AcDbLayerTableRecord
  2
INTF_10951
 70
0
 62
7
  6
CONTINUOUS
370
-3
390
F
  0
LAYER
  5
207
100
AcDbSymbolTableRecord
100
AcDbLayerTableRecord
  2
INTF_10952
 70
0
 62
7
  6
CONTINUOUS
370
-3
390
F
  0
LAYER
  5
208
100
AcDbSymbolTableRecord
100
AcDbLayerTableRecord
  2
INTF_10953
 70
0
 62
7
  6
CONTINUOUS
370
-3
390
F
  0
LAYER
  5
209
100
AcDbSymbolTableRecord
100
AcDbLayerTableRecord
  2
INTF_10954
 70
0
 62
7
  6
CONTINUOUS
370
-3
390
F
  0
LAYER
  5
20A
100
AcDbSymbolTableRecord
100
AcDbLayerTableRecord
  2
INTF_10955
 70
0
 62
7
  6
CONTINUOUS
370
-3
390
F
  0
ENDTAB
  0
TABLE
  2
STYLE
  5
3
100
AcDbSymbolTable
 70
1
  0
STYLE
  5
11
100
AcDbSymbolTableRecord
100
AcDbTextStyleTableRecord
  2
STANDARD
 70
0
 40
0.0
 41
1.0
 50
0.0
 71
0
 42
0.2
  3
txt
  4

  0
STYLE
  5
20B
100
AcDbSymbolTableRecord
100
AcDbTextStyleTableRecord
  2
TEXTSTYLE_1
 70
0
 40
0.0
 41
0.8
 50
0.0
 71
0
 42
0.2
  3
gdt
  4

  0
ENDTAB
  0
TABLE
  2
VIEW
  5
6
100
AcDbSymbolTable
 70
0
  0
ENDTAB
  0
TABLE
  2
UCS
  5
7
100
AcDbSymbolTable
 70
0
  0
ENDTAB
  0
TABLE
  2
APPID
  5
9
100
AcDbSymbolTable
 70
1
  0
APPID
  5
20C
100
AcDbSymbolTableRecord
100
AcDbRegAppTableRecord
  2
ACAD
 70
0
  0
ENDTAB
  0
TABLE
  2
BLOCK_RECORD
  5
1
100
AcDbSymbolTable
 70
0
  0
BLOCK_RECORD
  5
20D
100
AcDbSymbolTableRecord
100
AcDbBlockTableRecord
  2
*Model_Space
  0
BLOCK_RECORD
  5
20E
100
AcDbSymbolTableRecord
100
AcDbBlockTableRecord
  2
*Paper_Space
  0
ENDTAB
  0
TABLE
  2
DIMSTYLE
  5
A
100
AcDbSymbolTable
 70
1
100
AcDbDimStyleTable
 71
0
  0
DIMSTYLE
105
20F
100
AcDbSymbolTableRecord
100
AcDbDimStyleTableRecord
  2
STANDARD
 70
0
  3

  4

 40
1.0
 41
0.125
 42
0.0625
 43
0.38
 44
0.125
 45
0.0
 46
0.0
 47
0.001
 48
0.001
140
0.12
141
0.09
142
0.0
143
25.4
144
1.0
145
0.0
146
1.0
147
0.09
 71
1.0
 72
0.0
 73
1
 74
1
 75
0
 76
0
 77
0
 78
4
170
0
171
2
172
0
173
0
174
0
175
0
176
0
177
0
178
0
270
2
271
3
272
3
273
2
274
2
275
0
280
0
281
0
282
0
283
1
284
4
285
0
286
0
287
3
288
0
340
11
278
46
  0
ENDTAB
  0
ENDSEC
  0
SECTION
  2
BLOCKS
  0
BLOCK
  5
20
100
AcDbEntity
  8
0
100
AcDbBlockBegin
  2
*Model_Space
 70
0
 10
0.0
 20
0.0
 30
0.0
  3
*Model_Space
  1

  0
ENDBLK
  5
21
100
AcDbEntity
  8
0
100
AcDbBlockEnd
  0
BLOCK
  5
1C
100
AcDbEntity
  8
0
100
AcDbBlockBegin
  2
*Paper_Space
 70
0
 10
0.0
 20
0.0
 30
0.0
  3
*Paper_Space
  1

  0
ENDBLK
  5
1D
100
AcDbEntity
  8
0
100
AcDbBlockEnd
  0
ENDSEC
  0
SECTION
  2
ENTITIES
  0
LINE
  5
210
100
AcDbEntity
  8
0
100
AcDbLine
 62
7
  6
CONTINUOUS
 10
0.0
 20
0.0
 11
0.0
 21
17.0
  0
LINE
  5
211
100
AcDbEntity
  8
0
100
AcDbLine
 62
7
  6
CONTINUOUS
 10
0.0
 20
0.0
 11
22.0
 21
0.0
  0
LINE
  5
212
100
AcDbEntity
  8
0
100
AcDbLine
 62
7
  6
CONTINUOUS
 10
0.0
 20
17.0
 11
22.0
 21
17.0
  0
LINE
  5
213
100
AcDbEntity
  8
0
100
AcDbLine
 62
7
  6
CONTINUOUS
 10
22.0
 20
0.0
 11
22.0
 21
17.0
  0
LWPOLYLINE
  5
214
100
AcDbEntity
  8
0
100
AcDbPolyline
 62
7
  6
CONTINUOUS
 90
15
 70
0
 10
4.4660511487
 20
5.0739589912
 10
4.4658377906
 20
5.0739556767
 10
4.4673177132
 20
5.0739502878
 10
4.471491194
 20
5.0738722756
 10
4.4780209938
 20
5.0736633609
 10
4.486650397
 20
5.0732938477
 10
4.4972575256
 20
5.0727445443
 10
4.5097828255
 20
5.072001065
 10
4.5241935146
 20
5.071051442
 10
4.5404832749
 20
5.0698843629
 10
4.5586433626
 20
5.0684901157
 10
4.5786759519
 20
5.0668589093
 10
4.6005725846
 20
5.0649826552
 10
4.6243211823
 20
5.0628538789
 10
4.6470010759
 20
5.0607419531
  0
LWPOLYLINE
  5
215
100
AcDbEntity
  8
0
100
AcDbPolyline
 62
7
  6
CONTINUOUS
 90
4
 70
0
 10
4.6469764642
 20
5.0607442869
 10
4.7149918215
 20
5.055737675
 10
4.7821618153
 20
5.0531585097
 10
4.8348459486
 20
5.052550497
  0
LINE
  5
216
100
AcDbEntity
  8
0
100
AcDbLine
 62
9
  6
CONTINUOUS
 10
4.1633047649
 20
5.353478145
 11
4.8034010417
 21
5.353478145
  0
LWPOLYLINE
  5
217
100
AcDbEntity
  8
0
100
AcDbPolyline
 62
7
  6
CONTINUOUS
 90
14
 70
0
 10
4.6469977904
 20
5.6462140246
 10
4.6242270259
 20
5.644093797
 10
4.6003968758
 20
5.6419582304
 10
4.5784320954
 20
5.6400770046
 10
4.5583454626
 20
5.6384426101
 10
4.5401458146
 20
5.6370468869
 10
4.5238314689
 20
5.6358799527
 10
4.5094116113
 20
5.6349319839
 10
4.4968930682
 20
5.6341915007
 10
4.4863100359
 20
5.6336463583
 10
4.4777236906
 20
5.6332818375
 10
4.4712606934
 20
5.6330782447
 10
4.4671853521
 20
5.6330047467
 10
4.4662841279
 20
5.6329996374
  0
LWPOLYLINE
  5
218
100
AcDbEntity
  8
0
100
AcDbPolyline
 62
7
  6
CONTINUOUS
 90
4
 70
0
 10
4.8348750546
 20
5.6544061289
 10
4.7821618103
 20
5.6537977802
 10
4.7149918113
 20
5.6512186144
 10
4.6469764924
 20
5.6462120057
  0
LINE
  5
219
100
AcDbEntity
  8
0
100
AcDbLine
 62
7
  6
CONTINUOUS
 10
4.1633318982
 20
11.8766783852
 11
4.1633318982
 21
11.6216783852
  0
LINE
  5
21A
100
AcDbEntity
  8
0
100
AcDbLine
 62
7
  6
CONTINUOUS
 10
4.0478047526
 20
12.4916783852
 11
4.1493047526
 21
11.9706783852
  0
LINE
  5
21B
100
AcDbEntity
  8
0
100
AcDbLine
 62
7
  6
CONTINUOUS
 10
4.7262776069
 20
11.8766783852
 11
4.7262776069
 21
11.6216783852
  0
LINE
  5
21C
100
AcDbEntity
  8
0
100
AcDbLine
 62
7
  6
CONTINUOUS
 10
4.8418047526
 20
12.4916783852
 11
4.7403047526
 21
11.9706783852
  0
LINE
  5
21D
100
AcDbEntity
  8
0
100
AcDbLine
 62
9
  6
CONTINUOUS
 10
4.7888490463
 20
10.8762183177
 11
4.8933751686
 21
11.4690154148
  0
LINE
  5
21E
100
AcDbEntity
  8
0
100
AcDbLine
 62
7
  6
CONTINUOUS
 10
4.9184059627
 20
11.4930632294
 11
4.8041454618
 21
10.845059728
  0
LINE
  5
21F
100
AcDbEntity
  8
0
100
AcDbLine
 62
7
  6
CONTINUOUS
 10
5.0155248911
 20
11.4794925352
 11
4.9000488529
 21
10.8245953794
  0
LINE
  5
220
100
AcDbEntity
  8
0
100
AcDbLine
 62
7
  6
CONTINUOUS
 10
4.7888490463
 20
10.8762183177
 11
4.8090126511
 21
10.8726629301
  0
LINE
  5
221
100
AcDbEntity
  8
0
100
AcDbLine
 62
9
  6
CONTINUOUS
 10
4.4887215753
 20
10.9997637843
 11
4.822978014
 21
11.4814577448
  0
LINE
  5
222
100
AcDbEntity
  8
0
100
AcDbLine
 62
7
  6
CONTINUOUS
 10
4.9135387734
 20
11.4654600273
 11
4.8933751686
 21
11.4690154148
  0
LINE
  5
223
100
AcDbEntity
  8
0
100
AcDbLine
 62
9
  6
CONTINUOUS
 10
5.8941182381
 20
11.4031044567
 11
5.7517827994
 21
10.5958800706
  0
LINE
  5
224
100
AcDbEntity
  8
0
100
AcDbLine
 62
9
  6
CONTINUOUS
 10
4.1633318982
 20
11.6216783852
 11
4.7262776069
 21
11.6216783852
  0
LINE
  5
225
100
AcDbEntity
  8
0
100
AcDbLine
 62
9
  6
CONTINUOUS
 10
4.1695136339
 20
11.5249234866
 11
4.7263047967
 21
11.5966785365
  0
LINE
  5
226
100
AcDbEntity
  8
0
100
AcDbLine
 62
7
  6
CONTINUOUS
 10
4.1493047526
 20
11.8766783852
 11
4.7403047526
 21
11.8766783852
  0
LINE
  5
227
100
AcDbEntity
  8
0
100
AcDbLine
 62
7
  6
CONTINUOUS
 10
4.1493047526
 20
11.9706783852
 11
4.7403047526
 21
11.9706783852
  0
LINE
  5
228
100
AcDbEntity
  8
0
100
AcDbLine
 62
7
  6
CONTINUOUS
 10
4.0478047526
 20
12.4916783852
 11
4.8418047526
 21
12.4916783852
  0
LINE
  5
229
100
AcDbEntity
  8
0
100
AcDbLine
 62
7
  6
CONTINUOUS
 10
5.2658047526
 20
12.5856783852
 11
3.6238047526
 21
12.5856783852
  0
LINE
  5
22A
100
AcDbEntity
  8
0
100
AcDbLine
 62
7
  6
CONTINUOUS
 10
6.7420773881
 20
10.2662479287
 11
6.937431588
 21
11.3741566508
  0
LINE
  5
22B
100
AcDbEntity
  8
0
100
AcDbLine
 62
7
  6
CONTINUOUS
 10
7.0335086273
 20
11.35467711
 11
6.8390226683
 21
10.2516924267
  0
LINE
  5
22C
100
AcDbEntity
  8
0
100
AcDbLine
 62
9
  6
CONTINUOUS
 10
3.3783047526
 20
12.7691128975
 11
5.5113047526
 21
12.7691128975
  0
LINE
  5
22D
100
AcDbEntity
  8
0
100
AcDbLine
 62
7
  6
CONTINUOUS
 10
3.2340441937
 20
12.9316783852
 11
5.6555653114
 21
12.9316783852
  0
LINE
  5
22E
100
AcDbEntity
  8
0
100
AcDbLine
 62
9
  6
CONTINUOUS
 10
5.7001678977
 20
13.0127924485
 11
3.1894416074
 21
13.0127924485
  0
LINE
  5
22F
100
AcDbEntity
  8
0
100
AcDbLine
 62
7
  6
CONTINUOUS
 10
5.7203047526
 20
13.0266783852
 11
3.1693047526
 21
13.0266783852
  0
LINE
  5
230
100
AcDbEntity
  8
0
100
AcDbLine
 62
9
  6
CONTINUOUS
 10
5.7762254458
 20
13.1044899791
 11
3.1133840593
 21
13.1044899791
  0
LINE
  5
231
100
AcDbEntity
  8
0
100
AcDbLine
 62
7
  6
CONTINUOUS
 10
5.8033047526
 20
13.1176783852
 11
3.0863047526
 21
13.1176783852
  0
LINE
  5
232
100
AcDbEntity
  8
0
100
AcDbLine
 62
7
  6
CONTINUOUS
 10
5.8508021209
 20
13.2116783852
 11
3.0388073842
 21
13.2116783852
  0
LINE
  5
233
100
AcDbEntity
  8
0
100
AcDbLine
 62
7
  6
CONTINUOUS
 10
8.1803914769
 20
10.8275142042
 11
8.0970403516
 21
10.3548064827
  0
LINE
  5
234
100
AcDbEntity
  8
0
100
AcDbLine
 62
7
  6
CONTINUOUS
 10
8.1738553563
 20
10.3412619248
 11
8.2572064816
 21
10.8139696463
  0
LINE
  5
235
100
AcDbEntity
  8
0
100
AcDbLine
 62
7
  6
CONTINUOUS
 10
8.7175956913
 20
10.7932084904
 11
8.6135804329
 21
10.2033086464
  0
LINE
  5
236
100
AcDbEntity
  8
0
100
AcDbLine
 62
7
  6
CONTINUOUS
 10
8.6854713989
 20
10.1906323294
 11
8.7894866573
 21
10.7805321734
  0
LINE
  5
237
100
AcDbEntity
  8
0
100
AcDbLine
 62
7
  6
CONTINUOUS
 10
8.7800507906
 20
10.3181460097
 11
8.8347499665
 21
10.6283604519
  0
LINE
  5
238
100
AcDbEntity
  8
0
100
AcDbLine
 62
7
  6
CONTINUOUS
 10
8.8537530412
 20
10.4021235558
 11
8.8752854152
 21
10.5242397172
  0
LWPOLYLINE
  5
239
100
AcDbEntity
  8
0
100
AcDbPolyline
 62
7
  6
CONTINUOUS
 90
5
 70
0
 10
16.7796976972
 20
5.0731478567
 10
16.8003476623
 20
5.0736270648
 10
16.8410009346
 20
5.0739555343
 10
16.8855828418
 20
5.0736729519
 10
16.9301518723
 20
5.0727818503
  0
LINE
  5
23A
100
AcDbEntity
  8
0
100
AcDbLine
 62
7
  6
CONTINUOUS
 10
17.2461480014
 20
5.0720052906
 11
16.9911480014
 21
5.0720052906
  0
LWPOLYLINE
  5
23B
100
AcDbEntity
  8
0
100
AcDbPolyline
 62
7
  6
CONTINUOUS
 90
4
 70
0
 10
16.9301516573
 20
5.072781856
 10
16.9496256787
 20
5.0723491812
 10
16.9722285685
 20
5.0720549775
 10
16.9911480013
 20
5.071978145
  0
LINE
  5
23C
100
AcDbEntity
  8
0
100
AcDbLine
 62
7
  6
CONTINUOUS
 10
17.8611480014
 20
4.956478145
 11
17.3401480014
 21
5.057978145
  0
LINE
  5
23D
100
AcDbEntity
  8
0
100
AcDbLine
 62
9
  6
CONTINUOUS
 10
16.9911480014
 20
5.6349509993
 11
16.9911480014
 21
5.0720052906
  0
LINE
  5
23E
100
AcDbEntity
  8
0
100
AcDbLine
 62
9
  6
CONTINUOUS
 10
16.9030240849
 20
5.353478145
 11
17.2461480014
 21
5.3534781453
  0
LINE
  5
23F
100
AcDbEntity
  8
0
100
AcDbLine
 62
7
  6
CONTINUOUS
 10
17.2461480014
 20
5.6489777308
 11
17.2461480014
 21
5.0579785592
  0
LINE
  5
240
100
AcDbEntity
  8
0
100
AcDbLine
 62
7
  6
CONTINUOUS
 10
17.3401480014
 20
5.648978145
 11
17.3401480014
 21
5.057978145
  0
LINE
  5
241
100
AcDbEntity
  8
0
100
AcDbLine
 62
7
  6
CONTINUOUS
 10
17.8611480014
 20
5.750478145
 11
17.3401480014
 21
5.648978145
  0
LWPOLYLINE
  5
242
100
AcDbEntity
  8
0
100
AcDbPolyline
 62
7
  6
CONTINUOUS
 90
5
 70
0
 10
16.9301518739
 20
5.6341744397
 10
16.8855828433
 20
5.6332833381
 10
16.8410009361
 20
5.6330007556
 10
16.8003476637
 20
5.6333292252
 10
16.7796856016
 20
5.633808714
  0
LWPOLYLINE
  5
243
100
AcDbEntity
  8
0
100
AcDbPolyline
 62
7
  6
CONTINUOUS
 90
4
 70
0
 10
16.9911480013
 20
5.634978145
 10
16.972228569
 20
5.6349013125
 10
16.9496256797
 20
5.6346071088
 10
16.9301516588
 20
5.634174434
  0
LINE
  5
244
100
AcDbEntity
  8
0
100
AcDbLine
 62
7
  6
CONTINUOUS
 10
17.2461480014
 20
5.6349509994
 11
16.9911480014
 21
5.6349509994
  0
LINE
  5
245
100
AcDbEntity
  8
0
100
AcDbLine
 62
7
  6
CONTINUOUS
 10
17.8611480014
 20
5.750478145
 11
17.8611480014
 21
4.956478145
  0
LINE
  5
246
100
AcDbEntity
  8
0
100
AcDbLine
 62
7
  6
CONTINUOUS
 10
17.9551480014
 20
6.1744772467
 11
17.9551480014
 21
4.5324790432
  0
LINE
  5
247
100
AcDbEntity
  8
0
100
AcDbLine
 62
9
  6
CONTINUOUS
 10
18.1385825137
 20
6.419978145
 11
18.1385825137
 21
4.286978145
  0
LINE
  5
248
100
AcDbEntity
  8
0
100
AcDbLine
 62
7
  6
CONTINUOUS
 10
18.3011480014
 20
6.5642387039
 11
18.3011480014
 21
4.1427175861
  0
LINE
  5
249
100
AcDbEntity
  8
0
100
AcDbLine
 62
9
  6
CONTINUOUS
 10
18.3822620647
 20
4.0981149998
 11
18.3822620647
 21
6.6088412901
  0
LINE
  5
24A
100
AcDbEntity
  8
0
100
AcDbLine
 62
7
  6
CONTINUOUS
 10
18.3961480014
 20
6.6289671633
 11
18.3961480014
 21
4.0779891267
  0
LINE
  5
24B
100
AcDbEntity
  8
0
100
AcDbLine
 62
9
  6
CONTINUOUS
 10
18.4739595953
 20
4.0220574517
 11
18.4739595953
 21
6.6848988382
  0
LINE
  5
24C
100
AcDbEntity
  8
0
100
AcDbLine
 62
7
  6
CONTINUOUS
 10
18.4871480014
 20
6.7119665833
 11
18.4871480014
 21
3.9949897066
  0
LINE
  5
24D
100
AcDbEntity
  8
0
100
AcDbLine
 62
7
  6
CONTINUOUS
 10
18.5811480014
 20
3.9474924721
 11
18.5811480014
 21
6.7594638179
  0
LWPOLYLINE
  5
24E
100
AcDbEntity
  8
0
100
AcDbPolyline
 62
7
  6
CONTINUOUS
 90
7
 70
0
 10
14.7057679284
 20
10.6162389505
 10
14.7849460821
 20
10.5904092023
 10
14.8688212521
 20
10.5702551322
 10
14.9531563137
 20
10.5562329704
 10
15.0379758347
 20
10.5477556074
 10
15.1234140659
 20
10.5446239584
 10
15.205540679
 20
10.5467577925
  0
LINE
  5
24F
100
AcDbEntity
  8
0
100
AcDbLine
 62
7
  6
CONTINUOUS
 10
14.7057808528
 20
10.6162341049
 11
14.7057679284
 21
10.6162389505
  0
LWPOLYLINE
  5
250
100
AcDbEntity
  8
0
100
AcDbPolyline
 62
7
  6
CONTINUOUS
 90
4
 70
0
 10
14.6349901529
 20
10.6470268101
 10
14.6563340143
 20
10.6367973292
 10
14.6825628271
 20
10.6253723047
 10
14.7057808499
 20
10.6162340852
  0
LINE
  5
251
100
AcDbEntity
  8
0
100
AcDbLine
 62
7
  6
CONTINUOUS
 10
14.4545073441
 20
10.7372510165
 11
14.6349829079
 21
10.647013411
  0
LINE
  5
252
100
AcDbEntity
  8
0
100
AcDbLine
 62
9
  6
CONTINUOUS
 10
14.3813544673
 20
10.8894923087
 11
14.5616666965
 21
10.7993361942
  0
LINE
  5
253
100
AcDbEntity
  8
0
100
AcDbLine
 62
7
  6
CONTINUOUS
 10
14.0028182408
 20
10.8390152594
 11
14.3232323023
 21
10.7675847573
  0
LWPOLYLINE
  5
254
100
AcDbEntity
  8
0
100
AcDbPolyline
 62
7
  6
CONTINUOUS
 90
4
 70
0
 10
15.2055363807
 20
10.546757534
 10
15.2908570766
 20
10.5554413676
 10
15.3781623073
 20
10.5724799421
 10
15.4577551424
 20
10.5960699292
  0
LINE
  5
255
100
AcDbEntity
  8
0
100
AcDbLine
 62
7
  6
CONTINUOUS
 10
14.3538394622
 20
11.5410577023
 11
14.6038353624
 21
11.3270685514
  0
LWPOLYLINE
  5
256
100
AcDbEntity
  8
0
100
AcDbPolyline
 62
7
  6
CONTINUOUS
 90
3
 70
0
 10
14.9125826675
 20
11.1378506855
 10
14.9048038311
 20
11.1416097464
 10
14.8951002874
 20
11.1463597381
  0
LINE
  5
257
100
AcDbEntity
  8
0
100
AcDbLine
 62
7
  6
CONTINUOUS
 10
14.7062643186
 20
11.2407649654
 11
14.8951002874
 21
11.1463597381
  0
LWPOLYLINE
  5
258
100
AcDbEntity
  8
0
100
AcDbPolyline
 62
7
  6
CONTINUOUS
 90
10
 70
0
 10
15.1516863843
 20
11.1304536389
 10
15.1257495162
 20
11.1238940742
 10
15.0940476468
 20
11.1184268554
 10
15.060260801
 20
11.1153314753
 10
15.0263485472
 20
11.1149261155
 10
14.9942359244
 20
11.1171170486
 10
14.9656128815
 20
11.1214332081
 10
14.9417476084
 20
11.1271106661
 10
14.9236654211
 20
11.1331046983
 10
14.9125798118
 20
11.137852058
  0
LINE
  5
259
100
AcDbEntity
  8
0
100
AcDbLine
 62
7
  6
CONTINUOUS
 10
15.259011975
 20
11.1642652393
 11
15.2757838352
 21
11.1701371308
  0
LWPOLYLINE
  5
25A
100
AcDbEntity
  8
0
100
AcDbPolyline
 62
7
  6
CONTINUOUS
 90
4
 70
0
 10
15.2591760239
 20
11.1643320173
 10
15.2272339407
 20
11.1535598283
 10
15.1901167062
 20
11.141907721
 10
15.1516828565
 20
11.1304525565
  0
LINE
  5
25B
100
AcDbEntity
  8
0
100
AcDbLine
 62
9
  6
CONTINUOUS
 10
15.5310939825
 20
10.7569299685
 11
15.5478658428
 21
10.76280186
  0
LINE
  5
25C
100
AcDbEntity
  8
0
100
AcDbLine
 62
7
  6
CONTINUOUS
 10
15.4577527965
 20
10.5960786665
 11
15.4746881331
 21
10.6020075778
  0
ARC
  5
25D
100
AcDbEntity
  8
0
100
AcDbCircle
 62
7
  6
CONTINUOUS
 10
6.8394849073
 20
2.4424046574
 40
3.4735691196
100
AcDbArc
 50
90.317365407
 51
107.0820512173
  0
ARC
  5
25E
100
AcDbEntity
  8
0
100
AcDbCircle
 62
7
  6
CONTINUOUS
 10
5.2079452142
 20
2.9542830524
 40
2.0817013587
100
AcDbArc
 50
72.9256165735
 51
96.8684490151
  0
ARC
  5
25F
100
AcDbEntity
  8
0
100
AcDbCircle
 62
7
  6
CONTINUOUS
 10
6.8394848535
 20
8.2645513556
 40
3.473568839
100
AcDbArc
 50
252.9179482892
 51
269.6819055333
  0
ARC
  5
260
100
AcDbEntity
  8
0
100
AcDbCircle
 62
7
  6
CONTINUOUS
 10
5.207945203
 20
7.7526732399
 40
2.0817013614
100
AcDbArc
 50
263.1315512977
 51
287.0743837008
  0
ARC
  5
261
100
AcDbEntity
  8
0
100
AcDbCircle
 62
7
  6
CONTINUOUS
 10
4.4448047526
 20
5.353478145
 40
1.4175
100
AcDbArc
 50
16.6074151578
 51
343.3926394976
  0
ARC
  5
262
100
AcDbEntity
  8
0
100
AcDbCircle
 62
9
  6
CONTINUOUS
 10
4.4448047526
 20
5.353478145
 40
1.3585
100
AcDbArc
 50
16.6857604416
 51
343.3146243964
  0
ARC
  5
263
100
AcDbEntity
  8
0
100
AcDbCircle
 62
9
  6
CONTINUOUS
 10
4.4448047526
 20
5.353478145
 40
1.3408987778
100
AcDbArc
 50
16.7107856566
 51
343.2893751174
  0
ARC
  5
264
100
AcDbEntity
  8
0
100
AcDbCircle
 62
7
  6
CONTINUOUS
 10
4.4448047526
 20
5.353478145
 40
1.3345
100
AcDbArc
 50
16.7218590256
 51
343.2784682843
  0
ARC
  5
265
100
AcDbEntity
  8
0
100
AcDbCircle
 62
9
  6
CONTINUOUS
 10
4.4448047526
 20
5.353478145
 40
1.2755
100
AcDbArc
 50
16.8105967824
 51
343.1901049543
  0
ARC
  5
266
100
AcDbEntity
  8
0
100
AcDbCircle
 62
9
  6
CONTINUOUS
 10
4.4448047526
 20
5.353478145
 40
1.2645772383
100
AcDbArc
 50
16.8402375305
 51
343.1591585639
  0
ARC
  5
267
100
AcDbEntity
  8
0
100
AcDbCircle
 62
7
  6
CONTINUOUS
 10
4.4448047526
 20
5.353478145
 40
1.26
100
AcDbArc
 50
16.8670935401
 51
343.1323810132
  0
ARC
  5
268
100
AcDbEntity
  8
0
100
AcDbCircle
 62
7
  6
CONTINUOUS
 10
4.4448047526
 20
5.353478145
 40
1.2107605589
100
AcDbArc
 50
17.143410648
 51
342.8565608717
  0
ARC
  5
269
100
AcDbEntity
  8
0
100
AcDbCircle
 62
9
  6
CONTINUOUS
 10
4.4448047526
 20
5.353478145
 40
1.0665
100
AcDbArc
 50
18.2488306007
 51
341.750235656
  0
ARC
  5
26A
100
AcDbEntity
  8
0
100
AcDbCircle
 62
9
  6
CONTINUOUS
 10
4.4448047526
 20
5.353478145
 40
0.821
100
AcDbArc
 50
22.963053795
 51
337.0405667017
  0
ARC
  5
26B
100
AcDbEntity
  8
0
100
AcDbCircle
 62
7
  6
CONTINUOUS
 10
4.4448047526
 20
5.353478145
 40
0.444
100
AcDbArc
 50
42.6093161797
 51
317.3906838259
  0
ARC
  5
26C
100
AcDbEntity
  8
0
100
AcDbCircle
 62
7
  6
CONTINUOUS
 10
4.4448047526
 20
5.353478145
 40
0.397
100
AcDbArc
 50
48.6443159106
 51
311.3556841397
  0
ARC
  5
26D
100
AcDbEntity
  8
0
100
AcDbCircle
 62
7
  6
CONTINUOUS
 10
4.4448047526
 20
5.353478145
 40
0.3425
100
AcDbArc
 50
58.2298782338
 51
301.7701666183
  0
ARC
  5
26E
100
AcDbEntity
  8
0
100
AcDbCircle
 62
9
  6
CONTINUOUS
 10
4.4448047526
 20
5.353478145
 40
0.2955
100
AcDbArc
 50
73.7230514025
 51
286.2789643049
  0
ARC
  5
26F
100
AcDbEntity
  8
0
100
AcDbCircle
 62
7
  6
CONTINUOUS
 10
4.4448047526
 20
5.353478145
 40
0.2814728544
100
AcDbArc
 50
85.4833846373
 51
274.5133369746
  0
ARC
  5
270
100
AcDbEntity
  8
0
100
AcDbCircle
 62
7
  6
CONTINUOUS
 10
9.9017867876
 20
5.3527706916
 40
3.1597094787
100
AcDbArc
 50
179.9871715759
 51
182.4439263731
  0
ARC
  5
271
100
AcDbEntity
  8
0
100
AcDbCircle
 62
7
  6
CONTINUOUS
 10
9.6470883571
 20
5.3429281969
 40
2.9048231954
100
AcDbArc
 50
182.4641875045
 51
182.993346523
  0
ARC
  5
272
100
AcDbEntity
  8
0
100
AcDbCircle
 62
7
  6
CONTINUOUS
 10
9.4637893976
 20
5.3329249632
 40
2.7212519912
100
AcDbArc
 50
182.9845515506
 51
183.9417225698
  0
ARC
  5
273
100
AcDbEntity
  8
0
100
AcDbCircle
 62
7
  6
CONTINUOUS
 10
9.2395562678
 20
5.3172495066
 40
2.4964717394
100
AcDbArc
 50
183.9365772281
 51
184.745504103
  0
ARC
  5
274
100
AcDbEntity
  8
0
100
AcDbCircle
 62
7
  6
CONTINUOUS
 10
9.002331062
 20
5.2972129281
 40
2.2584021418
100
AcDbArc
 50
184.7368212098
 51
185.6407785357
  0
ARC
  5
275
100
AcDbEntity
  8
0
100
AcDbCircle
 62
7
  6
CONTINUOUS
 10
8.7215848663
 20
5.2688326934
 40
1.9762259834
100
AcDbArc
 50
185.6219934343
 51
186.825269505
  0
ARC
  5
276
100
AcDbEntity
  8
0
100
AcDbCircle
 62
7
  6
CONTINUOUS
 10
8.8645191589
 20
5.3534779654
 40
0.0550001146
100
AcDbArc
 50
0.0001870741
 51
89.9999277699
  0
ARC
  5
277
100
AcDbEntity
  8
0
100
AcDbCircle
 62
7
  6
CONTINUOUS
 10
9.9011296044
 20
5.3541951001
 40
3.1590522976
100
AcDbArc
 50
177.5470364111
 51
180.0130034264
  0
ARC
  5
278
100
AcDbEntity
  8
0
100
AcDbCircle
 62
7
  6
CONTINUOUS
 10
9.6660868437
 20
5.3631253645
 40
2.9238429211
100
AcDbArc
 50
177.0152472783
 51
177.52474465
  0
ARC
  5
279
100
AcDbEntity
  8
0
100
AcDbCircle
 62
7
  6
CONTINUOUS
 10
9.503230366
 20
5.371646933
 40
2.7607636505
100
AcDbArc
 50
176.0723931442
 51
177.0158706821
  0
ARC
  5
27A
100
AcDbEntity
  8
0
100
AcDbCircle
 62
7
  6
CONTINUOUS
 10
9.2779879478
 20
5.3867912434
 40
2.5350129341
100
AcDbArc
 50
175.2656983969
 51
176.0651727417
  0
ARC
  5
27B
100
AcDbEntity
  8
0
100
AcDbCircle
 62
7
  6
CONTINUOUS
 10
9.0442077581
 20
5.4059442254
 40
2.3004495815
100
AcDbArc
 50
174.3772104706
 51
175.2605315865
  0
ARC
  5
27C
100
AcDbEntity
  8
0
100
AcDbCircle
 62
7
  6
CONTINUOUS
 10
8.8645191126
 20
5.3534782606
 40
0.0550001156
100
AcDbArc
 50
270.0001204587
 51
359.9998795413
  0
ARC
  5
27D
100
AcDbEntity
  8
0
100
AcDbCircle
 62
7
  6
CONTINUOUS
 10
4.7780561892
 20
8.6700129007
 40
2.1580333333
100
AcDbArc
 50
63.1786455706
 51
86.7593675666
  0
ARC
  5
27E
100
AcDbEntity
  8
0
100
AcDbCircle
 62
7
  6
CONTINUOUS
 10
4.1493047526
 20
11.9236783852
 40
0.047
100
AcDbArc
 50
90.0000000001
 51
269.9999999999
  0
ARC
  5
27F
100
AcDbEntity
  8
0
100
AcDbCircle
 62
7
  6
CONTINUOUS
 10
3.1328047526
 20
12.6965474099
 40
0.256
100
AcDbArc
 50
16.4667537904
 51
66.70492418
  0
ARC
  5
280
100
AcDbEntity
  8
0
100
AcDbCircle
 62
7
  6
CONTINUOUS
 10
3.0863047526
 20
13.1766783852
 40
0.059
100
AcDbArc
 50
143.614132183
 51
270.0000000002
  0
ARC
  5
281
100
AcDbEntity
  8
0
100
AcDbCircle
 62
7
  6
CONTINUOUS
 10
3.1039059758
 20
13.1076783852
 40
0.01
100
AcDbArc
 50
341.407175808
 51
90.0000060085
  0
ARC
  5
282
100
AcDbEntity
  8
0
100
AcDbCircle
 62
7
  6
CONTINUOUS
 10
3.2438047526
 20
12.9898654241
 40
0.059
100
AcDbArc
 50
157.1329804798
 51
260.4775990784
  0
ARC
  5
283
100
AcDbEntity
  8
0
100
AcDbCircle
 62
7
  6
CONTINUOUS
 10
3.1802275152
 20
13.0166783852
 40
0.01
100
AcDbArc
 50
337.1329783517
 51
90.0000054651
  0
ARC
  5
284
100
AcDbEntity
  8
0
100
AcDbCircle
 62
7
  6
CONTINUOUS
 10
3.1693047526
 20
13.0856783852
 40
0.059
100
AcDbArc
 50
161.407177729
 51
270.0
  0
ARC
  5
285
100
AcDbEntity
  8
0
100
AcDbCircle
 62
7
  6
CONTINUOUS
 10
3.6238047526
 20
12.8416783852
 40
0.256
100
AcDbArc
 50
196.4667537905
 51
270.0
  0
ARC
  5
286
100
AcDbEntity
  8
0
100
AcDbCircle
 62
7
  6
CONTINUOUS
 10
4.0478047526
 20
12.5386783852
 40
0.047
100
AcDbArc
 50
90.0000000001
 51
269.9999999999
  0
ARC
  5
287
100
AcDbEntity
  8
0
100
AcDbCircle
 62
7
  6
CONTINUOUS
 10
4.9202905578
 20
11.621678106
 40
0.7569857929
100
AcDbArc
 50
179.9999789327
 51
260.0000640755
  0
ARC
  5
288
100
AcDbEntity
  8
0
100
AcDbCircle
 62
7
  6
CONTINUOUS
 10
4.8433064027
 20
11.5966799527
 40
0.1170017741
100
AcDbArc
 50
180.0006938322
 51
259.9944084847
  0
ARC
  5
289
100
AcDbEntity
  8
0
100
AcDbCircle
 62
7
  6
CONTINUOUS
 10
4.8524010417
 20
10.8365509673
 40
0.049
100
AcDbArc
 50
170.0
 51
345.9246321794
  0
ARC
  5
28A
100
AcDbEntity
  8
0
100
AcDbCircle
 62
7
  6
CONTINUOUS
 10
4.9666615426
 20
11.4845544687
 40
0.049
100
AcDbArc
 50
354.0753678209
 51
170.0
  0
ARC
  5
28B
100
AcDbEntity
  8
0
100
AcDbCircle
 62
7
  6
CONTINUOUS
 10
4.7403047526
 20
11.9236783852
 40
0.047
100
AcDbArc
 50
270.0000000001
 51
89.9999999999
  0
ARC
  5
28C
100
AcDbEntity
  8
0
100
AcDbCircle
 62
7
  6
CONTINUOUS
 10
5.6377998934
 20
13.5458617397
 40
2.1580333333
100
AcDbArc
 50
253.2406324333
 51
276.8213544294
  0
ARC
  5
28D
100
AcDbEntity
  8
0
100
AcDbCircle
 62
7
  6
CONTINUOUS
 10
5.7568047526
 20
12.6965474099
 40
0.256
100
AcDbArc
 50
113.29507582
 51
163.5332462096
  0
ARC
  5
28E
100
AcDbEntity
  8
0
100
AcDbCircle
 62
7
  6
CONTINUOUS
 10
5.2658047526
 20
12.8416783852
 40
0.256
100
AcDbArc
 50
270.0
 51
343.5332462095
  0
ARC
  5
28F
100
AcDbEntity
  8
0
100
AcDbCircle
 62
7
  6
CONTINUOUS
 10
5.6458047526
 20
12.9898654241
 40
0.059
100
AcDbArc
 50
279.5224009215
 51
22.8670195202
  0
ARC
  5
290
100
AcDbEntity
  8
0
100
AcDbCircle
 62
7
  6
CONTINUOUS
 10
5.8033047526
 20
13.1766783852
 40
0.059
100
AcDbArc
 50
270.0
 51
36.385867817
  0
ARC
  5
291
100
AcDbEntity
  8
0
100
AcDbCircle
 62
7
  6
CONTINUOUS
 10
5.7203047526
 20
13.0856783852
 40
0.059
100
AcDbArc
 50
269.9999999997
 51
18.592822271
  0
ARC
  5
292
100
AcDbEntity
  8
0
100
AcDbCircle
 62
7
  6
CONTINUOUS
 10
4.8418047526
 20
12.5386783852
 40
0.047
100
AcDbArc
 50
270.0000000001
 51
89.9999999999
  0
ARC
  5
293
100
AcDbEntity
  8
0
100
AcDbCircle
 62
7
  6
CONTINUOUS
 10
5.70938199
 20
13.0166783852
 40
0.01
100
AcDbArc
 50
90.0
 51
202.8670216496
  0
ARC
  5
294
100
AcDbEntity
  8
0
100
AcDbCircle
 62
7
  6
CONTINUOUS
 10
5.7857035293
 20
13.1076783852
 40
0.01
100
AcDbArc
 50
89.9999939916
 51
198.592824192
  0
ARC
  5
295
100
AcDbEntity
  8
0
100
AcDbCircle
 62
7
  6
CONTINUOUS
 10
6.3178840677
 20
7.8605280626
 40
3.5678319728
100
AcDbArc
 50
80.0
 51
96.8213544294
  0
ARC
  5
296
100
AcDbEntity
  8
0
100
AcDbCircle
 62
7
  6
CONTINUOUS
 10
6.6031674098
 20
8.9140907867
 40
2.4782363014
100
AcDbArc
 50
50.476632153
 51
80.0
  0
ARC
  5
297
100
AcDbEntity
  8
0
100
AcDbCircle
 62
7
  6
CONTINUOUS
 10
6.7912012089
 20
10.2626632068
 40
0.049
100
AcDbArc
 50
175.8180273618
 51
347.0909863185
  0
ARC
  5
298
100
AcDbEntity
  8
0
100
AcDbCircle
 62
7
  6
CONTINUOUS
 10
8.2620748463
 20
9.7801546966
 40
0.568
100
AcDbArc
 50
51.3093643437
 51
98.9351238694
  0
ARC
  5
299
100
AcDbEntity
  8
0
100
AcDbCircle
 62
7
  6
CONTINUOUS
 10
8.7648286161
 20
10.6406894725
 40
0.071
100
AcDbArc
 50
350.0
 51
80.0
  0
ARC
  5
29A
100
AcDbEntity
  8
0
100
AcDbCircle
 62
7
  6
CONTINUOUS
 10
8.7101294401
 20
10.3304750303
 40
0.071
100
AcDbArc
 50
260.0000000001
 51
350.0
  0
ARC
  5
29B
100
AcDbEntity
  8
0
100
AcDbCircle
 62
7
  6
CONTINUOUS
 10
8.7966341915
 20
10.4121951501
 40
0.058
100
AcDbArc
 50
259.9999999998
 51
349.9999999998
  0
ARC
  5
29C
100
AcDbEntity
  8
0
100
AcDbCircle
 62
7
  6
CONTINUOUS
 10
8.8181665656
 20
10.5343113115
 40
0.058
100
AcDbArc
 50
349.9999999998
 51
80.0
  0
ARC
  5
29D
100
AcDbEntity
  8
0
100
AcDbCircle
 62
7
  6
CONTINUOUS
 10
8.8645192282
 20
10.4631816365
 40
0.055
100
AcDbArc
 50
260.0
 51
80.0
  0
ARC
  5
29E
100
AcDbEntity
  8
0
100
AcDbCircle
 62
7
  6
CONTINUOUS
 10
8.135447854
 20
10.3480342038
 40
0.039
100
AcDbArc
 50
170.0
 51
350.0
  0
ARC
  5
29F
100
AcDbEntity
  8
0
100
AcDbCircle
 62
7
  6
CONTINUOUS
 10
8.6495259159
 20
10.1969704879
 40
0.0365
100
AcDbArc
 50
170.0000000002
 51
349.9999999998
  0
ARC
  5
2A0
100
AcDbEntity
  8
0
100
AcDbCircle
 62
7
  6
CONTINUOUS
 10
8.7535411743
 20
10.7868703319
 40
0.0365
100
AcDbArc
 50
350.0000000003
 51
170.0000000001
  0
ARC
  5
2A1
100
AcDbEntity
  8
0
100
AcDbCircle
 62
7
  6
CONTINUOUS
 10
7.3616249084
 20
13.779876517
 40
3.5678319728
100
AcDbArc
 50
243.1786455706
 51
260.0
  0
ARC
  5
2A2
100
AcDbEntity
  8
0
100
AcDbCircle
 62
7
  6
CONTINUOUS
 10
7.2693638859
 20
12.6922787501
 40
2.4782363014
100
AcDbArc
 50
260.0
 51
289.523367847
  0
ARC
  5
2A3
100
AcDbEntity
  8
0
100
AcDbCircle
 62
7
  6
CONTINUOUS
 10
8.53201566
 20
11.3110651256
 40
0.568
100
AcDbArc
 50
241.0648761305
 51
288.6906356563
  0
ARC
  5
2A4
100
AcDbEntity
  8
0
100
AcDbCircle
 62
7
  6
CONTINUOUS
 10
6.984818927
 20
11.3607238514
 40
0.049
100
AcDbArc
 50
352.9090136805
 51
164.1819726377
  0
ARC
  5
2A5
100
AcDbEntity
  8
0
100
AcDbCircle
 62
7
  6
CONTINUOUS
 10
8.2187989793
 20
10.8207419252
 40
0.039
100
AcDbArc
 50
349.9999999999
 51
170.0
  0
ARC
  5
2A6
100
AcDbEntity
  8
0
100
AcDbCircle
 62
7
  6
CONTINUOUS
 10
18.2111480014
 20
6.174478145
 40
0.256
100
AcDbArc
 50
106.4667537905
 51
180.0
  0
ARC
  5
2A7
100
AcDbEntity
  8
0
100
AcDbCircle
 62
7
  6
CONTINUOUS
 10
18.2111480014
 20
4.532478145
 40
0.256
100
AcDbArc
 50
180.0
 51
253.5332462095
  0
ARC
  5
2A8
100
AcDbEntity
  8
0
100
AcDbCircle
 62
7
  6
CONTINUOUS
 10
18.0660170261
 20
4.041478145
 40
0.256
100
AcDbArc
 50
23.2950758199
 51
73.5332462095
  0
ARC
  5
2A9
100
AcDbEntity
  8
0
100
AcDbCircle
 62
7
  6
CONTINUOUS
 10
18.0660170261
 20
6.665478145
 40
0.256
100
AcDbArc
 50
286.4667537904
 51
336.7049241801
  0
ARC
  5
2AA
100
AcDbEntity
  8
0
100
AcDbCircle
 62
7
  6
CONTINUOUS
 10
18.5461480014
 20
6.711978145
 40
0.059
100
AcDbArc
 50
53.6141321829
 51
180.0000000002
  0
ARC
  5
2AB
100
AcDbEntity
  8
0
100
AcDbCircle
 62
7
  6
CONTINUOUS
 10
18.3593350403
 20
6.554478145
 40
0.059
100
AcDbArc
 50
67.1329804798
 51
170.4775990784
  0
ARC
  5
2AC
100
AcDbEntity
  8
0
100
AcDbCircle
 62
7
  6
CONTINUOUS
 10
18.3593350403
 20
4.152478145
 40
0.059
100
AcDbArc
 50
189.5224009216
 51
292.8670195202
  0
ARC
  5
2AD
100
AcDbEntity
  8
0
100
AcDbCircle
 62
7
  6
CONTINUOUS
 10
18.5461480014
 20
3.994978145
 40
0.059
100
AcDbArc
 50
179.9999999998
 51
306.3858678171
  0
ARC
  5
2AE
100
AcDbEntity
  8
0
100
AcDbCircle
 62
7
  6
CONTINUOUS
 10
18.4551480014
 20
6.628978145
 40
0.059
100
AcDbArc
 50
71.407177729
 51
180.0000000003
  0
ARC
  5
2AF
100
AcDbEntity
  8
0
100
AcDbCircle
 62
7
  6
CONTINUOUS
 10
18.4551480014
 20
4.077978145
 40
0.059
100
AcDbArc
 50
179.9999999997
 51
288.592822271
  0
ARC
  5
2B0
100
AcDbEntity
  8
0
100
AcDbCircle
 62
7
  6
CONTINUOUS
 10
15.8326518428
 20
5.3534775549
 40
0.0550006155
100
AcDbArc
 50
90.000614765
 51
269.9993801042
  0
ARC
  5
2B1
100
AcDbEntity
  8
0
100
AcDbCircle
 62
7
  6
CONTINUOUS
 10
17.2931480014
 20
5.648978145
 40
0.047
100
AcDbArc
 50
0.0000000001
 51
179.9999999999
  0
ARC
  5
2B2
100
AcDbEntity
  8
0
100
AcDbCircle
 62
7
  6
CONTINUOUS
 10
17.9081480014
 20
4.956478145
 40
0.047
100
AcDbArc
 50
180.0000000001
 51
359.9999999999
  0
ARC
  5
2B3
100
AcDbEntity
  8
0
100
AcDbCircle
 62
7
  6
CONTINUOUS
 10
17.9081480014
 20
5.750478145
 40
0.047
100
AcDbArc
 50
0.0000000001
 51
179.9999999999
  0
ARC
  5
2B4
100
AcDbEntity
  8
0
100
AcDbCircle
 62
7
  6
CONTINUOUS
 10
17.2931480014
 20
5.057978145
 40
0.047
100
AcDbArc
 50
180.0000000001
 51
359.9999999999
  0
ARC
  5
2B5
100
AcDbEntity
  8
0
100
AcDbCircle
 62
7
  6
CONTINUOUS
 10
18.3861480014
 20
6.6180553824
 40
0.01
100
AcDbArc
 50
247.1329783504
 51
0.0000054685
  0
ARC
  5
2B6
100
AcDbEntity
  8
0
100
AcDbCircle
 62
7
  6
CONTINUOUS
 10
18.3861480014
 20
4.0889009076
 40
0.01
100
AcDbArc
 50
359.9999945349
 51
112.8670216483
  0
ARC
  5
2B7
100
AcDbEntity
  8
0
100
AcDbCircle
 62
7
  6
CONTINUOUS
 10
18.4771480014
 20
6.6943769217
 40
0.01
100
AcDbArc
 50
251.407175808
 51
0.0000060085
  0
ARC
  5
2B8
100
AcDbEntity
  8
0
100
AcDbCircle
 62
7
  6
CONTINUOUS
 10
18.4771480014
 20
4.0125793682
 40
0.01
100
AcDbArc
 50
359.9999939915
 51
108.592824192
  0
ARC
  5
2B9
100
AcDbEntity
  8
0
100
AcDbCircle
 62
7
  6
CONTINUOUS
 10
17.5998218517
 20
10.3717828555
 40
1.7564031179
100
AcDbArc
 50
74.3179778938
 51
74.9805807424
  0
ARC
  5
2BA
100
AcDbEntity
  8
0
100
AcDbCircle
 62
7
  6
CONTINUOUS
 10
13.2754681335
 20
11.2115343298
 40
1.0649690711
100
AcDbArc
 50
295.506612414
 51
295.9722777289
  0
ARC
  5
2BB
100
AcDbEntity
  8
0
100
AcDbCircle
 62
9
  6
CONTINUOUS
 10
15.0967425153
 20
10.7507431632
 40
0.4672004747
100
AcDbArc
 50
0.0709672181
 51
3.5273384255
  0
ARC
  5
2BC
100
AcDbEntity
  8
0
100
AcDbCircle
 62
7
  6
CONTINUOUS
 10
18.2383924451
 20
11.9056407292
 40
0.4507122817
100
AcDbArc
 50
32.2352852994
 51
32.6230181076
  0
ARC
  5
2BD
100
AcDbEntity
  8
0
100
AcDbCircle
 62
9
  6
CONTINUOUS
 10
18.0410118812
 20
11.988897304
 40
0.0816250741
100
AcDbArc
 50
77.160108694
 51
80.1207644974
  0
ARC
  5
2BE
100
AcDbEntity
  8
0
100
AcDbCircle
 62
9
  6
CONTINUOUS
 10
15.4302230938
 20
10.6716384715
 40
0.0805135001
100
AcDbArc
 50
302.6775943009
 51
304.6641521181
  0
ARC
  5
2BF
100
AcDbEntity
  8
0
100
AcDbCircle
 62
9
  6
CONTINUOUS
 10
15.2837364695
 20
11.0940916005
 40
0.074410561
100
AcDbArc
 50
96.0979410004
 51
109.273333012
  0
ARC
  5
2C0
100
AcDbEntity
  8
0
100
AcDbCircle
 62
7
  6
CONTINUOUS
 10
18.7050945481
 20
12.051865584
 40
0.0549943956
100
AcDbArc
 50
336.464373611
 51
62.0274989006
  0
SPLINE
  5
2C1
100
AcDbEntity
  8
0
100
AcDbSpline
 62
7
  6
CONTINUOUS
 70
0
 71
3
 72
68
 73
64
 74
0
 42
0.0000001
 43
0.0000001
 44
0.0000000001
 40
0.0
 40
0.0
 40
0.0
 40
0.0
 40
0.0111059705
 40
0.022218173
 40
0.0278091538
 40
0.0334412344
 40
0.0448875947
 40
0.0566923597
 40
0.0689858988
 40
0.0818444536
 40
0.0953567146
 40
0.1095019745
 40
0.1167991278
 40
0.1242338271
 40
0.1317831756
 40
0.1394259209
 40
0.1471445525
 40
0.1549194899
 40
0.1627256414
 40
0.1705380585
 40
0.1783335604
 40
0.1860917471
 40
0.193790488
 40
0.2014050458
 40
0.2089110675
 40
0.2162962736
 40
0.2235498565
 40
0.2306563488
 40
0.2375973489
 40
0.2443701011
 40
0.2574432117
 40
0.2637562133
 40
0.2699207401
 40
0.2818628155
 40
0.2876800707
 40
0.2934163013
 40
0.2990859231
 40
0.304702799
 40
0.3158365052
 40
0.3269317076
 40
0.3324980143
 40
0.3380920088
 40
0.3493947574
 40
0.3609004077
 40
0.3726655012
 40
0.3847375683
 40
0.3971447328
 40
0.4099108957
 40
0.4230588866
 40
0.4366055733
 40
0.4649167528
 40
0.4948789364
 40
0.5264866443
 40
0.5596899267
 40
0.5944246777
 40
0.6305972684
 40
0.6681048371
 40
0.7068268665
 40
0.746634265
 40
0.7873866338
 40
0.8289347008
 40
0.9138162914
 40
1.0
 40
1.0
 40
1.0
 40
1.0
 10
4.9727164756
 20
5.6849393286
 30
0.0
 10
4.9719017541
 20
5.6866101424
 30
0.0
 10
4.9702079252
 20
5.6899220946
 30
0.0
 10
4.9679071227
 20
5.6939702845
 30
0.0
 10
4.9659432769
 20
5.6971517131
 30
0.0
 10
4.9638678711
 20
5.7003285171
 30
0.0
 10
4.9610493174
 20
5.7042602854
 30
0.0
 10
4.9572674217
 20
5.7088588106
 30
0.0
 10
4.9529977218
 20
5.7133433647
 30
0.0
 10
4.9481425979
 20
5.7176358745
 30
0.0
 10
4.9426466706
 20
5.7216271923
 30
0.0
 10
4.9375671572
 20
5.7245567934
 30
0.0
 10
4.9331847224
 20
5.7266010532
 30
0.0
 10
4.929713715
 20
5.7279713934
 30
0.0
 10
4.9261105127
 20
5.7291451085
 30
0.0
 10
4.9223945264
 20
5.7301024975
 30
0.0
 10
4.9185865668
 20
5.7308217532
 30
0.0
 10
4.914712179
 20
5.7312904216
 30
0.0
 10
4.9107998074
 20
5.7315055887
 30
0.0
 10
4.9068781607
 20
5.7314625604
 30
0.0
 10
4.9029763925
 20
5.7311548164
 30
0.0
 10
4.8991226463
 20
5.7305917903
 30
0.0
 10
4.8953429424
 20
5.7297880359
 30
0.0
 10
4.8916626091
 20
5.7287570801
 30
0.0
 10
4.8881053856
 20
5.7275101802
 30
0.0
 10
4.884687675
 20
5.7260700621
 30
0.0
 10
4.8814205644
 20
5.7244614921
 30
0.0
 10
4.8783141524
 20
5.7227081277
 30
0.0
 10
4.8753758344
 20
5.7208313417
 30
0.0
 10
4.8717281616
 20
5.7182216879
 30
0.0
 10
4.8683596687
 20
5.7154126421
 30
0.0
 10
4.8652646038
 20
5.7124601804
 30
0.0
 10
4.8624226755
 20
5.7095213507
 30
0.0
 10
4.8598066484
 20
5.706484075
 30
0.0
 10
4.8574007313
 20
5.7033726859
 30
0.0
 10
4.855711236
 20
5.7010363287
 30
0.0
 10
4.8541094397
 20
5.6986795997
 30
0.0
 10
4.8520827723
 20
5.6955209043
 30
0.0
 10
4.8497178462
 20
5.6915024022
 30
0.0
 10
4.8475453157
 20
5.6873869494
 30
0.0
 10
4.8459043152
 20
5.6840426712
 30
0.0
 10
4.844308842
 20
5.6806380193
 30
0.0
 10
4.8424040045
 20
5.676281426
 30
0.0
 10
4.8402529011
 20
5.6709084615
 30
0.0
 10
4.8382076267
 20
5.6653570516
 30
0.0
 10
4.8362492938
 20
5.6596148509
 30
0.0
 10
4.8343696786
 20
5.6536704929
 30
0.0
 10
4.8325612265
 20
5.6475162495
 30
0.0
 10
4.8308167416
 20
5.6411456542
 30
0.0
 10
4.8285347494
 20
5.6322259397
 30
0.0
 10
4.8258323384
 20
5.6205107776
 30
0.0
 10
4.8228442907
 20
5.6057651199
 30
0.0
 10
4.8200567749
 20
5.5901479386
 30
0.0
 10
4.8174699861
 20
5.5736873732
 30
0.0
 10
4.8150853315
 20
5.5564248205
 30
0.0
 10
4.8129067649
 20
5.5384092669
 30
0.0
 10
4.8109394269
 20
5.5196983277
 30
0.0
 10
4.809188133
 20
5.5003550535
 30
0.0
 10
4.8076584876
 20
5.4804483035
 30
0.0
 10
4.8063550572
 20
5.4600514886
 30
0.0
 10
4.8049145469
 20
5.4321058086
 30
0.0
 10
4.8037187212
 20
5.3965362932
 30
0.0
 10
4.8034010417
 20
5.3679031902
 30
0.0
 10
4.8034010417
 20
5.353478145
 30
0.0
  0
SPLINE
  5
2C2
100
AcDbEntity
  8
0
100
AcDbSpline
 62
7
  6
CONTINUOUS
 70
0
 71
3
 72
64
 73
60
 74
0
 42
0.0000001
 43
0.0000001
 44
0.0000000001
 40
0.0
 40
0.0
 40
0.0
 40
0.0
 40
0.0861919998
 40
0.17108099
 40
0.2126321973
 40
0.253387199
 40
0.2931966187
 40
0.3319200149
 40
0.3694282168
 40
0.4056007016
 40
0.4403344737
 40
0.4735358665
 40
0.5051406438
 40
0.5350988191
 40
0.563405305
 40
0.5769487445
 40
0.5900938762
 40
0.6028585691
 40
0.6152640194
 40
0.6273325047
 40
0.6390957618
 40
0.6619009547
 40
0.6730578938
 40
0.6786085957
 40
0.6841566146
 40
0.6952946063
 40
0.7065789518
 40
0.7181298921
 40
0.7240496248
 40
0.7300895631
 40
0.7362594655
 40
0.7425669294
 40
0.7556367075
 40
0.7693705726
 40
0.7837161208
 40
0.7911084461
 40
0.7986232039
 40
0.8062380127
 40
0.8139341648
 40
0.821694018
 40
0.8294934581
 40
0.8373072587
 40
0.8451114098
 40
0.8528848839
 40
0.8606064879
 40
0.868252213
 40
0.8757965479
 40
0.8832229401
 40
0.8905217348
 40
0.9046709154
 40
0.9181593686
 40
0.93103024
 40
0.9372430271
 40
0.9433148175
 40
0.9551107744
 40
0.9665610871
 40
0.9777831586
 40
0.9888926665
 40
1.0
 40
1.0
 40
1.0
 40
1.0
 10
4.8034010417
 20
5.353478145
 30
0.0
 10
4.8034010417
 20
5.3390491775
 30
0.0
 10
4.8037188919
 20
5.3104084166
 30
0.0
 10
4.8049153622
 20
5.2748295102
 30
0.0
 10
4.806356653
 20
5.2468767392
 30
0.0
 10
4.807660778
 20
5.2264750626
 30
0.0
 10
4.8091912348
 20
5.2065638455
 30
0.0
 10
4.8109434466
 20
5.1872165518
 30
0.0
 10
4.8129118126
 20
5.1685020776
 30
0.0
 10
4.8150915106
 20
5.1504835248
 30
0.0
 10
4.8174773824
 20
5.1332185513
 30
0.0
 10
4.8200654723
 20
5.1167562084
 30
0.0
 10
4.8228543635
 20
5.1011379416
 30
0.0
 10
4.8258439056
 20
5.0863918725
 30
0.0
 10
4.8285477703
 20
5.0746769312
 30
0.0
 10
4.8308306836
 20
5.0657576482
 30
0.0
 10
4.8325760623
 20
5.0593874094
 30
0.0
 10
4.8343858658
 20
5.0532334326
 30
0.0
 10
4.836266768
 20
5.0472895532
 30
0.0
 10
4.8382254539
 20
5.0415475145
 30
0.0
 10
4.8409267308
 20
5.0342219549
 30
0.0
 10
4.8438741359
 20
5.0271511882
 30
0.0
 10
4.8467312471
 20
5.0211838034
 30
0.0
 10
4.848441054
 20
5.0178732856
 30
0.0
 10
4.8502200769
 20
5.0146030956
 30
0.0
 10
4.8525981092
 20
5.0105673636
 30
0.0
 10
4.8557281582
 20
5.0058156538
 30
0.0
 10
4.8586175545
 20
5.0019608092
 30
0.0
 10
4.8611362205
 20
4.9989355601
 30
0.0
 10
4.8631599358
 20
4.996672846
 30
0.0
 10
4.865314451
 20
4.994442859
 30
0.0
 10
4.868412531
 20
4.9914930904
 30
0.0
 10
4.8726842078
 20
4.9879468629
 30
0.0
 10
4.8784016465
 20
4.9840836823
 30
0.0
 10
4.8836666785
 20
4.9813064557
 30
0.0
 10
4.8881871352
 20
4.9794166466
 30
0.0
 10
4.8917498332
 20
4.9781754078
 30
0.0
 10
4.8954318295
 20
4.977144265
 30
0.0
 10
4.8992130052
 20
4.9763438089
 30
0.0
 10
4.903069714
 20
4.9757923767
 30
0.0
 10
4.906973812
 20
4.9754931388
 30
0.0
 10
4.9108966539
 20
4.9754506955
 30
0.0
 10
4.9148092687
 20
4.9756713605
 30
0.0
 10
4.9186827394
 20
4.9761526682
 30
0.0
 10
4.9224905972
 20
4.9768791007
 30
0.0
 10
4.9262072196
 20
4.9778372549
 30
0.0
 10
4.9298080131
 20
4.9790154406
 30
0.0
 10
4.9332737042
 20
4.9803957794
 30
0.0
 10
4.9376519476
 20
4.982449441
 30
0.0
 10
4.9427295524
 20
4.9853782205
 30
0.0
 10
4.9482182445
 20
4.9893798836
 30
0.0
 10
4.9523008991
 20
4.9930062197
 30
0.0
 10
4.9552672336
 20
4.9959965301
 30
0.0
 10
4.9579931681
 20
4.9989675896
 30
0.0
 10
4.961106321
 20
5.0027678312
 30
0.0
 10
4.9644601923
 20
5.0074672425
 30
0.0
 10
4.967491866
 20
5.0122442038
 30
0.0
 10
4.9702529573
 20
5.0171160491
 30
0.0
 10
4.9719429323
 20
5.0204304449
 30
0.0
 10
4.9727568877
 20
5.022102249
 30
0.0
  0
SPLINE
  5
2C3
100
AcDbEntity
  8
0
100
AcDbSpline
 62
7
  6
CONTINUOUS
 70
0
 71
3
 72
63
 73
59
 74
0
 42
0.0000001
 43
0.0000001
 44
0.0000000001
 40
0.0
 40
0.0
 40
0.0
 40
0.0
 40
0.0101320175
 40
0.015180889
 40
0.020233581
 40
0.0304027819
 40
0.0355516305
 40
0.0407661059
 40
0.0460656428
 40
0.051465221
 40
0.0625762296
 40
0.0683057957
 40
0.0741669975
 40
0.0801710421
 40
0.0863016489
 40
0.0925375069
 40
0.098862063
 40
0.1052642975
 40
0.1117281661
 40
0.1182231018
 40
0.1247165602
 40
0.1311766369
 40
0.137577472
 40
0.1439061484
 40
0.1501471078
 40
0.1622732001
 40
0.1738594895
 40
0.1794759999
 40
0.1849832809
 40
0.190383602
 40
0.1956815164
 40
0.2060424041
 40
0.2162134912
 40
0.2212670416
 40
0.2263161777
 40
0.2364474377
 40
0.246697572
 40
0.2571482059
 40
0.2678647431
 40
0.2788900325
 40
0.2902622096
 40
0.3020167551
 40
0.3141781313
 40
0.3397732425
 40
0.3532318069
 40
0.3671419583
 40
0.3963141528
 40
0.427277832
 40
0.4600008995
 40
0.4944168375
 40
0.5304501768
 40
0.5680054594
 40
0.6069767161
 40
0.647249189
 40
0.7311879943
 40
0.8187390042
 40
0.9087543126
 40
1.0
 40
1.0
 40
1.0
 40
1.0
 10
6.9576407734
 20
5.9130392285
 30
0.0
 10
6.9563641806
 20
5.9152069659
 30
0.0
 10
6.9543742499
 20
5.9184106146
 30
0.0
 10
6.9515569261
 20
5.9225707691
 30
0.0
 10
6.948621166
 20
5.926659505
 30
0.0
 10
6.9454798031
 20
5.9306295504
 30
0.0
 10
6.9421005636
 20
5.9344481652
 30
0.0
 10
6.9394107253
 20
5.9372583323
 30
0.0
 10
6.9365630939
 20
5.9399993361
 30
0.0
 10
6.9325038716
 20
5.9435854844
 30
0.0
 10
6.9281049431
 20
5.9469426757
 30
0.0
 10
6.9233575898
 20
5.9499861898
 30
0.0
 10
6.9195463039
 20
5.9521270093
 30
0.0
 10
6.9155216473
 20
5.9540744525
 30
0.0
 10
6.9112967214
 20
5.9558016953
 30
0.0
 10
6.9068926138
 20
5.9572757828
 30
0.0
 10
6.902332645
 20
5.9584637473
 30
0.0
 10
6.8976424055
 20
5.959328409
 30
0.0
 10
6.892859023
 20
5.9598476477
 30
0.0
 10
6.8880283009
 20
5.9600240756
 30
0.0
 10
6.8831982113
 20
5.9598545745
 30
0.0
 10
6.8784161179
 20
5.9593369163
 30
0.0
 10
6.873726964
 20
5.9584682663
 30
0.0
 10
6.8691644254
 20
5.9572823982
 30
0.0
 10
6.863344149
 20
5.9553411604
 30
0.0
 10
6.8565277096
 20
5.952312718
 30
0.0
 10
6.8502730367
 20
5.948549365
 30
0.0
 10
6.8456984934
 20
5.9452490101
 30
0.0
 10
6.8424963601
 20
5.9426811986
 30
0.0
 10
6.8394774638
 20
5.9400189981
 30
0.0
 10
6.835706425
 20
5.936394932
 30
0.0
 10
6.8313614193
 20
5.9316677569
 30
0.0
 10
6.8274174195
 20
5.9266813256
 30
0.0
 10
6.8244795256
 20
5.9225931139
 30
0.0
 10
6.8216601078
 20
5.9184342055
 30
0.0
 10
6.8183260944
 20
5.9130684872
 30
0.0
 10
6.8145985525
 20
5.9063791622
 30
0.0
 10
6.8110834853
 20
5.8994132471
 30
0.0
 10
6.8077338018
 20
5.8921542222
 30
0.0
 10
6.804529358
 20
5.8845810309
 30
0.0
 10
6.8014498579
 20
5.8766791914
 30
0.0
 10
6.7984757206
 20
5.8684367306
 30
0.0
 10
6.7945664968
 20
5.8567807389
 30
0.0
 10
6.790906474
 20
5.8445986273
 30
0.0
 10
6.7874453357
 20
5.8319114087
 30
0.0
 10
6.7839664349
 20
5.8183100059
 30
0.0
 10
6.7798109255
 20
5.8003980789
 30
0.0
 10
6.7751740321
 20
5.7778108517
 30
0.0
 10
6.7708092899
 20
5.7538450763
 30
0.0
 10
6.7667217874
 20
5.7285548187
 30
0.0
 10
6.7629188191
 20
5.7020077822
 30
0.0
 10
6.7594081544
 20
5.674280221
 30
0.0
 10
6.7561989508
 20
5.6454569468
 30
0.0
 10
6.7522800023
 20
5.6051287934
 30
0.0
 10
6.7482362407
 20
5.5526994661
 30
0.0
 10
6.7447682624
 20
5.4878569574
 30
0.0
 10
6.7426690482
 20
5.4211409826
 30
0.0
 10
6.7422012089
 20
5.3761337794
 30
0.0
 10
6.7422012089
 20
5.353478145
 30
0.0
  0
SPLINE
  5
2C4
100
AcDbEntity
  8
0
100
AcDbSpline
 62
7
  6
CONTINUOUS
 70
0
 71
3
 72
63
 73
59
 74
0
 42
0.0000001
 43
0.0000001
 44
0.0000000001
 40
0.0
 40
0.0
 40
0.0
 40
0.0
 40
0.0912454397
 40
0.181260508
 40
0.2688113279
 40
0.3527500084
 40
0.3930224527
 40
0.4319937005
 40
0.4695490123
 40
0.5055824002
 40
0.5399984477
 40
0.5727216112
 40
0.6036853656
 40
0.6328576323
 40
0.6467677306
 40
0.6602262731
 40
0.6858216972
 40
0.6979830225
 40
0.7097373364
 40
0.7211098192
 40
0.7321355028
 40
0.7428518792
 40
0.7533021623
 40
0.7635529505
 40
0.7736847032
 40
0.7787335478
 40
0.7837862887
 40
0.7939558514
 40
0.7991050334
 40
0.8043199561
 40
0.8096200609
 40
0.8150202495
 40
0.8261325541
 40
0.8318628597
 40
0.8377248963
 40
0.8437297641
 40
0.8498610511
 40
0.8560974726
 40
0.8624225076
 40
0.8688251631
 40
0.8752892972
 40
0.8817843037
 40
0.8882776384
 40
0.8947374062
 40
0.9011378279
 40
0.9074660167
 40
0.9137063805
 40
0.9258308812
 40
0.9374156422
 40
0.9430314795
 40
0.9485381142
 40
0.9539377934
 40
0.9592351414
 40
0.9695952451
 40
0.9797659412
 40
0.9848194171
 40
0.989868549
 40
1.0
 40
1.0
 40
1.0
 40
1.0
 10
6.7422012089
 20
5.353478145
 30
0.0
 10
6.7422012089
 20
5.330822756
 30
0.0
 10
6.742669038
 20
5.2858160393
 30
0.0
 10
6.744768207
 20
5.2191007738
 30
0.0
 10
6.7482361089
 20
5.154258927
 30
0.0
 10
6.7522797826
 20
5.1018301068
 30
0.0
 10
6.7561986423
 20
5.0615023158
 30
0.0
 10
6.759407776
 20
5.0326792728
 30
0.0
 10
6.7629183608
 20
5.004951913
 30
0.0
 10
6.7667212463
 20
4.9784050376
 30
0.0
 10
6.7708086604
 20
4.9531149126
 30
0.0
 10
6.7751732951
 20
4.929149248
 30
0.0
 10
6.7798100729
 20
4.9065621265
 30
0.0
 10
6.7839654721
 20
4.8886503035
 30
0.0
 10
6.7874442371
 20
4.8750489845
 30
0.0
 10
6.7909052757
 20
4.8623617876
 30
0.0
 10
6.7945652888
 20
4.8501797194
 30
0.0
 10
6.7984742886
 20
4.8385237526
 30
0.0
 10
6.8014481265
 20
4.8302812517
 30
0.0
 10
6.8045277728
 20
4.8223794147
 30
0.0
 10
6.8077323325
 20
4.8148062044
 30
0.0
 10
6.8110814813
 20
4.8075470439
 30
0.0
 10
6.8145960901
 20
4.8005809162
 30
0.0
 10
6.818324457
 20
4.7938918763
 30
0.0
 10
6.8216585411
 20
4.7885260717
 30
0.0
 10
6.8244765318
 20
4.7843664039
 30
0.0
 10
6.8274130505
 20
4.7802781666
 30
0.0
 10
6.8305553497
 20
4.776308663
 30
0.0
 10
6.8339356409
 20
4.7724906563
 30
0.0
 10
6.836626384
 20
4.7696809344
 30
0.0
 10
6.8394749784
 20
4.7669403942
 30
0.0
 10
6.8435356158
 20
4.7633549838
 30
0.0
 10
6.8479360956
 20
4.7599987973
 30
0.0
 10
6.8526850618
 20
4.7569565606
 30
0.0
 10
6.8564976173
 20
4.7548168551
 30
0.0
 10
6.8605234946
 20
4.7528706835
 30
0.0
 10
6.8647495281
 20
4.7511448875
 30
0.0
 10
6.8691546003
 20
4.7496724485
 30
0.0
 10
6.8737153874
 20
4.7484863225
 30
0.0
 10
6.8784062643
 20
4.7476237324
 30
0.0
 10
6.8831900183
 20
4.7471065577
 30
0.0
 10
6.8880208288
 20
4.7469322009
 30
0.0
 10
6.8928507176
 20
4.7471037695
 30
0.0
 10
6.8976323326
 20
4.7476235375
 30
0.0
 10
6.9023207673
 20
4.7484941897
 30
0.0
 10
6.9068824178
 20
4.7496818308
 30
0.0
 10
6.9127012528
 20
4.7516251261
 30
0.0
 10
6.9195156479
 20
4.7546557223
 30
0.0
 10
6.9257681389
 20
4.7584207317
 30
0.0
 10
6.9303410423
 20
4.7617220683
 30
0.0
 10
6.9335420278
 20
4.764290476
 30
0.0
 10
6.9365598612
 20
4.7669531338
 30
0.0
 10
6.9403296164
 20
4.7705777586
 30
0.0
 10
6.9446731961
 20
4.7753055827
 30
0.0
 10
6.9486159713
 20
4.7802925017
 30
0.0
 10
6.9515531034
 20
4.7843810877
 30
0.0
 10
6.9543718334
 20
4.7885403594
 30
0.0
 10
6.9563617167
 20
4.7917439518
 30
0.0
 10
6.9576381567
 20
4.7939115922
 30
0.0
  0
SPLINE
  5
2C5
100
AcDbEntity
  8
0
100
AcDbSpline
 62
7
  6
CONTINUOUS
 70
0
 71
3
 72
29
 73
25
 74
0
 42
0.0000001
 43
0.0000001
 44
0.0000000001
 40
0.0
 40
0.0
 40
0.0
 40
0.0
 40
0.0562828521
 40
0.0839538741
 40
0.1114094235
 40
0.2215014584
 40
0.2497309924
 40
0.278445899
 40
0.3376506322
 40
0.3681499637
 40
0.3992186095
 40
0.4308146554
 40
0.4628595167
 40
0.4952826879
 40
0.5280251486
 40
0.5610325898
 40
0.5942546911
 40
0.6276477336
 40
0.6611782397
 40
0.7285304835
 40
0.7961813679
 40
0.8640271632
 40
0.9319900755
 40
1.0
 40
1.0
 40
1.0
 40
1.0
 10
8.8720623231
 20
5.2991644872
 30
0.0
 10
8.8717326468
 20
5.2972979458
 30
0.0
 10
8.8711979394
 20
5.2945209809
 30
0.0
 10
8.870388677
 20
5.2908570859
 30
0.0
 10
8.8690854572
 20
5.285448115
 30
0.0
 10
8.8674796731
 20
5.28008732
 30
0.0
 10
8.8654649725
 20
5.2748344091
 30
0.0
 10
8.8639403686
 20
5.2712315797
 30
0.0
 10
8.8621841844
 20
5.2676457318
 30
0.0
 10
8.8601721283
 20
5.2641098258
 30
0.0
 10
8.8584996125
 20
5.2614539551
 30
0.0
 10
8.8566751221
 20
5.2588363538
 30
0.0
 10
8.854699205
 20
5.2562731099
 30
0.0
 10
8.8525726866
 20
5.2537821806
 30
0.0
 10
8.8502967868
 20
5.2513819574
 30
0.0
 10
8.847878369
 20
5.2490860958
 30
0.0
 10
8.8453244948
 20
5.246907951
 30
0.0
 10
8.8426417658
 20
5.2448611254
 30
0.0
 10
8.8388985491
 20
5.2423207213
 30
0.0
 10
8.8339426772
 20
5.2395278903
 30
0.0
 10
8.8276376861
 20
5.2368616243
 30
0.0
 10
8.8210509869
 20
5.2349194828
 30
0.0
 10
8.8142741415
 20
5.2337425541
 30
0.0
 10
8.8096907422
 20
5.233478145
 30
0.0
 10
8.8074003785
 20
5.233478145
 30
0.0
  0
SPLINE
  5
2C6
100
AcDbEntity
  8
0
100
AcDbSpline
 62
7
  6
CONTINUOUS
 70
0
 71
3
 72
27
 73
23
 74
0
 42
0.0000001
 43
0.0000001
 44
0.0000000001
 40
0.0
 40
0.0
 40
0.0
 40
0.0
 40
0.0680061802
 40
0.1359528346
 40
0.2038004047
 40
0.271464441
 40
0.3388330319
 40
0.372371255
 40
0.4057708734
 40
0.4389999845
 40
0.472014274
 40
0.5047611961
 40
0.5371823232
 40
0.6007947414
 40
0.6318680848
 40
0.6623542004
 40
0.7215435333
 40
0.7784621455
 40
0.8338332248
 40
0.8885841389
 40
0.9436951076
 40
1.0
 40
1.0
 40
1.0
 40
1.0
 10
8.8074003785
 20
5.473478145
 30
0.0
 10
8.8096918665
 20
5.473478145
 30
0.0
 10
8.8142771283
 20
5.473213883
 30
0.0
 10
8.8210569223
 20
5.4720353998
 30
0.0
 10
8.8276468996
 20
5.4700913377
 30
0.0
 10
8.8339559384
 20
5.467422235
 30
0.0
 10
8.8389146524
 20
5.4646255118
 30
0.0
 10
8.8426599691
 20
5.462081986
 30
0.0
 10
8.8453442183
 20
5.4600329141
 30
0.0
 10
8.8478986717
 20
5.4578515282
 30
0.0
 10
8.8503173564
 20
5.455552454
 30
0.0
 10
8.8525939183
 20
5.4531498619
 30
0.0
 10
8.8554119637
 20
5.4498481438
 30
0.0
 10
8.8579445699
 20
5.4463844025
 30
0.0
 10
8.8601915688
 20
5.4428138499
 30
0.0
 10
8.862203213
 20
5.4392758647
 30
0.0
 10
8.8643744919
 20
5.4348329987
 30
0.0
 10
8.866531383
 20
5.4294680964
 30
0.0
 10
8.868300694
 20
5.424121793
 30
0.0
 10
8.8697816927
 20
5.4187527289
 30
0.0
 10
8.8710325312
 20
5.4132937536
 30
0.0
 10
8.8717420244
 20
5.4096064401
 30
0.0
 10
8.8720717004
 20
5.4077380937
 30
0.0
  0
SPLINE
  5
2C7
100
AcDbEntity
  8
0
100
AcDbSpline
 62
7
  6
CONTINUOUS
 70
0
 71
3
 72
32
 73
28
 74
0
 42
0.0000001
 43
0.0000001
 44
0.0000000001
 40
0.0
 40
0.0
 40
0.0
 40
0.0
 40
0.1212334103
 40
0.1783924062
 40
0.233691329
 40
0.2608074382
 40
0.2876794809
 40
0.3144337265
 40
0.3412036901
 40
0.3681275824
 40
0.3953528162
 40
0.4513536155
 40
0.4804552321
 40
0.5104068459
 40
0.541292769
 40
0.5731434926
 40
0.6058844592
 40
0.639457161
 40
0.6737725748
 40
0.7087076603
 40
0.7441619269
 40
0.7800404062
 40
0.8162579551
 40
0.8527404111
 40
0.8894076279
 40
0.9261895199
 40
1.0
 40
1.0
 40
1.0
 40
1.0
 10
8.8279906606
 20
5.2373726923
 30
0.0
 10
8.8270029668
 20
5.2310304323
 30
0.0
 10
8.8253552831
 20
5.2217249358
 30
0.0
 10
8.82268267
 20
5.2096427031
 30
0.0
 10
8.8208474836
 20
5.2024825677
 30
0.0
 10
8.8192485293
 20
5.1969213258
 30
0.0
 10
8.8179814816
 20
5.1928381274
 30
0.0
 10
8.8166236542
 20
5.1888034494
 30
0.0
 10
8.8151599106
 20
5.18480301
 30
0.0
 10
8.8135763007
 20
5.1808214361
 30
0.0
 10
8.8112532616
 20
5.1754714503
 30
0.0
 10
8.8085903015
 20
5.1701458737
 30
0.0
 10
8.8055335879
 20
5.1648748831
 30
0.0
 10
8.8029534037
 20
5.1608703074
 30
0.0
 10
8.8000868344
 20
5.1568843966
 30
0.0
 10
8.7969138194
 20
5.1529457627
 30
0.0
 10
8.7934204338
 20
5.1490932966
 30
0.0
 10
8.7895982716
 20
5.1453763004
 30
0.0
 10
8.7854521044
 20
5.1418422068
 30
0.0
 10
8.7809962115
 20
5.1385367508
 30
0.0
 10
8.776246528
 20
5.1355116929
 30
0.0
 10
8.7712313511
 20
5.132804352
 30
0.0
 10
8.7659800619
 20
5.1304519338
 30
0.0
 10
8.7605269148
 20
5.1284885838
 30
0.0
 10
8.7549118596
 20
5.1269334096
 30
0.0
 10
8.7472555474
 20
5.1254335287
 30
0.0
 10
8.7413869265
 20
5.124978145
 30
0.0
 10
8.7374790281
 20
5.124978145
 30
0.0
  0
SPLINE
  5
2C8
100
AcDbEntity
  8
0
100
AcDbSpline
 62
7
  6
CONTINUOUS
 70
0
 71
3
 72
35
 73
31
 74
0
 42
0.0000001
 43
0.0000001
 44
0.0000000001
 40
0.0
 40
0.0
 40
0.0
 40
0.0
 40
0.0738266145
 40
0.1105919693
 40
0.1472539577
 40
0.1837439927
 40
0.2199744927
 40
0.2558622067
 40
0.2913252012
 40
0.3262620639
 40
0.3605733437
 40
0.3941647234
 40
0.4269137354
 40
0.4587296536
 40
0.489625174
 40
0.5196002256
 40
0.5486705834
 40
0.5769778124
 40
0.6046770394
 40
0.6319082982
 40
0.6588211696
 40
0.6855741101
 40
0.7123196687
 40
0.7392004974
 40
0.7663198606
 40
0.8215972255
 40
0.8499145966
 40
0.8787670488
 40
0.9381752747
 40
1.0
 40
1.0
 40
1.0
 40
1.0
 10
8.7374790281
 20
5.581978145
 30
0.0
 10
8.7413885894
 20
5.581978145
 30
0.0
 10
8.7472584433
 20
5.5815228846
 30
0.0
 10
8.7549159585
 20
5.5800221654
 30
0.0
 10
8.7605310799
 20
5.5784654382
 30
0.0
 10
8.7659857189
 20
5.5765005342
 30
0.0
 10
8.7712403777
 20
5.5741487842
 30
0.0
 10
8.7762567891
 20
5.5714376312
 30
0.0
 10
8.7810076464
 20
5.5684105344
 30
0.0
 10
8.7854659552
 20
5.5651056938
 30
0.0
 10
8.7896101257
 20
5.5615660727
 30
0.0
 10
8.7934328187
 20
5.5578465555
 30
0.0
 10
8.7969290367
 20
5.5539957531
 30
0.0
 10
8.8001006905
 20
5.5500557297
 30
0.0
 10
8.8029646367
 20
5.5460667879
 30
0.0
 10
8.80554458
 20
5.5420609616
 30
0.0
 10
8.8078689304
 20
5.5380597321
 30
0.0
 10
8.8099629111
 20
5.5340691433
 30
0.0
 10
8.8118571002
 20
5.5300878722
 30
0.0
 10
8.8135854953
 20
5.5261125149
 30
0.0
 10
8.8151712475
 20
5.5221321354
 30
0.0
 10
8.8166319852
 20
5.5181316705
 30
0.0
 10
8.8179868159
 20
5.5140960356
 30
0.0
 10
8.819255095
 20
5.510012125
 30
0.0
 10
8.8208553872
 20
5.5044505364
 30
0.0
 10
8.8223090612
 20
5.4987690527
 30
0.0
 10
8.8236437316
 20
5.4929656605
 30
0.0
 10
8.8249374489
 20
5.4869290041
 30
0.0
 10
8.826436713
 20
5.4791227583
 30
0.0
 10
8.8274914067
 20
5.4727893308
 30
0.0
 10
8.8279950737
 20
5.4695543152
 30
0.0
  0
SPLINE
  5
2C9
100
AcDbEntity
  8
0
100
AcDbSpline
 62
7
  6
CONTINUOUS
 70
0
 71
3
 72
61
 73
57
 74
0
 42
0.0000001
 43
0.0000001
 44
0.0000000001
 40
0.0
 40
0.0
 40
0.0
 40
0.0
 40
0.0857142417
 40
0.1700568612
 40
0.2516536366
 40
0.2910357347
 40
0.3292722175
 40
0.3662310263
 40
0.4017916391
 40
0.4358469721
 40
0.468318418
 40
0.4991377974
 40
0.5282869185
 40
0.542240039
 40
0.5557835918
 40
0.5817071487
 40
0.5941297663
 40
0.6062249449
 40
0.618037744
 40
0.6296220733
 40
0.641034793
 40
0.6523503078
 40
0.6636705035
 40
0.6751073185
 40
0.6867775928
 40
0.6988080547
 40
0.7050059772
 40
0.7113508355
 40
0.7244961194
 40
0.7382841172
 40
0.7527608153
 40
0.7678280874
 40
0.7755567497
 40
0.7833938769
 40
0.7913140846
 40
0.7992936441
 40
0.8073118396
 40
0.8153492593
 40
0.8233830973
 40
0.8313887487
 40
0.8393411113
 40
0.8472187574
 40
0.8550065191
 40
0.8626858899
 40
0.8702343566
 40
0.877627669
 40
0.8919263865
 40
0.9055851523
 40
0.9185678495
 40
0.9309626481
 40
0.9429088831
 40
0.9545161899
 40
0.9659086885
 40
0.9772144309
 40
0.9885491976
 40
1.0
 40
1.0
 40
1.0
 40
1.0
 10
8.096447854
 20
5.353478145
 30
0.0
 10
8.096447854
 20
5.3643976507
 30
0.0
 10
8.0966966788
 20
5.3860628074
 30
0.0
 10
8.0978127801
 20
5.4181053848
 30
0.0
 10
8.0993651029
 20
5.4442193035
 30
0.0
 10
8.1009806221
 20
5.4644385567
 30
0.0
 10
8.1023510952
 20
5.4789711324
 30
0.0
 10
8.1038904483
 20
5.4929971709
 30
0.0
 10
8.1055944646
 20
5.5064675092
 30
0.0
 10
8.1074599585
 20
5.5193391596
 30
0.0
 10
8.109484779
 20
5.531575038
 30
0.0
 10
8.1116678237
 20
5.5431483393
 30
0.0
 10
8.1136508936
 20
5.5523557339
 30
0.0
 10
8.1153297667
 20
5.5593743809
 30
0.0
 10
8.1170189912
 20
5.5659670124
 30
0.0
 10
8.1188263172
 20
5.5723276872
 30
0.0
 10
8.1207810214
 20
5.5784495864
 30
0.0
 10
8.1222900845
 20
5.5828254694
 30
0.0
 10
8.1238759361
 20
5.5870603838
 30
0.0
 10
8.1255536679
 20
5.5911661084
 30
0.0
 10
8.1273374968
 20
5.5951577044
 30
0.0
 10
8.1292512409
 20
5.599051565
 30
0.0
 10
8.1313343771
 20
5.6028614378
 30
0.0
 10
8.1336225546
 20
5.6066052294
 30
0.0
 10
8.1361602178
 20
5.6102958228
 30
0.0
 10
8.1385225666
 20
5.6132880781
 30
0.0
 10
8.1405946599
 20
5.6156355386
 30
0.0
 10
8.1428525636
 20
5.6180052566
 30
0.0
 10
8.1459676712
 20
5.620889608
 30
0.0
 10
8.1501694474
 20
5.62409415
 30
0.0
 10
8.1548952179
 20
5.626967623
 30
0.0
 10
8.1592148864
 20
5.6289684171
 30
0.0
 10
8.1628943945
 20
5.6302752823
 30
0.0
 10
8.16577356
 20
5.6310967431
 30
0.0
 10
8.1687300727
 20
5.6317413157
 30
0.0
 10
8.1717448975
 20
5.6321978472
 30
0.0
 10
8.1747984527
 20
5.6324539606
 30
0.0
 10
8.1778691971
 20
5.6325033382
 30
0.0
 10
8.1809348585
 20
5.6323512027
 30
0.0
 10
8.1839733174
 20
5.6320007935
 30
0.0
 10
8.1869627194
 20
5.6314552812
 30
0.0
 10
8.1898822606
 20
5.630719198
 30
0.0
 10
8.1927160309
 20
5.6298104899
 30
0.0
 10
8.1954497448
 20
5.6287455772
 30
0.0
 10
8.1980697373
 20
5.6275412135
 30
0.0
 10
8.2013586695
 20
5.6257883792
 30
0.0
 10
8.2051480363
 20
5.6233368771
 30
0.0
 10
8.2092218371
 20
5.6200680072
 30
0.0
 10
8.212810648
 20
5.6166166148
 30
0.0
 10
8.2159578291
 20
5.6130458887
 30
0.0
 10
8.2187290436
 20
5.6093957898
 30
0.0
 10
8.2212081104
 20
5.6056952545
 30
0.0
 10
8.2234428109
 20
5.6019372116
 30
0.0
 10
8.225476147
 20
5.5981063564
 30
0.0
 10
8.2273562626
 20
5.5941903109
 30
0.0
 10
8.2285203271
 20
5.5915304947
 30
0.0
 10
8.2290835527
 20
5.5901848432
 30
0.0
  0
SPLINE
  5
2CA
100
AcDbEntity
  8
0
100
AcDbSpline
 62
7
  6
CONTINUOUS
 70
0
 71
3
 72
61
 73
57
 74
0
 42
0.0000001
 43
0.0000001
 44
0.0000000001
 40
0.0
 40
0.0
 40
0.0
 40
0.0
 40
0.0114531572
 40
0.0227859214
 40
0.0340951653
 40
0.0454906932
 40
0.0570887883
 40
0.0690115826
 40
0.0814041733
 40
0.0943890379
 40
0.1080029657
 40
0.122303992
 40
0.129699635
 40
0.1372353113
 40
0.1449001635
 40
0.1526842351
 40
0.1605647024
 40
0.1685166323
 40
0.1765176071
 40
0.1845482039
 40
0.1925874872
 40
0.2006115363
 40
0.2085953519
 40
0.2165145086
 40
0.2243516197
 40
0.2320904834
 40
0.2471810718
 40
0.2616459783
 40
0.2754744072
 40
0.2821417115
 40
0.2886355359
 40
0.3011684755
 40
0.3132200765
 40
0.3191026312
 40
0.3249062326
 40
0.3363422138
 40
0.3476594889
 40
0.3589777045
 40
0.3703930709
 40
0.38197381
 40
0.3937826846
 40
0.4058782003
 40
0.4182994715
 40
0.4442162009
 40
0.4717098411
 40
0.5008555228
 40
0.5316722412
 40
0.5641415466
 40
0.5981949798
 40
0.6337542065
 40
0.6707122451
 40
0.7089487231
 40
0.7483316065
 40
0.8299318266
 40
0.9142796412
 40
1.0
 40
1.0
 40
1.0
 40
1.0
 10
8.2291169885
 20
5.1168536626
 30
0.0
 10
8.2285543637
 20
5.1155070658
 30
0.0
 10
8.2273928058
 20
5.1128453982
 30
0.0
 10
8.2255165988
 20
5.1089257497
 30
0.0
 10
8.2234814545
 20
5.1050939932
 30
0.0
 10
8.2212495684
 20
5.1013337594
 30
0.0
 10
8.218784024
 20
5.0976273691
 30
0.0
 10
8.2160123467
 20
5.0939815024
 30
0.0
 10
8.2128681081
 20
5.0904113448
 30
0.0
 10
8.2092968651
 20
5.0869484647
 30
0.0
 10
8.2052307181
 20
5.0836754779
 30
0.0
 10
8.2014457742
 20
5.0812250926
 30
0.0
 10
8.198162169
 20
5.0794629642
 30
0.0
 10
8.1955492344
 20
5.0782493216
 30
0.0
 10
8.1928214909
 20
5.0771777679
 30
0.0
 10
8.1899893947
 20
5.076267693
 30
0.0
 10
8.1870701052
 20
5.0755289479
 30
0.0
 10
8.1840824012
 20
5.0749727506
 30
0.0
 10
8.1810456381
 20
5.0746100442
 30
0.0
 10
8.1779800994
 20
5.0744532992
 30
0.0
 10
8.1749081021
 20
5.0745007715
 30
0.0
 10
8.171851779
 20
5.0747484689
 30
0.0
 10
8.1688331743
 20
5.0751925655
 30
0.0
 10
8.1658740726
 20
5.0758312854
 30
0.0
 10
8.1629929098
 20
5.0766526904
 30
0.0
 10
8.1593070052
 20
5.0779562127
 30
0.0
 10
8.154974711
 20
5.079939208
 30
0.0
 10
8.1502401727
 20
5.0828143533
 30
0.0
 10
8.1466900431
 20
5.085518419
 30
0.0
 10
8.1441073115
 20
5.0877907187
 30
0.0
 10
8.141745156
 20
5.0900591064
 30
0.0
 10
8.1390630616
 20
5.0929790157
 30
0.0
 10
8.1366589486
 20
5.0960313906
 30
0.0
 10
8.1349028414
 20
5.0984945848
 30
0.0
 10
8.1332607545
 20
5.1009412925
 30
0.0
 10
8.1313582457
 20
5.1040453417
 30
0.0
 10
8.1292768807
 20
5.1078571443
 30
0.0
 10
8.1273611481
 20
5.1117514264
 30
0.0
 10
8.1255725228
 20
5.1157422546
 30
0.0
 10
8.1238940886
 20
5.1198481792
 30
0.0
 10
8.1223079764
 20
5.1240831284
 30
0.0
 10
8.1207968261
 20
5.1284587576
 30
0.0
 10
8.1188400645
 20
5.1345805623
 30
0.0
 10
8.1165462453
 20
5.1426518494
 30
0.0
 10
8.1140251592
 20
5.1528666296
 30
0.0
 10
8.1116769718
 20
5.1637619017
 30
0.0
 10
8.1094926623
 20
5.1753367366
 30
0.0
 10
8.1074665428
 20
5.1875744551
 30
0.0
 10
8.1055999255
 20
5.200448315
 30
0.0
 10
8.103894893
 20
5.2139211961
 30
0.0
 10
8.102354635
 20
5.2279501708
 30
0.0
 10
8.1009833549
 20
5.2424860925
 30
0.0
 10
8.0993668598
 20
5.2627105554
 30
0.0
 10
8.0978135996
 20
5.2888317377
 30
0.0
 10
8.096696829
 20
5.3208836594
 30
0.0
 10
8.096447854
 20
5.3425553124
 30
0.0
 10
8.096447854
 20
5.353478145
 30
0.0
  0
SPLINE
  5
2CB
100
AcDbEntity
  8
0
100
AcDbSpline
 62
7
  6
CONTINUOUS
 70
0
 71
3
 72
73
 73
69
 74
0
 42
0.0000001
 43
0.0000001
 44
0.0000000001
 40
0.0
 40
0.0
 40
0.0
 40
0.0
 40
0.0323778833
 40
0.0477553595
 40
0.0625843077
 40
0.0906225383
 40
0.1038527602
 40
0.1165862275
 40
0.1288610999
 40
0.1407192723
 40
0.1522269891
 40
0.1634755819
 40
0.1690339734
 40
0.1745689684
 40
0.1801008916
 40
0.1856515319
 40
0.1912440746
 40
0.1969027298
 40
0.2026491989
 40
0.2085057407
 40
0.2206549194
 40
0.2335299044
 40
0.2402496403
 40
0.2471665681
 40
0.2542753924
 40
0.2615407235
 40
0.2689320901
 40
0.2764257675
 40
0.2839832332
 40
0.291557832
 40
0.2953384332
 40
0.2991073762
 40
0.3065937458
 40
0.3139847288
 40
0.3212388576
 40
0.3283177999
 40
0.3352173698
 40
0.3419354578
 40
0.348460182
 40
0.3547800333
 40
0.3609175929
 40
0.3669016021
 40
0.3727553182
 40
0.3784969009
 40
0.384147123
 40
0.3952776108
 40
0.4008088867
 40
0.4063469001
 40
0.417511522
 40
0.4288873862
 40
0.4405765442
 40
0.4651730647
 40
0.4781730596
 40
0.4916874752
 40
0.5203103437
 40
0.5354388474
 40
0.5511145962
 40
0.5840744497
 40
0.619115228
 40
0.656113733
 40
0.6949183853
 40
0.735349401
 40
0.7772096229
 40
0.8202804704
 40
0.8643333213
 40
0.9091382429
 40
0.9544555293
 40
1.0
 40
1.0
 40
1.0
 40
1.0
 10
8.7740624052
 20
5.1342634359
 30
0.0
 10
8.7730967238
 20
5.1287611375
 30
0.0
 10
8.7715706242
 20
5.120662653
 30
0.0
 10
8.769327103
 20
5.110099726
 30
0.0
 10
8.7670774947
 20
5.1003050938
 30
0.0
 10
8.7646601163
 20
5.0909297226
 30
0.0
 10
8.7620331932
 20
5.0819895884
 30
0.0
 10
8.7600169627
 20
5.0757068086
 30
0.0
 10
8.7579032705
 20
5.0697064398
 30
0.0
 10
8.7556794068
 20
5.0639720428
 30
0.0
 10
8.7533189025
 20
5.0584844134
 30
0.0
 10
8.7511975779
 20
5.0540815921
 30
0.0
 10
8.7494002001
 20
5.0506710516
 30
0.0
 10
8.7479965967
 20
5.0481689924
 30
0.0
 10
8.7465205498
 20
5.0457104517
 30
0.0
 10
8.7449609462
 20
5.0432921223
 30
0.0
 10
8.7433061864
 20
5.0409111286
 30
0.0
 10
8.741546513
 20
5.0385641221
 30
0.0
 10
8.739665157
 20
5.036254059
 30
0.0
 10
8.7369348471
 20
5.0331961787
 30
0.0
 10
8.7330892445
 20
5.0294939636
 30
0.0
 10
8.7287309096
 20
5.0261523265
 30
0.0
 10
8.724842132
 20
5.0237376121
 30
0.0
 10
8.7216712885
 20
5.0220698847
 30
0.0
 10
8.7182982866
 20
5.020605919
 30
0.0
 10
8.7147453226
 20
5.0193779288
 30
0.0
 10
8.7110401679
 20
5.0184229609
 30
0.0
 10
8.7072166595
 20
5.0177812498
 30
0.0
 10
8.7033214365
 20
5.0174623163
 30
0.0
 10
8.7000539858
 20
5.0174708476
 30
0.0
 10
8.6974497248
 20
5.0176470992
 30
0.0
 10
8.6948709572
 20
5.0179368225
 30
0.0
 10
8.6916995332
 20
5.01850158
 30
0.0
 10
8.6880037072
 20
5.0194774492
 30
0.0
 10
8.684463327
 20
5.020720377
 30
0.0
 10
8.6811106069
 20
5.0222059794
 30
0.0
 10
8.6779606096
 20
5.023894567
 30
0.0
 10
8.6750173057
 20
5.0257474064
 30
0.0
 10
8.6722816265
 20
5.0277281716
 30
0.0
 10
8.6697480631
 20
5.0298066116
 30
0.0
 10
8.667407026
 20
5.0319639492
 30
0.0
 10
8.6652413053
 20
5.0341858607
 30
0.0
 10
8.6632324116
 20
5.0364597135
 30
0.0
 10
8.661359673
 20
5.0387730334
 30
0.0
 10
8.659033714
 20
5.0418869682
 30
0.0
 10
8.6569047526
 20
5.0450988423
 30
0.0
 10
8.6549445219
 20
5.0483899491
 30
0.0
 10
8.6530751167
 20
5.0517403335
 30
0.0
 10
8.6508778951
 20
5.0560603392
 30
0.0
 10
8.6484440147
 20
5.061443315
 30
0.0
 10
8.6453496877
 20
5.0690640321
 30
0.0
 10
8.6425500078
 20
5.0770999181
 30
0.0
 10
8.639972193
 20
5.0855337189
 30
0.0
 10
8.637401293
 20
5.094693821
 30
0.0
 10
8.6350349731
 20
5.104289665
 30
0.0
 10
8.6328311689
 20
5.114303684
 30
0.0
 10
8.6306357479
 20
5.1250845471
 30
0.0
 10
8.6280673435
 20
5.1392935156
 30
0.0
 10
8.6252893469
 20
5.1571971113
 30
0.0
 10
8.6227714923
 20
5.176156768
 30
0.0
 10
8.6205224372
 20
5.1960861704
 30
0.0
 10
8.6185505019
 20
5.2168875089
 30
0.0
 10
8.6168652318
 20
5.2384523252
 30
0.0
 10
8.6154740135
 20
5.2606641901
 30
0.0
 10
8.6143844391
 20
5.2834015015
 30
0.0
 10
8.6136017602
 20
5.3065392381
 30
0.0
 10
8.6131309642
 20
5.3299427634
 30
0.0
 10
8.6130259159
 20
5.3456200192
 30
0.0
 10
8.6130259159
 20
5.353478145
 30
0.0
  0
SPLINE
  5
2CC
100
AcDbEntity
  8
0
100
AcDbSpline
 62
7
  6
CONTINUOUS
 70
0
 71
3
 72
23
 73
19
 74
0
 42
0.0000001
 43
0.0000001
 44
0.0000000001
 40
0.0
 40
0.0
 40
0.0
 40
0.0
 40
0.0623347274
 40
0.1248120515
 40
0.187387412
 40
0.2500310701
 40
0.3127245388
 40
0.3754500918
 40
0.438189376
 40
0.5009234993
 40
0.5636339794
 40
0.6263015471
 40
0.6889061465
 40
0.751422473
 40
0.8138211955
 40
0.8760726872
 40
0.9381462853
 40
1.0
 40
1.0
 40
1.0
 40
1.0
 10
8.2180519158
 20
5.1139176469
 30
0.0
 10
8.2265747867
 20
5.1168920686
 30
0.0
 10
8.243792726
 20
5.122419955
 30
0.0
 10
8.27002277
 20
5.1294168404
 30
0.0
 10
8.2966147731
 20
5.1351010657
 30
0.0
 10
8.3234887211
 20
5.1394515465
 30
0.0
 10
8.3505682068
 20
5.142455989
 30
0.0
 10
8.3777780559
 20
5.1441003494
 30
0.0
 10
8.4050419296
 20
5.1443829524
 30
0.0
 10
8.4322836767
 20
5.1433012065
 30
0.0
 10
8.4594266484
 20
5.1408571899
 30
0.0
 10
8.4863950631
 20
5.1370628508
 30
0.0
 10
8.5131118324
 20
5.1319270067
 30
0.0
 10
8.5395004199
 20
5.1254706312
 30
0.0
 10
8.5654841634
 20
5.1177175332
 30
0.0
 10
8.5909864603
 20
5.1086934921
 30
0.0
 10
8.6159320319
 20
5.0984360154
 30
0.0
 10
8.6321752179
 20
5.0907839186
 30
0.0
 10
8.6401802872
 20
5.0867648851
 30
0.0
  0
SPLINE
  5
2CD
100
AcDbEntity
  8
0
100
AcDbSpline
 62
7
  6
CONTINUOUS
 70
0
 71
3
 72
23
 73
19
 74
0
 42
0.0000001
 43
0.0000001
 44
0.0000000001
 40
0.0
 40
0.0
 40
0.0
 40
0.0
 40
0.0618537124
 40
0.1239269137
 40
0.1861780599
 40
0.2485764096
 40
0.3110922677
 40
0.3736963413
 40
0.4363636524
 40
0.4990740648
 40
0.5618081998
 40
0.62454756
 40
0.6872733056
 40
0.7499671972
 40
0.8126114624
 40
0.8751875079
 40
0.9376651996
 40
1.0
 40
1.0
 40
1.0
 40
1.0
 10
8.6401077481
 20
5.6201549787
 30
0.0
 10
8.6321035687
 20
5.6161379022
 30
0.0
 10
8.6158623447
 20
5.6084896534
 30
0.0
 10
8.590920135
 20
5.5982375467
 30
0.0
 10
8.5654216201
 20
5.5892184584
 30
0.0
 10
8.5394419815
 20
5.5814699442
 30
0.0
 10
8.5130578697
 20
5.5750174719
 30
0.0
 10
8.4863457367
 20
5.5698854013
 30
0.0
 10
8.459382169
 20
5.5660940772
 30
0.0
 10
8.4322441308
 20
5.5636525356
 30
0.0
 10
8.4050073947
 20
5.5625730121
 30
0.0
 10
8.3777485941
 20
5.5628570129
 30
0.0
 10
8.3505438128
 20
5.5645024773
 30
0.0
 10
8.3234693432
 20
5.5675075218
 30
0.0
 10
8.2966002959
 20
5.57185799
 30
0.0
 10
8.2700131722
 20
5.5775418795
 30
0.0
 10
8.2437879661
 20
5.5845378379
 30
0.0
 10
8.2265732048
 20
5.5900647735
 30
0.0
 10
8.2180519158
 20
5.5930386431
 30
0.0
  0
SPLINE
  5
2CE
100
AcDbEntity
  8
0
100
AcDbSpline
 62
7
  6
CONTINUOUS
 70
0
 71
3
 72
73
 73
69
 74
0
 42
0.0000001
 43
0.0000001
 44
0.0000000001
 40
0.0
 40
0.0
 40
0.0
 40
0.0
 40
0.0455451474
 40
0.0908630798
 40
0.1356685972
 40
0.1797219933
 40
0.2227933176
 40
0.2646538917
 40
0.3050851493
 40
0.3438900074
 40
0.380888663
 40
0.4159290987
 40
0.4488879063
 40
0.4645627782
 40
0.4796902996
 40
0.5083124235
 40
0.5218255974
 40
0.5348250654
 40
0.5473447473
 40
0.5594241081
 40
0.5711120606
 40
0.5824899634
 40
0.5880924945
 40
0.5936539068
 40
0.6047205026
 40
0.6102686718
 40
0.6158566528
 40
0.6215086588
 40
0.6272466705
 40
0.6330926423
 40
0.6390726677
 40
0.6452171445
 40
0.651548886
 40
0.6647617858
 40
0.67166109
 40
0.6787545838
 40
0.686007671
 40
0.6933890904
 40
0.7084154434
 40
0.7159904813
 40
0.7197727144
 40
0.7235440309
 40
0.7310371115
 40
0.7384380947
 40
0.7457060787
 40
0.7528009996
 40
0.7664421972
 40
0.7729845769
 40
0.7793219308
 40
0.7854742437
 40
0.7914707139
 40
0.7973350755
 40
0.8030858296
 40
0.8087430217
 40
0.8143333051
 40
0.8254127305
 40
0.8309494291
 40
0.8365097998
 40
0.8477578322
 40
0.8592648334
 40
0.871125836
 40
0.8834012002
 40
0.8961349107
 40
0.9093673213
 40
0.9374084277
 40
0.9522390216
 40
0.9676185948
 40
1.0
 40
1.0
 40
1.0
 40
1.0
 10
8.6130259159
 20
5.353478145
 30
0.0
 10
8.6130259159
 20
5.361336496
 30
0.0
 10
8.6131309702
 20
5.3770141964
 30
0.0
 10
8.6136017929
 20
5.4004183756
 30
0.0
 10
8.6143845153
 20
5.423556739
 30
0.0
 10
8.615474151
 20
5.4462946416
 30
0.0
 10
8.6168654455
 20
5.4685070472
 30
0.0
 10
8.6185508064
 20
5.4900723413
 30
0.0
 10
8.6205228437
 20
5.5108740986
 30
0.0
 10
8.6227720225
 20
5.5308038698
 30
0.0
 10
8.6252900071
 20
5.549763778
 30
0.0
 10
8.6280681132
 20
5.5676673942
 30
0.0
 10
8.6306365892
 20
5.581876154
 30
0.0
 10
8.6328320186
 20
5.592656661
 30
0.0
 10
8.6350358024
 20
5.6026703609
 30
0.0
 10
8.6374023985
 20
5.6122658058
 30
0.0
 10
8.6399729216
 20
5.6214255625
 30
0.0
 10
8.6419418504
 20
5.6278666702
 30
0.0
 10
8.6440008769
 20
5.6340193599
 30
0.0
 10
8.6461631992
 20
5.6398961447
 30
0.0
 10
8.648444684
 20
5.6455158793
 30
0.0
 10
8.6504848038
 20
5.650023802
 30
0.0
 10
8.6522085346
 20
5.6535107259
 30
0.0
 10
8.6539894434
 20
5.6569081214
 30
0.0
 10
8.6558982172
 20
5.6602272604
 30
0.0
 10
8.6579654724
 20
5.6634531938
 30
0.0
 10
8.6596114783
 20
5.6658374404
 30
0.0
 10
8.6613615279
 20
5.6681874476
 30
0.0
 10
8.6632313436
 20
5.6705011231
 30
0.0
 10
8.6652411265
 20
5.6727708275
 30
0.0
 10
8.6674093749
 20
5.6749890871
 30
0.0
 10
8.6697534105
 20
5.6771470894
 30
0.0
 10
8.6731767109
 20
5.6799651027
 30
0.0
 10
8.676966187
 20
5.6825347564
 30
0.0
 10
8.6811096658
 20
5.6847479741
 30
0.0
 10
8.6844659072
 20
5.686231123
 30
0.0
 10
8.6880045205
 20
5.6874812434
 30
0.0
 10
8.6929551711
 20
5.688795933
 30
0.0
 10
8.6981139999
 20
5.6894731138
 30
0.0
 10
8.7026704922
 20
5.6894947982
 30
0.0
 10
8.7052769802
 20
5.6893384831
 30
0.0
 10
8.7078597432
 20
5.6890684274
 30
0.0
 10
8.7110385745
 20
5.6885262794
 30
0.0
 10
8.7147463001
 20
5.6875751181
 30
0.0
 10
8.7183019276
 20
5.6863543927
 30
0.0
 10
8.7227365267
 20
5.6844257523
 30
0.0
 10
8.7268325215
 20
5.6820697298
 30
0.0
 10
8.7305549794
 20
5.6794051056
 30
0.0
 10
8.7331061158
 20
5.6773341637
 30
0.0
 10
8.735463354
 20
5.6751830501
 30
0.0
 10
8.7376436692
 20
5.6729661782
 30
0.0
 10
8.7396655296
 20
5.6706962817
 30
0.0
 10
8.7415493077
 20
5.6683859481
 30
0.0
 10
8.7433126945
 20
5.6660414805
 30
0.0
 10
8.7455110744
 20
5.6628771589
 30
0.0
 10
8.747529853
 20
5.6596169571
 30
0.0
 10
8.7494018337
 20
5.6562795193
 30
0.0
 10
8.751201691
 20
5.652869556
 30
0.0
 10
8.7533222053
 20
5.6484660896
 30
0.0
 10
8.7556811645
 20
5.6429774491
 30
0.0
 10
8.7579063822
 20
5.6372430144
 30
0.0
 10
8.7600198099
 20
5.631241786
 30
0.0
 10
8.7620355517
 20
5.6249582331
 30
0.0
 10
8.7646628767
 20
5.6160171302
 30
0.0
 10
8.7670801866
 20
5.6066403996
 30
0.0
 10
8.7693297442
 20
5.5968444438
 30
0.0
 10
8.7715733325
 20
5.5862800972
 30
0.0
 10
8.7730994265
 20
5.5781805089
 30
0.0
 10
8.7740650967
 20
5.5726775133
 30
0.0
  0
SPLINE
  5
2CF
100
AcDbEntity
  8
0
100
AcDbSpline
 62
9
  6
CONTINUOUS
 70
0
 71
3
 72
56
 73
52
 74
0
 42
0.0000001
 43
0.0000001
 44
0.0000000001
 40
0.0
 40
0.0
 40
0.0
 40
0.0
 40
0.0358177725
 40
0.0687432681
 40
0.0840802165
 40
0.0986463209
 40
0.1124282989
 40
0.1254168679
 40
0.1376052845
 40
0.1489888138
 40
0.1595657016
 40
0.1693403929
 40
0.1783233982
 40
0.1865317129
 40
0.1939916119
 40
0.2007443107
 40
0.2068500522
 40
0.2123929318
 40
0.2174879753
 40
0.2222861556
 40
0.2269689275
 40
0.2317310025
 40
0.2367578896
 40
0.2422071142
 40
0.2482002049
 40
0.2548265373
 40
0.2621503375
 40
0.2702161654
 40
0.2790525638
 40
0.2886780287
 40
0.2991041623
 40
0.310336666
 40
0.3223746453
 40
0.3352138308
 40
0.3488478375
 40
0.3632680425
 40
0.3784617163
 40
0.3944143015
 40
0.428532642
 40
0.4654806044
 40
0.5050903473
 40
0.5471772709
 40
0.5915371955
 40
0.6379548409
 40
0.6862001649
 40
0.7360336394
 40
0.7872004098
 40
0.8394443058
 40
0.892511978
 40
0.9461356257
 40
1.0
 40
1.0
 40
1.0
 40
1.0
 10
8.772748006
 20
5.133369256
 30
0.0
 10
8.7718604604
 20
5.1286528982
 30
0.0
 10
8.7700430176
 20
5.1196218783
 30
0.0
 10
8.7674832818
 20
5.1086484169
 30
0.0
 10
8.7653410833
 20
5.1005067816
 30
0.0
 10
8.7637365849
 20
5.0948772568
 30
0.0
 10
8.7620979487
 20
5.0895860519
 30
0.0
 10
8.7604274735
 20
5.0846398688
 30
0.0
 10
8.7587274837
 20
5.0800448348
 30
0.0
 10
8.7570002378
 20
5.075806842
 30
0.0
 10
8.7552476791
 20
5.071931419
 30
0.0
 10
8.7534721567
 20
5.0684231917
 30
0.0
 10
8.7516759682
 20
5.0652860164
 30
0.0
 10
8.7498611105
 20
5.0625233878
 30
0.0
 10
8.7480288572
 20
5.0601385637
 30
0.0
 10
8.7461802746
 20
5.0581339769
 30
0.0
 10
8.7443157344
 20
5.0565116052
 30
0.0
 10
8.7424343884
 20
5.055274571
 30
0.0
 10
8.7405350802
 20
5.0544290337
 30
0.0
 10
8.7386200424
 20
5.0539836375
 30
0.0
 10
8.736697782
 20
5.0539453412
 30
0.0
 10
8.734780563
 20
5.0543149206
 30
0.0
 10
8.7328779574
 20
5.0550861912
 30
0.0
 10
8.7309933123
 20
5.0562505121
 30
0.0
 10
8.7291257097
 20
5.0578010087
 30
0.0
 10
8.7272741564
 20
5.0597341883
 30
0.0
 10
8.7254387596
 20
5.0620479606
 30
0.0
 10
8.7236205793
 20
5.0647400865
 30
0.0
 10
8.7218207449
 20
5.0678073756
 30
0.0
 10
8.7200411911
 20
5.0712463986
 30
0.0
 10
8.7182841353
 20
5.0750533852
 30
0.0
 10
8.7165520114
 20
5.0792238933
 30
0.0
 10
8.7148467425
 20
5.0837525091
 30
0.0
 10
8.7131705709
 20
5.0886333918
 30
0.0
 10
8.7115257745
 20
5.0938604768
 30
0.0
 10
8.7099147736
 20
5.0994271995
 30
0.0
 10
8.7083394297
 20
5.1053262214
 30
0.0
 10
8.7062420636
 20
5.1138160698
 30
0.0
 10
8.703741412
 20
5.1252064198
 30
0.0
 10
8.7009766842
 20
5.139777301
 30
0.0
 10
8.6983997038
 20
5.1554654277
 30
0.0
 10
8.6960247479
 20
5.1721888392
 30
0.0
 10
8.6938640895
 20
5.1898604667
 30
0.0
 10
8.6919299104
 20
5.2083880281
 30
0.0
 10
8.6902320364
 20
5.22767498
 30
0.0
 10
8.6887802233
 20
5.2476200031
 30
0.0
 10
8.6875811392
 20
5.2681184591
 30
0.0
 10
8.6866418017
 20
5.2890642073
 30
0.0
 10
8.6859675107
 20
5.3103495086
 30
0.0
 10
8.6855631592
 20
5.3318587524
 30
0.0
 10
8.6854722914
 20
5.3462609792
 30
0.0
 10
8.6854713989
 20
5.353478145
 30
0.0
  0
SPLINE
  5
2D0
100
AcDbEntity
  8
0
100
AcDbSpline
 62
9
  6
CONTINUOUS
 70
0
 71
3
 72
56
 73
52
 74
0
 42
0.0000001
 43
0.0000001
 44
0.0000000001
 40
0.0
 40
0.0
 40
0.0
 40
0.0
 40
0.0538657127
 40
0.1074905655
 40
0.1605594814
 40
0.2128049132
 40
0.2639735662
 40
0.3138092424
 40
0.3620571664
 40
0.4084779546
 40
0.4528415545
 40
0.4949327584
 40
0.5345472777
 40
0.5715006016
 40
0.6056247668
 40
0.6215804724
 40
0.6367773885
 40
0.6512009374
 40
0.6648384111
 40
0.677681197
 40
0.6897228815
 40
0.7009591643
 40
0.7113891509
 40
0.7210185445
 40
0.7298588909
 40
0.7379286188
 40
0.745256211
 40
0.7518861643
 40
0.7578825541
 40
0.763334565
 40
0.7683635109
 40
0.7731267099
 40
0.7778095005
 40
0.7826065624
 40
0.787699458
 40
0.7932393152
 40
0.7993413466
 40
0.806089821
 40
0.8135451198
 40
0.8217485182
 40
0.8307263658
 40
0.8404957313
 40
0.8510671856
 40
0.8624451768
 40
0.8746279751
 40
0.8876108855
 40
0.9013872015
 40
0.915947636
 40
0.9312789151
 40
0.9641931964
 40
1.0
 40
1.0
 40
1.0
 40
1.0
 10
8.6854713989
 20
5.353478145
 30
0.0
 10
8.6854724117
 20
5.3606943463
 30
0.0
 10
8.6855632905
 20
5.3750946296
 30
0.0
 10
8.6859673538
 20
5.3966009764
 30
0.0
 10
8.68664144
 20
5.4178834421
 30
0.0
 10
8.6875805721
 20
5.4388264984
 30
0.0
 10
8.6887793421
 20
5.4593224668
 30
0.0
 10
8.6902307532
 20
5.4792652393
 30
0.0
 10
8.6919281891
 20
5.4985502176
 30
0.0
 10
8.6938618696
 20
5.5170761311
 30
0.0
 10
8.6960220016
 20
5.5347464779
 30
0.0
 10
8.6983963698
 20
5.5514689915
 30
0.0
 10
8.7009727557
 20
5.5671566191
 30
0.0
 10
8.7037368403
 20
5.5817274058
 30
0.0
 10
8.7062369265
 20
5.5931179486
 30
0.0
 10
8.7083338107
 20
5.6016081699
 30
0.0
 10
8.7099088108
 20
5.6075076277
 30
0.0
 10
8.7115194702
 20
5.6130748947
 30
0.0
 10
8.7131639234
 20
5.6183026389
 30
0.0
 10
8.7148397483
 20
5.6231843011
 30
0.0
 10
8.7165446714
 20
5.6277138135
 30
0.0
 10
8.7182764557
 20
5.6318853312
 30
0.0
 10
8.7200331776
 20
5.6356934439
 30
0.0
 10
8.7218123954
 20
5.6391337166
 30
0.0
 10
8.7236118979
 20
5.6422023727
 30
0.0
 10
8.7254297526
 20
5.6448959741
 30
0.0
 10
8.7272648312
 20
5.6472113277
 30
0.0
 10
8.7291160548
 20
5.6491462101
 30
0.0
 10
8.7309833195
 20
5.6506985277
 30
0.0
 10
8.732867616
 20
5.6518647915
 30
0.0
 10
8.7347698727
 20
5.6526381362
 30
0.0
 10
8.7366867638
 20
5.6530099664
 30
0.0
 10
8.7386087665
 20
5.652974058
 30
0.0
 10
8.7405236188
 20
5.6525311251
 30
0.0
 10
8.7424227713
 20
5.6516880897
 30
0.0
 10
8.7443039757
 20
5.6504536346
 30
0.0
 10
8.7461683743
 20
5.6488339181
 30
0.0
 10
8.7480168182
 20
5.6468320654
 30
0.0
 10
8.7498489336
 20
5.6444500512
 30
0.0
 10
8.7516636754
 20
5.6416903212
 30
0.0
 10
8.7534597659
 20
5.6385561241
 30
0.0
 10
8.7552352103
 20
5.6350509433
 30
0.0
 10
8.7569877061
 20
5.6311786262
 30
0.0
 10
8.7587149164
 20
5.626943801
 30
0.0
 10
8.7604148955
 20
5.622351992
 30
0.0
 10
8.7620853839
 20
5.6174090811
 30
0.0
 10
8.7637240535
 20
5.6121211879
 30
0.0
 10
8.7653286122
 20
5.6064950128
 30
0.0
 10
8.7674709524
 20
5.5983579182
 30
0.0
 10
8.7700309169
 20
5.5873901732
 30
0.0
 10
8.7718485539
 20
5.5783637122
 30
0.0
 10
8.7727362183
 20
5.573649646
 30
0.0
  0
SPLINE
  5
2D1
100
AcDbEntity
  8
0
100
AcDbSpline
 62
7
  6
CONTINUOUS
 70
0
 71
3
 72
35
 73
31
 74
0
 42
0.0000001
 43
0.0000001
 44
0.0000000001
 40
0.0
 40
0.0
 40
0.0
 40
0.0
 40
0.0942258602
 40
0.187617073
 40
0.2792275568
 40
0.3682356693
 40
0.4538219637
 40
0.5351900701
 40
0.6116029312
 40
0.6477368789
 40
0.6823811584
 40
0.7154587042
 40
0.7469020992
 40
0.7766476181
 40
0.8046347599
 40
0.8308143252
 40
0.8551447621
 40
0.8775899986
 40
0.8981285933
 40
0.9167552608
 40
0.9334794079
 40
0.9483379514
 40
0.9614091119
 40
0.9728239751
 40
0.9779785155
 40
0.9828106255
 40
0.987367601
 40
0.9917061606
 40
0.995892345
 40
1.0
 40
1.0
 40
1.0
 40
1.0
 10
8.6978004195
 20
5.353478145
 30
0.0
 10
8.6978004195
 20
5.3460138464
 30
0.0
 10
8.6979268444
 20
5.3311510544
 30
0.0
 10
8.6984933886
 20
5.3090376616
 30
0.0
 10
8.6994321065
 20
5.2873505162
 30
0.0
 10
8.700733327
 20
5.2663014577
 30
0.0
 10
8.7023836313
 20
5.24609066
 30
0.0
 10
8.7043674268
 20
5.22691257
 30
0.0
 10
8.7063159799
 20
5.2116733308
 30
0.0
 10
8.708039833
 20
5.2001410434
 30
0.0
 10
8.7093789015
 20
5.1920232442
 30
0.0
 10
8.7107853622
 20
5.1842941998
 30
0.0
 10
8.712255474
 20
5.1769723621
 30
0.0
 10
8.7137855014
 20
5.1700752282
 30
0.0
 10
8.7153720902
 20
5.1636194056
 30
0.0
 10
8.7170111105
 20
5.1576201768
 30
0.0
 10
8.7186982325
 20
5.1520916021
 30
0.0
 10
8.7204296931
 20
5.1470467881
 30
0.0
 10
8.7222012423
 20
5.1424973441
 30
0.0
 10
8.7240081878
 20
5.1384531166
 30
0.0
 10
8.7258466696
 20
5.1349228363
 30
0.0
 10
8.7277136553
 20
5.1319131906
 30
0.0
 10
8.7296054373
 20
5.129429374
 30
0.0
 10
8.7312561362
 20
5.1277461629
 30
0.0
 10
8.732590116
 20
5.1266963735
 30
0.0
 10
8.7335609039
 20
5.1260722664
 30
0.0
 10
8.7345357413
 20
5.125585053
 30
0.0
 10
8.7355143558
 20
5.1252357165
 30
0.0
 10
8.736495706
 20
5.1250253712
 30
0.0
 10
8.7371536316
 20
5.1249783382
 30
0.0
 10
8.7374790281
 20
5.1249783295
 30
0.0
  0
SPLINE
  5
2D2
100
AcDbEntity
  8
0
100
AcDbSpline
 62
9
  6
CONTINUOUS
 70
0
 71
3
 72
49
 73
45
 74
0
 42
0.0000001
 43
0.0000001
 44
0.0000000001
 40
0.0
 40
0.0
 40
0.0
 40
0.0
 40
0.0353679044
 40
0.0678326817
 40
0.0972675809
 40
0.123568407
 40
0.1355257735
 40
0.1466815142
 40
0.1570349247
 40
0.1665909039
 40
0.1753623961
 40
0.1833695488
 40
0.190642236
 40
0.1972241827
 40
0.2031801594
 40
0.2086021516
 40
0.213613455
 40
0.2183711853
 40
0.2230598493
 40
0.2278728094
 40
0.2329880501
 40
0.2385530543
 40
0.2446815146
 40
0.2514572373
 40
0.2589381452
 40
0.2671633746
 40
0.2761595774
 40
0.2859445954
 40
0.2965292807
 40
0.3079164877
 40
0.3201045401
 40
0.333089131
 40
0.3614183694
 40
0.3928187734
 40
0.4271689989
 40
0.4643281555
 40
0.5041246954
 40
0.5463765813
 40
0.5908817955
 40
0.6374260551
 40
0.6857830608
 40
0.7869507382
 40
0.8924086238
 40
1.0
 40
1.0
 40
1.0
 40
1.0
 10
8.825692282
 20
5.2363889611
 30
0.0
 10
8.8252230819
 20
5.2339578747
 30
0.0
 10
8.8242631368
 20
5.2293064761
 30
0.0
 10
8.8226785521
 20
5.2226827904
 30
0.0
 10
8.8210178305
 20
5.2167341307
 30
0.0
 10
8.8195339794
 20
5.212230926
 30
0.0
 10
8.8183030973
 20
5.2089974928
 30
0.0
 10
8.8173956373
 20
5.2068369694
 30
0.0
 10
8.8164754674
 20
5.2048657927
 30
0.0
 10
8.8155435561
 20
5.2030864216
 30
0.0
 10
8.8146011864
 20
5.2015006882
 30
0.0
 10
8.8136493453
 20
5.2001101641
 30
0.0
 10
8.8126888288
 20
5.198916307
 30
0.0
 10
8.8117198826
 20
5.1979206015
 30
0.0
 10
8.8107423921
 20
5.1971244768
 30
0.0
 10
8.8097560739
 20
5.1965295018
 30
0.0
 10
8.8087606939
 20
5.1961387675
 30
0.0
 10
8.8077579219
 20
5.1959568052
 30
0.0
 10
8.8067527472
 20
5.1959876036
 30
0.0
 10
8.8057517524
 20
5.1962303534
 30
0.0
 10
8.8047589454
 20
5.1966805006
 30
0.0
 10
8.8037752441
 20
5.1973338023
 30
0.0
 10
8.802800226
 20
5.1981876583
 30
0.0
 10
8.8018337292
 20
5.199240717
 30
0.0
 10
8.8008756683
 20
5.200491493
 30
0.0
 10
8.799926484
 20
5.2019385295
 30
0.0
 10
8.7989870361
 20
5.2035803229
 30
0.0
 10
8.7980583846
 20
5.205415248
 30
0.0
 10
8.7971418054
 20
5.207441329
 30
0.0
 10
8.7962382656
 20
5.2096559714
 30
0.0
 10
8.7953488594
 20
5.2120562824
 30
0.0
 10
8.7941483155
 20
5.2156045345
 30
0.0
 10
8.7927046538
 20
5.2204879969
 30
0.0
 10
8.7910920105
 20
5.2268749948
 30
0.0
 10
8.7895612752
 20
5.2339159297
 30
0.0
 10
8.7881213749
 20
5.241574656
 30
0.0
 10
8.7867791883
 20
5.2498119421
 30
0.0
 10
8.7855426639
 20
5.2585852991
 30
0.0
 10
8.7844179711
 20
5.2678496322
 30
0.0
 10
8.7834111544
 20
5.2775572614
 30
0.0
 10
8.7822155903
 20
5.2912314958
 30
0.0
 10
8.7810639762
 20
5.3090471969
 30
0.0
 10
8.7802358317
 20
5.3310308176
 30
0.0
 10
8.7800525997
 20
5.3459461495
 30
0.0
 10
8.7800507906
 20
5.353478145
 30
0.0
  0
SPLINE
  5
2D3
100
AcDbEntity
  8
0
100
AcDbSpline
 62
9
  6
CONTINUOUS
 70
0
 71
3
 72
49
 73
45
 74
0
 42
0.0000001
 43
0.0000001
 44
0.0000000001
 40
0.0
 40
0.0
 40
0.0
 40
0.0
 40
0.1075880893
 40
0.213041827
 40
0.3142060596
 40
0.3625610773
 40
0.4091030239
 40
0.4536057905
 40
0.495854838
 40
0.5356482279
 40
0.5728038006
 40
0.6071498882
 40
0.6385456767
 40
0.6668697805
 40
0.679851564
 40
0.6920366823
 40
0.7034208698
 40
0.7140024931
 40
0.7237843447
 40
0.7327772626
 40
0.7409991889
 40
0.748476884
 40
0.7552495985
 40
0.7613752382
 40
0.7669377466
 40
0.7720510577
 40
0.7768628758
 40
0.7815513179
 40
0.7863097894
 40
0.7913227697
 40
0.7967472203
 40
0.8027062249
 40
0.8092915859
 40
0.8165680932
 40
0.8245793741
 40
0.8333551861
 40
0.8429155685
 40
0.8532734141
 40
0.8644336997
 40
0.876395679
 40
0.9027057406
 40
0.9321497113
 40
0.9646234095
 40
1.0
 40
1.0
 40
1.0
 40
1.0
 10
8.7800507906
 20
5.353478145
 30
0.0
 10
8.7800519594
 20
5.3610108852
 30
0.0
 10
8.7802358313
 20
5.3759276341
 30
0.0
 10
8.7810643252
 20
5.3979133152
 30
0.0
 10
8.7822159532
 20
5.4157306614
 30
0.0
 10
8.7834118129
 20
5.4294061095
 30
0.0
 10
8.7844188606
 20
5.4391145093
 30
0.0
 10
8.7855437696
 20
5.448379497
 30
0.0
 10
8.7867805499
 20
5.4571533798
 30
0.0
 10
8.7881230113
 20
5.4653910367
 30
0.0
 10
8.7895632037
 20
5.4730499602
 30
0.0
 10
8.7910942529
 20
5.4800908979
 30
0.0
 10
8.7927072132
 20
5.4864776928
 30
0.0
 10
8.7941511573
 20
5.4913608439
 30
0.0
 10
8.7953519438
 20
5.4949087222
 30
0.0
 10
8.7962415156
 20
5.4973086714
 30
0.0
 10
8.7971452206
 20
5.4995228994
 30
0.0
 10
8.7980619555
 20
5.5015485158
 30
0.0
 10
8.7989907612
 20
5.5033829158
 30
0.0
 10
8.7999303683
 20
5.5050241148
 30
0.0
 10
8.8008797084
 20
5.5064704984
 30
0.0
 10
8.8018379259
 20
5.5077205737
 30
0.0
 10
8.8028045615
 20
5.5087729009
 30
0.0
 10
8.8037797298
 20
5.5096259641
 30
0.0
 10
8.804763593
 20
5.5102783937
 30
0.0
 10
8.8057565621
 20
5.5107275995
 30
0.0
 10
8.8067577038
 20
5.510969345
 30
0.0
 10
8.8077629975
 20
5.5109991241
 30
0.0
 10
8.8087658603
 20
5.5108160653
 30
0.0
 10
8.8097613026
 20
5.5104241929
 30
0.0
 10
8.8107476739
 20
5.5098280597
 30
0.0
 10
8.8117252182
 20
5.5090307659
 30
0.0
 10
8.812694233
 20
5.5080338793
 30
0.0
 10
8.813654796
 20
5.5068387867
 30
0.0
 10
8.8146066772
 20
5.5054469875
 30
0.0
 10
8.8155490786
 20
5.5038599505
 30
0.0
 10
8.8164810159
 20
5.5020792611
 30
0.0
 10
8.8174012092
 20
5.5001067515
 30
0.0
 10
8.8183086726
 20
5.4979448689
 30
0.0
 10
8.8195395307
 20
5.4947095702
 30
0.0
 10
8.821023331
 20
5.490204016
 30
0.0
 10
8.8226839778
 20
5.4842525277
 30
0.0
 10
8.8242684368
 20
5.4776259861
 30
0.0
 10
8.8252282844
 20
5.4729726816
 30
0.0
 10
8.8256974298
 20
5.4705406389
 30
0.0
  0
SPLINE
  5
2D4
100
AcDbEntity
  8
0
100
AcDbSpline
 62
7
  6
CONTINUOUS
 70
0
 71
3
 72
26
 73
22
 74
0
 42
0.0000001
 43
0.0000001
 44
0.0000000001
 40
0.0
 40
0.0
 40
0.0
 40
0.0
 40
0.0082747746
 40
0.0171560211
 40
0.0271320995
 40
0.0385443917
 40
0.0516156314
 40
0.0664790682
 40
0.0832050819
 40
0.1018296947
 40
0.122367454
 40
0.1448162062
 40
0.1953256006
 40
0.2530517654
 40
0.3175756442
 40
0.3883503054
 40
0.4647771332
 40
0.5461521874
 40
0.6317298724
 40
0.8123955922
 40
1.0
 40
1.0
 40
1.0
 40
1.0
 10
8.8645192282
 20
5.4084779676
 30
0.0
 10
8.8643614612
 20
5.4084779598
 30
0.0
 10
8.8640328314
 20
5.4084295014
 30
0.0
 10
8.8635550048
 20
5.4082191109
 30
0.0
 10
8.8630858562
 20
5.4078771256
 30
0.0
 10
8.8626240721
 20
5.4074066988
 30
0.0
 10
8.8621686178
 20
5.4068087288
 30
0.0
 10
8.8617194422
 20
5.406084165
 30
0.0
 10
8.8612768917
 20
5.405234416
 30
0.0
 10
8.860841889
 20
5.4042611232
 30
0.0
 10
8.8604154175
 20
5.4031661752
 30
0.0
 10
8.8598369006
 20
5.4014796461
 30
0.0
 10
8.8591536307
 20
5.3990817902
 30
0.0
 10
8.8584108682
 20
5.395871819
 30
0.0
 10
8.8577250075
 20
5.39225524
 30
0.0
 10
8.8571020839
 20
5.3882662391
 30
0.0
 10
8.8565494664
 20
5.3839428843
 30
0.0
 10
8.8560718346
 20
5.379326845
 30
0.0
 10
8.8555324338
 20
5.3727206969
 30
0.0
 10
8.8550866616
 20
5.3640769953
 30
0.0
 10
8.8549685784
 20
5.3570550155
 30
0.0
 10
8.8549685784
 20
5.353478145
 30
0.0
  0
SPLINE
  5
2D5
100
AcDbEntity
  8
0
100
AcDbSpline
 62
7
  6
CONTINUOUS
 70
0
 71
3
 72
30
 73
26
 74
0
 42
0.0000001
 43
0.0000001
 44
0.0000000001
 40
0.0
 40
0.0
 40
0.0
 40
0.0
 40
0.0942108339
 40
0.1876221057
 40
0.2792453979
 40
0.3682502792
 40
0.4538368897
 40
0.5352115177
 40
0.6116262261
 40
0.6824014961
 40
0.7469235667
 40
0.8046539118
 40
0.8308346419
 40
0.8551666955
 40
0.8776132158
 40
0.8981516931
 40
0.9167784987
 40
0.9335048154
 40
0.9483644267
 40
0.9614342708
 40
0.9728495534
 40
0.9828270364
 40
0.9917062264
 40
0.9958922281
 40
1.0
 40
1.0
 40
1.0
 40
1.0
 10
8.7865625972
 20
5.353478145
 30
0.0
 10
8.7865625972
 20
5.3495589349
 30
0.0
 10
8.7866291201
 20
5.3417536145
 30
0.0
 10
8.786926439
 20
5.3301401403
 30
0.0
 10
8.7874195591
 20
5.3187500294
 30
0.0
 10
8.7881027925
 20
5.3076958091
 30
0.0
 10
8.788969703
 20
5.2970821066
 30
0.0
 10
8.7900112903
 20
5.2870104058
 30
0.0
 10
8.7912175969
 20
5.2775778137
 30
0.0
 10
8.7925761055
 20
5.2688745355
 30
0.0
 10
8.794073225
 20
5.2609837234
 30
0.0
 10
8.7954646671
 20
5.2549651666
 30
0.0
 10
8.7966513348
 20
5.2506208292
 30
0.0
 10
8.7975373692
 20
5.2477173612
 30
0.0
 10
8.7984466182
 20
5.2450679786
 30
0.0
 10
8.799377022
 20
5.2426788317
 30
0.0
 10
8.8003260494
 20
5.2405549952
 30
0.0
 10
8.8012914659
 20
5.2387008735
 30
0.0
 10
8.8022717899
 20
5.2371203146
 30
0.0
 10
8.8032656331
 20
5.2358158472
 30
0.0
 10
8.8042731148
 20
5.2347890136
 30
0.0
 10
8.8052958264
 20
5.234042176
 30
0.0
 10
8.8061834122
 20
5.2336529979
 30
0.0
 10
8.8068839757
 20
5.233503326
 30
0.0
 10
8.8072294935
 20
5.2334786924
 30
0.0
 10
8.8074003785
 20
5.2334786932
 30
0.0
  0
SPLINE
  5
2D6
100
AcDbEntity
  8
0
100
AcDbSpline
 62
9
  6
CONTINUOUS
 70
0
 71
3
 72
38
 73
34
 74
0
 42
0.0000001
 43
0.0000001
 44
0.0000000001
 40
0.0
 40
0.0
 40
0.0
 40
0.0
 40
0.0254102694
 40
0.0479422624
 40
0.0676064731
 40
0.0844633125
 40
0.0986645
 40
0.1048722964
 40
0.1105616262
 40
0.1158177052
 40
0.1207498991
 40
0.1254917658
 40
0.1301948441
 40
0.1350148649
 40
0.1400954615
 40
0.1455582961
 40
0.1515002774
 40
0.1650870655
 40
0.1812677925
 40
0.200229012
 40
0.2220487105
 40
0.2467488225
 40
0.2743003574
 40
0.3046322462
 40
0.3376589935
 40
0.3732810542
 40
0.4113688967
 40
0.4943721492
 40
0.5854285317
 40
0.6830927208
 40
0.7858525053
 40
0.8921211634
 40
1.0
 40
1.0
 40
1.0
 40
1.0
 10
8.8695980248
 20
5.2988106341
 30
0.0
 10
8.8694050085
 20
5.2982158148
 30
0.0
 10
8.8690169208
 20
5.2971009829
 30
0.0
 10
8.868382221
 20
5.2955618867
 30
0.0
 10
8.8677323544
 20
5.294260023
 30
0.0
 10
8.8670697611
 20
5.2931995748
 30
0.0
 10
8.8664824091
 20
5.2924891481
 30
0.0
 10
8.8660032554
 20
5.292059689
 30
0.0
 10
8.8656575689
 20
5.2918154593
 30
0.0
 10
8.8653093909
 20
5.2916349834
 30
0.0
 10
8.8649588143
 20
5.2915192384
 30
0.0
 10
8.864606486
 20
5.2914693717
 30
0.0
 10
8.8642537518
 20
5.2914862876
 30
0.0
 10
8.8639021874
 20
5.2915695941
 30
0.0
 10
8.8635527865
 20
5.2917181867
 30
0.0
 10
8.8632058572
 20
5.2919309514
 30
0.0
 10
8.8627251309
 20
5.2923167284
 30
0.0
 10
8.8621345536
 20
5.2929747066
 30
0.0
 10
8.8614688917
 20
5.2939751386
 30
0.0
 10
8.8608156422
 20
5.2952176519
 30
0.0
 10
8.8601769689
 20
5.2966984434
 30
0.0
 10
8.8595555514
 20
5.2984130764
 30
0.0
 10
8.8589540179
 20
5.3003550459
 30
0.0
 10
8.8583746038
 20
5.3025165084
 30
0.0
 10
8.857819992
 20
5.3048888344
 30
0.0
 10
8.857292843
 20
5.3074625061
 30
0.0
 10
8.856609525
 20
5.3112585382
 30
0.0
 10
8.8558506708
 20
5.316425527
 30
0.0
 10
8.8551031881
 20
5.3230717966
 30
0.0
 10
8.8545072503
 20
5.3302212909
 30
0.0
 10
8.8540737933
 20
5.3377573817
 30
0.0
 10
8.8538129871
 20
5.3455528447
 30
0.0
 10
8.8537541294
 20
5.3508232239
 30
0.0
 10
8.8537530412
 20
5.353478145
 30
0.0
  0
SPLINE
  5
2D7
100
AcDbEntity
  8
0
100
AcDbSpline
 62
9
  6
CONTINUOUS
 70
0
 71
3
 72
38
 73
34
 74
0
 42
0.0000001
 43
0.0000001
 44
0.0000000001
 40
0.0
 40
0.0
 40
0.0
 40
0.0
 40
0.1078864475
 40
0.2141584296
 40
0.3169177074
 40
0.4145771499
 40
0.5056223909
 40
0.5886063726
 40
0.6266819736
 40
0.6622891003
 40
0.6952989568
 40
0.7256122664
 40
0.7531426472
 40
0.7778187944
 40
0.7996133987
 40
0.818548293
 40
0.8347016171
 40
0.8482624714
 40
0.8541931305
 40
0.8596463186
 40
0.8647195848
 40
0.8695353173
 40
0.8742378142
 40
0.8789831264
 40
0.8839225688
 40
0.8891892406
 40
0.8948919877
 40
0.9011155628
 40
0.9153540946
 40
0.9322528369
 40
0.951961619
 40
0.9745406841
 40
1.0
 40
1.0
 40
1.0
 40
1.0
 10
8.8537530412
 20
5.353478145
 30
0.0
 10
8.8537543029
 20
5.3561344358
 30
0.0
 10
8.8538131972
 20
5.3614074277
 30
0.0
 10
8.854074034
 20
5.3692066247
 30
0.0
 10
8.8545079728
 20
5.3767460099
 30
0.0
 10
8.8551045209
 20
5.3838982544
 30
0.0
 10
8.8558526501
 20
5.3905465793
 30
0.0
 10
8.8566122352
 20
5.3957147529
 30
0.0
 10
8.8572961701
 20
5.399511258
 30
0.0
 10
8.8578237986
 20
5.4020849191
 30
0.0
 10
8.8583788993
 20
5.4044569714
 30
0.0
 10
8.8589587895
 20
5.4066178957
 30
0.0
 10
8.8595608032
 20
5.4085590254
 30
0.0
 10
8.8601827435
 20
5.4102724978
 30
0.0
 10
8.860821897
 20
5.4117518471
 30
0.0
 10
8.8614756066
 20
5.4129926446
 30
0.0
 10
8.8621417672
 20
5.4139910509
 30
0.0
 10
8.8627328231
 20
5.4146470363
 30
0.0
 10
8.8632138793
 20
5.4150310072
 30
0.0
 10
8.8635610527
 20
5.4152424014
 30
0.0
 10
8.8639106995
 20
5.4153895281
 30
0.0
 10
8.8642625004
 20
5.4154712613
 30
0.0
 10
8.8646154388
 20
5.415486479
 30
0.0
 10
8.8649679238
 20
5.4154348692
 30
0.0
 10
8.8653186311
 20
5.4153173572
 30
0.0
 10
8.8656669282
 20
5.4151350818
 30
0.0
 10
8.8660127302
 20
5.4148890068
 30
0.0
 10
8.8664920589
 20
5.4144568731
 30
0.0
 10
8.8670795154
 20
5.4137430053
 30
0.0
 10
8.8677422631
 20
5.4126784232
 30
0.0
 10
8.8683922592
 20
5.4113722357
 30
0.0
 10
8.8690270201
 20
5.4098286212
 30
0.0
 10
8.8694151266
 20
5.4087107365
 30
0.0
 10
8.8696081527
 20
5.4081143581
 30
0.0
  0
SPLINE
  5
2D8
100
AcDbEntity
  8
0
100
AcDbSpline
 62
7
  6
CONTINUOUS
 70
0
 71
3
 72
26
 73
22
 74
0
 42
0.0000001
 43
0.0000001
 44
0.0000000001
 40
0.0
 40
0.0
 40
0.0
 40
0.0
 40
0.1876040527
 40
0.3682656589
 40
0.4538421441
 40
0.5352166946
 40
0.6116424192
 40
0.6824170498
 40
0.7469414704
 40
0.8046685152
 40
0.8551799382
 40
0.8776289414
 40
0.8981671327
 40
0.9167926526
 40
0.9335195682
 40
0.9483834642
 40
0.9614546402
 40
0.9728672312
 40
0.9828437112
 40
0.9917251788
 40
1.0
 40
1.0
 40
1.0
 40
1.0
 10
8.8549685784
 20
5.353478145
 30
0.0
 10
8.8549685784
 20
5.3499012808
 30
0.0
 10
8.8550866581
 20
5.3428793853
 30
0.0
 10
8.8555324151
 20
5.3342357897
 30
0.0
 10
8.856071812
 20
5.3276297518
 30
0.0
 10
8.8565494113
 20
5.3230137623
 30
0.0
 10
8.8571020291
 20
5.3186904382
 30
0.0
 10
8.8577249343
 20
5.3147014457
 30
0.0
 10
8.8584107761
 20
5.3110848349
 30
0.0
 10
8.8591535644
 20
5.3078748027
 30
0.0
 10
8.8598368021
 20
5.3054768742
 30
0.0
 10
8.8604153463
 20
5.303790299
 30
0.0
 10
8.8608418325
 20
5.3026953244
 30
0.0
 10
8.8612768375
 20
5.3017219858
 30
0.0
 10
8.8617193903
 20
5.3008721894
 30
0.0
 10
8.8621685677
 20
5.300147596
 30
0.0
 10
8.8626240529
 20
5.2995496326
 30
0.0
 10
8.8630858406
 20
5.2990791943
 30
0.0
 10
8.8635549894
 20
5.2987371805
 30
0.0
 10
8.86403282
 20
5.2985267645
 30
0.0
 10
8.8643614602
 20
5.2984783145
 30
0.0
 10
8.8645192282
 20
5.2984783223
 30
0.0
  0
SPLINE
  5
2D9
100
AcDbEntity
  8
0
100
AcDbSpline
 62
7
  6
CONTINUOUS
 70
0
 71
3
 72
35
 73
31
 74
0
 42
0.0000001
 43
0.0000001
 44
0.0000000001
 40
0.0
 40
0.0
 40
0.0
 40
0.0
 40
0.0041076674
 40
0.0082938719
 40
0.0126324769
 40
0.0171895133
 40
0.0220216667
 40
0.0271761845
 40
0.0385909192
 40
0.0516621858
 40
0.0665207579
 40
0.0832446533
 40
0.1018712664
 40
0.1224097906
 40
0.1448546884
 40
0.1691848661
 40
0.1953642031
 40
0.2233509593
 40
0.2530960711
 40
0.2845391004
 40
0.317616251
 40
0.3522601066
 40
0.3883936638
 40
0.4648058913
 40
0.5461735838
 40
0.63175985
 40
0.7207681173
 40
0.8123795422
 40
0.9057728305
 40
1.0
 40
1.0
 40
1.0
 40
1.0
 10
8.7374790281
 20
5.5819779605
 30
0.0
 10
8.7371536306
 20
5.5819779692
 30
0.0
 10
8.7364956993
 20
5.5819309568
 30
0.0
 10
8.7355143432
 20
5.5817206037
 30
0.0
 10
8.7345357269
 20
5.5813712414
 30
0.0
 10
8.7335608902
 20
5.5808840002
 30
0.0
 10
8.7325901051
 20
5.5802598781
 30
0.0
 10
8.7312561202
 20
5.5792101105
 30
0.0
 10
8.7296053904
 20
5.5775269317
 30
0.0
 10
8.7277136485
 20
5.5750430807
 30
0.0
 10
8.7258466777
 20
5.57203344
 30
0.0
 10
8.7240081653
 20
5.5685031995
 30
0.0
 10
8.7222012529
 20
5.5644589887
 30
0.0
 10
8.7204297287
 20
5.559909575
 30
0.0
 10
8.7186982579
 20
5.5548648201
 30
0.0
 10
8.7170111566
 20
5.5493363069
 30
0.0
 10
8.71537216
 20
5.5433371433
 30
0.0
 10
8.7137855755
 20
5.5368814027
 30
0.0
 10
8.7122555583
 20
5.5299843601
 30
0.0
 10
8.7107854611
 20
5.5226626135
 30
0.0
 10
8.7093790085
 20
5.5149336626
 30
0.0
 10
8.7080399427
 20
5.5068159597
 30
0.0
 10
8.7063160921
 20
5.4952837873
 30
0.0
 10
8.7043675388
 20
5.4800446622
 30
0.0
 10
8.7023837252
 20
5.4608666588
 30
0.0
 10
8.7007334042
 20
5.4406558842
 30
0.0
 10
8.6994321582
 20
5.4196067416
 30
0.0
 10
8.6984934071
 20
5.397919345
 30
0.0
 10
8.6979268583
 20
5.3758056084
 30
0.0
 10
8.6978004195
 20
5.3609425477
 30
0.0
 10
8.6978004195
 20
5.353478145
 30
0.0
  0
SPLINE
  5
2DA
100
AcDbEntity
  8
0
100
AcDbSpline
 62
7
  6
CONTINUOUS
 70
0
 71
3
 72
39
 73
35
 74
0
 42
0.0000001
 43
0.0000001
 44
0.0000000001
 40
0.0
 40
0.0
 40
0.0
 40
0.0
 40
0.096849123
 40
0.1927658818
 40
0.2867120629
 40
0.3777791282
 40
0.4650594607
 40
0.5476818963
 40
0.624838591
 40
0.6611357428
 40
0.6957941712
 40
0.7287349373
 40
0.759886451
 40
0.7891798489
 40
0.8165565972
 40
0.8419691148
 40
0.8653756785
 40
0.8867492276
 40
0.9060817565
 40
0.923381713
 40
0.9312816165
 40
0.9386919694
 40
0.945624941
 40
0.9520963858
 40
0.9581268735
 40
0.9637430277
 40
0.9689797492
 40
0.9738814766
 40
0.9785028265
 40
0.9829093545
 40
0.9871770507
 40
0.991389962
 40
0.9956357928
 40
1.0
 40
1.0
 40
1.0
 40
1.0
 10
8.1738553563
 20
5.353478145
 30
0.0
 10
8.1738553563
 20
5.3616194172
 30
0.0
 10
8.1739984383
 20
5.3778239547
 30
0.0
 10
8.1746396837
 20
5.4019180809
 30
0.0
 10
8.1757015386
 20
5.4255109744
 30
0.0
 10
8.1771721869
 20
5.4483545659
 30
0.0
 10
8.179035538
 20
5.4702145349
 30
0.0
 10
8.1812720143
 20
5.4908638453
 30
0.0
 10
8.1834687097
 20
5.5072016805
 30
0.0
 10
8.1854108553
 20
5.5195002673
 30
0.0
 10
8.1869155197
 20
5.5281037993
 30
0.0
 10
8.188493912
 20
5.5362539907
 30
0.0
 10
8.1901415428
 20
5.5439298742
 30
0.0
 10
8.1918543807
 20
5.5511115702
 30
0.0
 10
8.1936279088
 20
5.5577806297
 30
0.0
 10
8.195456925
 20
5.5639202
 30
0.0
 10
8.1973369
 20
5.5695146284
 30
0.0
 10
8.1992630292
 20
5.5745500862
 30
0.0
 10
8.2012297095
 20
5.5790143694
 30
0.0
 10
8.2029468236
 20
5.5823446444
 30
0.0
 10
8.2043472961
 20
5.5847020267
 30
0.0
 10
8.2053729424
 20
5.5862662534
 30
0.0
 10
8.2064052875
 20
5.5876800138
 30
0.0
 10
8.2074438629
 20
5.5889424746
 30
0.0
 10
8.2084882152
 20
5.5900528209
 30
0.0
 10
8.2095381014
 20
5.5910101707
 30
0.0
 10
8.2105932643
 20
5.5918137737
 30
0.0
 10
8.211653422
 20
5.5924629825
 30
0.0
 10
8.212718317
 20
5.5929568495
 30
0.0
 10
8.2137874055
 20
5.5932940998
 30
0.0
 10
8.2148595768
 20
5.593473336
 30
0.0
 10
8.2159331507
 20
5.5934933376
 30
0.0
 10
8.2170057177
 20
5.5933539697
 30
0.0
 10
8.2177055494
 20
5.5931592137
 30
0.0
 10
8.2180519122
 20
5.5930383002
 30
0.0
  0
SPLINE
  5
2DB
100
AcDbEntity
  8
0
100
AcDbSpline
 62
7
  6
CONTINUOUS
 70
0
 71
3
 72
39
 73
35
 74
0
 42
0.0000001
 43
0.0000001
 44
0.0000000001
 40
0.0
 40
0.0
 40
0.0
 40
0.0
 40
0.0043642072
 40
0.008610038
 40
0.0128229493
 40
0.0170906455
 40
0.0214971735
 40
0.0261185234
 40
0.0310202508
 40
0.0362569723
 40
0.0418731265
 40
0.0479036142
 40
0.054375059
 40
0.0613080306
 40
0.0687183835
 40
0.076618287
 40
0.0939182435
 40
0.1132507724
 40
0.1346243215
 40
0.1580308852
 40
0.1834434028
 40
0.2108201511
 40
0.240113549
 40
0.2712650627
 40
0.3042058288
 40
0.3388642572
 40
0.375161409
 40
0.4523181037
 40
0.5349405393
 40
0.6222208718
 40
0.7132879371
 40
0.8072341182
 40
0.903150877
 40
1.0
 40
1.0
 40
1.0
 40
1.0
 10
8.2180519122
 20
5.1139179898
 30
0.0
 10
8.2177055494
 20
5.1137970763
 30
0.0
 10
8.2170057177
 20
5.1136023203
 30
0.0
 10
8.2159331507
 20
5.1134629524
 30
0.0
 10
8.2148595768
 20
5.113482954
 30
0.0
 10
8.2137874055
 20
5.1136621901
 30
0.0
 10
8.212718317
 20
5.1139994405
 30
0.0
 10
8.211653422
 20
5.1144933074
 30
0.0
 10
8.2105932643
 20
5.1151425162
 30
0.0
 10
8.2095381014
 20
5.1159461192
 30
0.0
 10
8.2084882152
 20
5.1169034691
 30
0.0
 10
8.2074438629
 20
5.1180138154
 30
0.0
 10
8.2064052875
 20
5.1192762762
 30
0.0
 10
8.2053729424
 20
5.1206900366
 30
0.0
 10
8.2043472961
 20
5.1222542633
 30
0.0
 10
8.2029468236
 20
5.1246116456
 30
0.0
 10
8.2012297095
 20
5.1279419205
 30
0.0
 10
8.1992630292
 20
5.1324062038
 30
0.0
 10
8.1973369
 20
5.1374416616
 30
0.0
 10
8.195456925
 20
5.14303609
 30
0.0
 10
8.1936279088
 20
5.1491756603
 30
0.0
 10
8.1918543807
 20
5.1558447198
 30
0.0
 10
8.1901415428
 20
5.1630264158
 30
0.0
 10
8.188493912
 20
5.1707022993
 30
0.0
 10
8.1869155197
 20
5.1788524907
 30
0.0
 10
8.1854108553
 20
5.1874560226
 30
0.0
 10
8.1834687097
 20
5.1997546095
 30
0.0
 10
8.1812720143
 20
5.2160924446
 30
0.0
 10
8.179035538
 20
5.236741755
 30
0.0
 10
8.1771721869
 20
5.258601724
 30
0.0
 10
8.1757015386
 20
5.2814453156
 30
0.0
 10
8.1746396837
 20
5.3050382091
 30
0.0
 10
8.1739984383
 20
5.3291323353
 30
0.0
 10
8.1738553563
 20
5.3453368728
 30
0.0
 10
8.1738553563
 20
5.353478145
 30
0.0
  0
SPLINE
  5
2DC
100
AcDbEntity
  8
0
100
AcDbSpline
 62
7
  6
CONTINUOUS
 70
0
 71
3
 72
30
 73
26
 74
0
 42
0.0000001
 43
0.0000001
 44
0.0000000001
 40
0.0
 40
0.0
 40
0.0
 40
0.0
 40
0.0041077802
 40
0.0082937878
 40
0.0171729427
 40
0.0271503653
 40
0.0385656121
 40
0.0516353772
 40
0.0664947852
 40
0.0832208441
 40
0.1018473631
 40
0.1223855138
 40
0.1448316376
 40
0.169163183
 40
0.1953433748
 40
0.2530727973
 40
0.3175937671
 40
0.3883684163
 40
0.4647826873
 40
0.5461575302
 40
0.6317443173
 40
0.7207498954
 40
0.8123748977
 40
0.9057882762
 40
1.0
 40
1.0
 40
1.0
 40
1.0
 10
8.8074003786
 20
5.4734775968
 30
0.0
 10
8.8072294932
 20
5.4734775961
 30
0.0
 10
8.8068839751
 20
5.4734529596
 30
0.0
 10
8.8061834136
 20
5.473303284
 30
0.0
 10
8.8052958268
 20
5.4729141196
 30
0.0
 10
8.8042731158
 20
5.4721672884
 30
0.0
 10
8.8032656431
 20
5.4711404561
 30
0.0
 10
8.8022718093
 20
5.4698359986
 30
0.0
 10
8.8012914894
 20
5.4682554637
 30
0.0
 10
8.8003260822
 20
5.4664013722
 30
0.0
 10
8.7993770659
 20
5.4642775703
 30
0.0
 10
8.7984466741
 20
5.4618884639
 30
0.0
 10
8.797537437
 20
5.4592391314
 30
0.0
 10
8.7966514099
 20
5.4563357239
 30
0.0
 10
8.7954647503
 20
5.4519914692
 30
0.0
 10
8.7940733297
 20
5.4459730169
 30
0.0
 10
8.7925761967
 20
5.4380823193
 30
0.0
 10
8.7912176998
 20
5.42937913
 30
0.0
 10
8.7900113652
 20
5.4199465769
 30
0.0
 10
8.7889697774
 20
5.4098748779
 30
0.0
 10
8.7881028339
 20
5.3992611327
 30
0.0
 10
8.7874195898
 20
5.3882068052
 30
0.0
 10
8.7869264493
 20
5.3768165072
 30
0.0
 10
8.786629128
 20
5.3652028372
 30
0.0
 10
8.7865625972
 20
5.3573973921
 30
0.0
 10
8.7865625972
 20
5.353478145
 30
0.0
  0
SPLINE
  5
2DD
100
AcDbEntity
  8
0
100
AcDbSpline
 62
9
  6
CONTINUOUS
 70
0
 71
3
 72
29
 73
25
 74
0
 42
0.0000001
 43
0.0000001
 44
0.0000000001
 40
0.0
 40
0.0
 40
0.0
 40
0.0
 40
0.0879218486
 40
0.1751812601
 40
0.2611153791
 40
0.3450618738
 40
0.4263600883
 40
0.5043525455
 40
0.578428589
 40
0.6480976084
 40
0.7128942774
 40
0.7723627527
 40
0.7999618772
 40
0.8260660015
 40
0.8506245733
 40
0.8735908276
 40
0.8949396864
 40
0.9146678172
 40
0.9327782741
 40
0.9492821225
 40
0.9642020229
 40
0.9775778057
 40
0.989475266
 40
1.0
 40
1.0
 40
1.0
 40
1.0
 10
4.7888440116
 20
5.353478145
 30
0.0
 10
4.7888440116
 20
5.3624083352
 30
0.0
 10
4.7889844593
 20
5.3802017427
 30
0.0
 10
4.7896075949
 20
5.4067168425
 30
0.0
 10
4.7906331255
 20
5.4328154492
 30
0.0
 10
4.7920511339
 20
5.4582893473
 30
0.0
 10
4.7938513786
 20
5.4829305132
 30
0.0
 10
4.7960242859
 20
5.5065352616
 30
0.0
 10
4.798560281
 20
5.5289156375
 30
0.0
 10
4.8014297287
 20
5.5499040477
 30
0.0
 10
4.8046052616
 20
5.5693466215
 30
0.0
 10
4.8075512861
 20
5.5844908035
 30
0.0
 10
4.8100643399
 20
5.5957082352
 30
0.0
 10
4.8119626669
 20
5.6034279266
 30
0.0
 10
4.8139180167
 20
5.6106470443
 30
0.0
 10
4.8159280606
 20
5.6173485332
 30
0.0
 10
4.8179890536
 20
5.6235194941
 30
0.0
 10
4.8200954597
 20
5.6291515984
 30
0.0
 10
4.8222427802
 20
5.6342383311
 30
0.0
 10
4.8244265776
 20
5.6387735674
 30
0.0
 10
4.8266425599
 20
5.6427514225
 30
0.0
 10
4.8288874422
 20
5.6461668484
 30
0.0
 10
4.8311577221
 20
5.6490141322
 30
0.0
 10
4.8327817085
 20
5.6506226139
 30
0.0
 10
4.8335988864
 20
5.6513117925
 30
0.0
  0
SPLINE
  5
2DE
100
AcDbEntity
  8
0
100
AcDbSpline
 62
9
  6
CONTINUOUS
 70
0
 71
3
 72
29
 73
25
 74
0
 42
0.0000001
 43
0.0000001
 44
0.0000000001
 40
0.0
 40
0.0
 40
0.0
 40
0.0
 40
0.0105247619
 40
0.0224222517
 40
0.0357980639
 40
0.0507179928
 40
0.0672218682
 40
0.0853323502
 40
0.105060504
 40
0.1264093836
 40
0.1493756562
 40
0.1739342433
 40
0.2000383798
 40
0.2276375137
 40
0.287105999
 40
0.3519026672
 40
0.421571676
 40
0.4956477001
 40
0.5736401298
 40
0.6549383096
 40
0.7388847635
 40
0.8248188375
 40
0.912078201
 40
1.0
 40
1.0
 40
1.0
 40
1.0
 10
4.8335988254
 20
5.0556445489
 30
0.0
 10
4.8327816483
 20
5.0563337324
 30
0.0
 10
4.8311576638
 20
5.0579422233
 30
0.0
 10
4.8288873864
 20
5.0607895191
 30
0.0
 10
4.8266425066
 20
5.064204956
 30
0.0
 10
4.8244265268
 20
5.0681828209
 30
0.0
 10
4.822242732
 20
5.072718066
 30
0.0
 10
4.8200954142
 20
5.0778048065
 30
0.0
 10
4.8179890107
 20
5.0834369176
 30
0.0
 10
4.8159280203
 20
5.0896078843
 30
0.0
 10
4.8139179791
 20
5.0963093778
 30
0.0
 10
4.8119626319
 20
5.103528499
 30
0.0
 10
4.8100643076
 20
5.1112481928
 30
0.0
 10
4.8075512575
 20
5.1224656255
 30
0.0
 10
4.8046052372
 20
5.1376098061
 30
0.0
 10
4.801429709
 20
5.1570523753
 30
0.0
 10
4.7985602655
 20
5.1780407774
 30
0.0
 10
4.7960242744
 20
5.2004211419
 30
0.0
 10
4.7938513705
 20
5.2240258761
 30
0.0
 10
4.7920511287
 20
5.2486670253
 30
0.0
 10
4.7906331226
 20
5.2741409044
 30
0.0
 10
4.7896075936
 20
5.3002394908
 30
0.0
 10
4.7889844591
 20
5.3267545692
 30
0.0
 10
4.7888440116
 20
5.3445479621
 30
0.0
 10
4.7888440116
 20
5.353478145
 30
0.0
  0
SPLINE
  5
2DF
100
AcDbEntity
  8
0
100
AcDbSpline
 62
9
  6
CONTINUOUS
 70
0
 71
3
 72
28
 73
24
 74
0
 42
0.0000001
 43
0.0000001
 44
0.0000000001
 40
0.0
 40
0.0
 40
0.0
 40
0.0
 40
0.062745155
 40
0.1255003241
 40
0.1882463972
 40
0.2509532778
 40
0.313600965
 40
0.3449150264
 40
0.3762203565
 40
0.4387891868
 40
0.5013200637
 40
0.5637920774
 40
0.5950114968
 40
0.6262135401
 40
0.6574014864
 40
0.6885806149
 40
0.7509040079
 40
0.8132097938
 40
0.8754869476
 40
0.9066225125
 40
0.9377504502
 40
0.9688743256
 40
1.0
 40
1.0
 40
1.0
 40
1.0
 10
4.1695136339
 20
5.353478145
 30
0.0
 10
4.1695136339
 20
5.3630431678
 30
0.0
 10
4.1705077027
 20
5.3821887976
 30
0.0
 10
4.1749009549
 20
5.41059382
 30
0.0
 10
4.1821177429
 20
5.4384129379
 30
0.0
 10
4.1920805288
 20
5.4653513326
 30
0.0
 10
4.202613692
 20
5.4868372072
 30
0.0
 10
4.2123344298
 20
5.5032826487
 30
0.0
 10
4.2228854957
 20
5.5191933763
 30
0.0
 10
4.2375743645
 20
5.5380311626
 30
0.0
 10
4.2573758982
 20
5.5587229823
 30
0.0
 10
4.2755280619
 20
5.5742083591
 30
0.0
 10
4.2909223766
 20
5.5854227772
 30
0.0
 10
4.3028798904
 20
5.5932228966
 30
0.0
 10
4.315224012
 20
5.6003835602
 30
0.0
 10
4.3321486498
 20
5.6090515441
 30
0.0
 10
4.3541061895
 20
5.6182272734
 30
0.0
 10
4.3814223199
 20
5.6264922299
 30
0.0
 10
4.4047685477
 20
5.6310319488
 30
0.0
 10
4.4236351195
 20
5.6332122141
 30
0.0
 10
4.4378496013
 20
5.6341132999
 30
0.0
 10
4.4520896366
 20
5.6342687528
 30
0.0
 10
4.4615759674
 20
5.6338720734
 30
0.0
 10
4.4663099552
 20
5.6335508583
 30
0.0
  0
SPLINE
  5
2E0
100
AcDbEntity
  8
0
100
AcDbSpline
 62
9
  6
CONTINUOUS
 70
0
 71
3
 72
28
 73
24
 74
0
 42
0.0000001
 43
0.0000001
 44
0.0000000001
 40
0.0
 40
0.0
 40
0.0
 40
0.0
 40
0.0311255283
 40
0.0622493528
 40
0.093377313
 40
0.1245129304
 40
0.1867901955
 40
0.2490959988
 40
0.3114193592
 40
0.3425984875
 40
0.3737864815
 40
0.4049886136
 40
0.4362081314
 40
0.4986803167
 40
0.5612112529
 40
0.6237800577
 40
0.6550853587
 40
0.686399403
 40
0.7490471041
 40
0.8117539537
 40
0.8744999325
 40
0.9372549733
 40
1.0
 40
1.0
 40
1.0
 40
1.0
 10
4.4660778649
 20
5.0733897827
 30
0.0
 10
4.4613460338
 20
5.0730727522
 30
0.0
 10
4.451864226
 20
5.0726842529
 30
0.0
 10
4.4376315931
 20
5.0728513341
 30
0.0
 10
4.4234250498
 20
5.0737630809
 30
0.0
 10
4.4045696848
 20
5.075956384
 30
0.0
 10
4.3812385396
 20
5.080510192
 30
0.0
 10
4.3539416859
 20
5.0887886569
 30
0.0
 10
4.3320008686
 20
5.0979729198
 30
0.0
 10
4.3150897748
 20
5.1066461407
 30
0.0
 10
4.3027558603
 20
5.1138099718
 30
0.0
 10
4.2908084277
 20
5.1216123133
 30
0.0
 10
4.2754273369
 20
5.1328285228
 30
0.0
 10
4.2572912115
 20
5.1483140146
 30
0.0
 10
4.2375077429
 20
5.1690029551
 30
0.0
 10
4.2228327132
 20
5.1878360853
 30
0.0
 10
4.2122918154
 20
5.2037418943
 30
0.0
 10
4.2025806214
 20
5.2201816857
 30
0.0
 10
4.1920578957
 20
5.241659071
 30
0.0
 10
4.1821050388
 20
5.2685855053
 30
0.0
 10
4.1748954967
 20
5.296391324
 30
0.0
 10
4.170506688
 20
5.3247821539
 30
0.0
 10
4.1695136342
 20
5.3439180021
 30
0.0
 10
4.1695136342
 20
5.353478145
 30
0.0
  0
SPLINE
  5
2E1
100
AcDbEntity
  8
0
100
AcDbSpline
 62
9
  6
CONTINUOUS
 70
0
 71
3
 72
27
 73
23
 74
0
 42
0.0000001
 43
0.0000001
 44
0.0000000001
 40
0.0
 40
0.0
 40
0.0
 40
0.0
 40
0.022193771
 40
0.0446057259
 40
0.0673281215
 40
0.0904460379
 40
0.1381454925
 40
0.1882710714
 40
0.2412224546
 40
0.2972736218
 40
0.3564853599
 40
0.4187849766
 40
0.4840483952
 40
0.5520892881
 40
0.5870807565
 40
0.6226706356
 40
0.6588113962
 40
0.6954493357
 40
0.7699871124
 40
0.8458831131
 40
0.922733397
 40
1.0
 40
1.0
 40
1.0
 40
1.0
 10
4.6469765302
 20
5.0607442351
 30
0.0
 10
4.6443304301
 20
5.0609954163
 30
0.0
 10
4.6390309157
 20
5.0617240333
 30
0.0
 10
4.6311509614
 20
5.0634725321
 30
0.0
 10
4.6233277991
 20
5.0658714875
 30
0.0
 10
4.6128906529
 20
5.0699665415
 30
0.0
 10
4.6000312468
 20
5.0767472807
 30
0.0
 10
4.5852937128
 20
5.0872637225
 30
0.0
 10
4.5712138122
 20
5.1001722066
 30
0.0
 10
4.5579449244
 20
5.115379445
 30
0.0
 10
4.545565798
 20
5.1327063722
 30
0.0
 10
4.5341664226
 20
5.1519817186
 30
0.0
 10
4.5238448604
 20
5.1730354037
 30
0.0
 10
4.5162941453
 20
5.1917423219
 30
0.0
 10
4.5108639625
 20
5.2074335436
 30
0.0
 10
4.5070871871
 20
5.2196466775
 30
0.0
 10
4.5036487021
 20
5.2321636756
 30
0.0
 10
4.4994974213
 20
5.2493137636
 30
0.0
 10
4.495198607
 20
5.271315626
 30
0.0
 10
4.4914873813
 20
5.2982954814
 30
0.0
 10
4.4892320157
 20
5.3257631029
 30
0.0
 10
4.4887215751
 20
5.3442244561
 30
0.0
 10
4.4887215753
 20
5.353478145
 30
0.0
  0
SPLINE
  5
2E2
100
AcDbEntity
  8
0
100
AcDbSpline
 62
9
  6
CONTINUOUS
 70
0
 71
3
 72
27
 73
23
 74
0
 42
0.0000001
 43
0.0000001
 44
0.0000000001
 40
0.0
 40
0.0
 40
0.0
 40
0.0
 40
0.0772655884
 40
0.1541139086
 40
0.2300085845
 40
0.304546186
 40
0.3411840478
 40
0.3773246427
 40
0.4129142908
 40
0.4479057343
 40
0.5159472341
 40
0.5812113753
 40
0.6435117017
 40
0.7027241331
 40
0.7587762914
 40
0.8117282359
 40
0.8618542779
 40
0.9095541852
 40
0.9326720747
 40
0.955394312
 40
0.9778061982
 40
1.0
 40
1.0
 40
1.0
 40
1.0
 10
4.4887215753
 20
5.353478145
 30
0.0
 10
4.4887215749
 20
5.3627317111
 30
0.0
 10
4.4892319722
 20
5.3811927053
 30
0.0
 10
4.4914872675
 20
5.4086598128
 30
0.0
 10
4.4951984513
 20
5.4356392491
 30
0.0
 10
4.499497064
 20
5.4576409524
 30
0.0
 10
4.5036481863
 20
5.4747910248
 30
0.0
 10
4.5070865932
 20
5.4873079849
 30
0.0
 10
4.5108634459
 20
5.4995210413
 30
0.0
 10
4.5162937034
 20
5.5152122766
 30
0.0
 10
4.5238442356
 20
5.5339194291
 30
0.0
 10
4.5341657058
 20
5.5549734317
 30
0.0
 10
4.5455651508
 20
5.5742490392
 30
0.0
 10
4.5579445708
 20
5.5915761
 30
0.0
 10
4.5712134072
 20
5.6067837196
 30
0.0
 10
4.5852933674
 20
5.619692525
 30
0.0
 10
4.6000311974
 20
5.630208841
 30
0.0
 10
4.6128905776
 20
5.6369898332
 30
0.0
 10
4.6233277556
 20
5.6410849107
 30
0.0
 10
4.6311509519
 20
5.6434836622
 30
0.0
 10
4.6390309419
 20
5.6452318833
 30
0.0
 10
4.6443304535
 20
5.6459604321
 30
0.0
 10
4.6469765539
 20
5.6462116463
 30
0.0
  0
SPLINE
  5
2E3
100
AcDbEntity
  8
0
100
AcDbSpline
 62
7
  6
CONTINUOUS
 70
0
 71
3
 72
28
 73
24
 74
0
 42
0.0000001
 43
0.0000001
 44
0.0000000001
 40
0.0
 40
0.0
 40
0.0
 40
0.0
 40
0.0814727433
 40
0.1624957628
 40
0.2425223945
 40
0.3210870172
 40
0.3977316709
 40
0.4719942617
 40
0.5434336324
 40
0.6116303813
 40
0.6761902512
 40
0.7367409183
 40
0.792947407
 40
0.8193251982
 40
0.8445074764
 40
0.8684634217
 40
0.8911638196
 40
0.9125850188
 40
0.9327083327
 40
0.951517863
 40
0.9690025631
 40
0.9851611371
 40
1.0
 40
1.0
 40
1.0
 40
1.0
 10
6.8390226683
 20
5.353478145
 30
0.0
 10
6.8390226683
 20
5.3387980993
 30
0.0
 10
6.8392227552
 20
5.3095186469
 30
0.0
 10
6.8401196221
 20
5.2658279884
 30
0.0
 10
6.8416095262
 20
5.2226776949
 30
0.0
 10
6.8436818841
 20
5.180341234
 30
0.0
 10
6.8463237211
 20
5.1390770255
 30
0.0
 10
6.8495185514
 20
5.0991396158
 30
0.0
 10
6.8532459103
 20
5.0607772208
 30
0.0
 10
6.8574827554
 20
5.0242269195
 30
0.0
 10
6.8622008866
 20
4.9897143628
 30
0.0
 10
6.8673718713
 20
4.9574527177
 30
0.0
 10
6.8721237753
 20
4.9320996397
 30
0.0
 10
6.8761543822
 20
4.9131040093
 30
0.0
 10
6.8792054494
 20
4.8998429984
 30
0.0
 10
6.8823438649
 20
4.8872842325
 30
0.0
 10
6.8855652279
 20
4.8754473036
 30
0.0
 10
6.888864352
 20
4.8643502927
 30
0.0
 10
6.8922356637
 20
4.8540097755
 30
0.0
 10
6.8956738882
 20
4.8444415565
 30
0.0
 10
6.8991743343
 20
4.8356601765
 30
0.0
 10
6.9027308934
 20
4.8276785905
 30
0.0
 10
6.9052421055
 20
4.8226864021
 30
0.0
 10
6.9065130471
 20
4.8203340675
 30
0.0
  0
SPLINE
  5
2E4
100
AcDbEntity
  8
0
100
AcDbSpline
 62
7
  6
CONTINUOUS
 70
0
 71
3
 72
17
 73
13
 74
0
 42
0.0000001
 43
0.0000001
 44
0.0000000001
 40
0.0
 40
0.0
 40
0.0
 40
0.0
 40
0.1725627882
 40
0.3291055371
 40
0.4702849546
 40
0.5970775211
 40
0.7109193695
 40
0.8139125537
 40
0.8622709294
 40
0.9090743487
 40
0.9548095197
 40
1.0
 40
1.0
 40
1.0
 40
1.0
 10
6.9065130471
 20
4.8203340675
 30
0.0
 10
6.9076582111
 20
4.8182145297
 30
0.0
 10
6.9099496731
 20
4.8142283862
 30
0.0
 10
6.9135973768
 20
4.8087624956
 30
0.0
 10
6.9172819227
 20
4.8041103601
 30
0.0
 10
6.9210021481
 20
4.8002770778
 30
0.0
 10
6.9247585989
 20
4.7972697841
 30
0.0
 10
6.9279906385
 20
4.7954221258
 30
0.0
 10
6.9305678831
 20
4.7944056566
 30
0.0
 10
6.9324647545
 20
4.793871267
 30
0.0
 10
6.9343642303
 20
4.7935500833
 30
0.0
 10
6.9356347521
 20
4.7934784547
 30
0.0
 10
6.9362656478
 20
4.7934784566
 30
0.0
  0
SPLINE
  5
2E5
100
AcDbEntity
  8
0
100
AcDbSpline
 62
7
  6
CONTINUOUS
 70
0
 71
3
 72
20
 73
16
 74
0
 42
0.0000001
 43
0.0000001
 44
0.0000000001
 40
0.0
 40
0.0
 40
0.0
 40
0.0
 40
0.1245213527
 40
0.2492559934
 40
0.3116959337
 40
0.374171139
 40
0.436677368
 40
0.4992105818
 40
0.561766748
 40
0.6243418798
 40
0.6869319632
 40
0.7495332249
 40
0.8121448404
 40
0.8747675818
 40
1.0
 40
1.0
 40
1.0
 40
1.0
 10
8.1291769932
 20
5.1084916566
 30
0.0
 10
8.0841713997
 20
5.0828819134
 30
0.0
 10
7.9923921686
 20
5.0345311817
 30
0.0
 10
7.8739559349
 20
4.981634115
 30
0.0
 10
7.7772082703
 20
4.9439394114
 30
0.0
 10
7.7036963434
 20
4.9180041412
 30
0.0
 10
7.6293480388
 20
4.894447567
 30
0.0
 10
7.5542444555
 20
4.8732977713
 30
0.0
 10
7.478469127
 20
4.8545780458
 30
0.0
 10
7.4021052545
 20
4.8383122361
 30
0.0
 10
7.3252375597
 20
4.8245166397
 30
0.0
 10
7.2479498188
 20
4.8132085233
 30
0.0
 10
7.1703222794
 20
4.8043997445
 30
0.0
 10
7.0664933252
 20
4.7960021742
 30
0.0
 10
6.9883432157
 20
4.793478145
 30
0.0
 10
6.9362656478
 20
4.793478145
 30
0.0
  0
SPLINE
  5
2E6
100
AcDbEntity
  8
0
100
AcDbSpline
 62
7
  6
CONTINUOUS
 70
0
 71
3
 72
20
 73
16
 74
0
 42
0.0000001
 43
0.0000001
 44
0.0000000001
 40
0.0
 40
0.0
 40
0.0
 40
0.0
 40
0.1252322888
 40
0.1878548618
 40
0.2504663951
 40
0.3130676512
 40
0.3756577339
 40
0.4382328681
 40
0.5007890609
 40
0.5633223165
 40
0.6258285912
 40
0.6883038478
 40
0.7507438461
 40
0.8754785789
 40
1.0
 40
1.0
 40
1.0
 40
1.0
 10
6.9362656478
 20
5.913478145
 30
0.0
 10
6.9883467536
 20
5.913478145
 30
0.0
 10
7.0665021349
 20
5.910953801
 30
0.0
 10
7.170338045
 20
5.9025550588
 30
0.0
 10
7.2479707691
 20
5.8937451106
 30
0.0
 10
7.3252636913
 20
5.8824354376
 30
0.0
 10
7.4021365265
 20
5.8686379922
 30
0.0
 10
7.4785054449
 20
5.8523699558
 30
0.0
 10
7.5542857159
 20
5.8336476632
 30
0.0
 10
7.6293941358
 20
5.8124950079
 30
0.0
 10
7.703747122
 20
5.7889352033
 30
0.0
 10
7.7772635818
 20
5.7629964229
 30
0.0
 10
7.8740170269
 20
5.725296593
 30
0.0
 10
7.992459992
 20
5.6723924065
 30
0.0
 10
8.0842439928
 20
5.6240352092
 30
0.0
 10
8.1292517938
 20
5.598422067
 30
0.0
  0
SPLINE
  5
2E7
100
AcDbEntity
  8
0
100
AcDbSpline
 62
7
  6
CONTINUOUS
 70
0
 71
3
 72
17
 73
13
 74
0
 42
0.0000001
 43
0.0000001
 44
0.0000000001
 40
0.0
 40
0.0
 40
0.0
 40
0.0
 40
0.0451963967
 40
0.090937225
 40
0.1377457977
 40
0.1861086344
 40
0.2891082292
 40
0.4029527887
 40
0.5297436888
 40
0.6709171505
 40
0.8274502274
 40
1.0
 40
1.0
 40
1.0
 40
1.0
 10
6.9362656478
 20
5.9134778333
 30
0.0
 10
6.9356349386
 20
5.9134778314
 30
0.0
 10
6.9343647982
 20
5.913406241
 30
0.0
 10
6.9324658883
 20
5.913085249
 30
0.0
 10
6.9305695795
 20
5.9125511818
 30
0.0
 10
6.9279931214
 20
5.9115353342
 30
0.0
 10
6.9247620533
 20
5.9096888033
 30
0.0
 10
6.92100669
 20
5.90668327
 30
0.0
 10
6.9172875126
 20
5.9028522428
 30
0.0
 10
6.913603986
 20
5.8982028354
 30
0.0
 10
6.9099572774
 20
5.8927401295
 30
0.0
 10
6.907666418
 20
5.8887562662
 30
0.0
 10
6.9065215499
 20
5.8866379428
 30
0.0
  0
SPLINE
  5
2E8
100
AcDbEntity
  8
0
100
AcDbSpline
 62
7
  6
CONTINUOUS
 70
0
 71
3
 72
28
 73
24
 74
0
 42
0.0000001
 43
0.0000001
 44
0.0000000001
 40
0.0
 40
0.0
 40
0.0
 40
0.0
 40
0.0148364115
 40
0.0309926508
 40
0.0484751887
 40
0.0672827181
 40
0.0874041736
 40
0.1088236924
 40
0.1315226126
 40
0.1554772294
 40
0.1806583382
 40
0.207035151
 40
0.263240186
 40
0.3237901015
 40
0.3883499177
 40
0.4565473681
 40
0.5279881279
 40
0.6022527852
 40
0.6788999327
 40
0.757467465
 40
0.8374974397
 40
0.9185239654
 40
1.0
 40
1.0
 40
1.0
 40
1.0
 10
6.9065215499
 20
5.8866379428
 30
0.0
 10
6.9052504666
 20
5.8842860863
 30
0.0
 10
6.9027389713
 20
5.8792947966
 30
0.0
 10
6.8991820341
 20
5.8713144315
 30
0.0
 10
6.8956812154
 20
5.8625341225
 30
0.0
 10
6.8922426141
 20
5.8529668337
 30
0.0
 10
6.8888709169
 20
5.8426271133
 30
0.0
 10
6.8855714099
 20
5.8315307593
 30
0.0
 10
6.8823496765
 20
5.8196943482
 30
0.0
 10
6.879210885
 20
5.8071359733
 30
0.0
 10
6.8761594452
 20
5.7938752291
 30
0.0
 10
6.8721283331
 20
5.7748797128
 30
0.0
 10
6.8673758204
 20
5.7495264637
 30
0.0
 10
6.8622041808
 20
5.7172642411
 30
0.0
 10
6.8574854146
 20
5.6827506272
 30
0.0
 10
6.8532480011
 20
5.6461987974
 30
0.0
 10
6.8495201
 20
5.607834422
 30
0.0
 10
6.8463248214
 20
5.5678946439
 30
0.0
 10
6.8436825796
 20
5.5266277427
 30
0.0
 10
6.8416099189
 20
5.4842883157
 30
0.0
 10
6.8401197852
 20
5.4411348424
 30
0.0
 10
6.8392227887
 20
5.397440914
 30
0.0
 10
6.8390226683
 20
5.368159269
 30
0.0
 10
6.8390226683
 20
5.353478145
 30
0.0
  0
SPLINE
  5
2E9
100
AcDbEntity
  8
0
100
AcDbSpline
 62
7
  6
CONTINUOUS
 70
0
 71
3
 72
33
 73
29
 74
0
 42
0.0000001
 43
0.0000001
 44
0.0000000001
 40
0.0
 40
0.0
 40
0.0
 40
0.0
 40
0.0951349696
 40
0.1894240576
 40
0.2818617073
 40
0.3715939787
 40
0.4577853441
 40
0.5396091575
 40
0.616304324
 40
0.6871662415
 40
0.7202134025
 40
0.7515712606
 40
0.7811744799
 40
0.8089678958
 40
0.8348998504
 40
0.8589251416
 40
0.8810152653
 40
0.9011530345
 40
0.9193330941
 40
0.9355746743
 40
0.9499319993
 40
0.962500572
 40
0.973443194
 40
0.9830325155
 40
0.9874517383
 40
0.9917016026
 40
0.9958573796
 40
1.0
 40
1.0
 40
1.0
 40
1.0
 10
4.9000488529
 20
5.353478145
 30
0.0
 10
4.9000488529
 20
5.3424736548
 30
0.0
 10
4.9002378998
 20
5.3205620488
 30
0.0
 10
4.9010837864
 20
5.2879678054
 30
0.0
 10
4.9024858384
 20
5.2560180717
 30
0.0
 10
4.9044284872
 20
5.2250349859
 30
0.0
 10
4.9068914704
 20
5.1953204521
 30
0.0
 10
4.9098506884
 20
5.1671667171
 30
0.0
 10
4.91327465
 20
5.1408526269
 30
0.0
 10
4.9165584252
 20
5.1202175345
 30
0.0
 10
4.9194177427
 20
5.1048335869
 30
0.0
 10
4.9216063043
 20
5.0941811986
 30
0.0
 10
4.9238835586
 20
5.0841696403
 30
0.0
 10
4.9262432281
 20
5.074823072
 30
0.0
 10
4.9286792951
 20
5.0661643735
 30
0.0
 10
4.9311863959
 20
5.0582148819
 30
0.0
 10
4.9337575679
 20
5.0509932826
 30
0.0
 10
4.9363859565
 20
5.044516092
 30
0.0
 10
4.9390657238
 20
5.038798329
 30
0.0
 10
4.9417913472
 20
5.0338522286
 30
0.0
 10
4.9445567098
 20
5.0296862116
 30
0.0
 10
4.9473601613
 20
5.0263061688
 30
0.0
 10
4.95020352
 20
5.0237193414
 30
0.0
 10
4.952682659
 20
5.0221935938
 30
0.0
 10
4.9546585864
 20
5.0214329102
 30
0.0
 10
4.9561055648
 20
5.0210851056
 30
0.0
 10
4.957555164
 20
5.0209463984
 30
0.0
 10
4.9585177904
 20
5.0209939338
 30
0.0
 10
4.9589935315
 20
5.0210512962
 30
0.0
  0
SPLINE
  5
2EA
100
AcDbEntity
  8
0
100
AcDbSpline
 62
7
  6
CONTINUOUS
 70
0
 71
3
 72
33
 73
29
 74
0
 42
0.0000001
 43
0.0000001
 44
0.0000000001
 40
0.0
 40
0.0
 40
0.0
 40
0.0
 40
0.0041426436
 40
0.0082984261
 40
0.0125483009
 40
0.01696755
 40
0.0265569362
 40
0.0374994748
 40
0.0500679385
 40
0.064425253
 40
0.0806667382
 40
0.0988464974
 40
0.118984012
 40
0.1410738758
 40
0.165098797
 40
0.1910302953
 40
0.2188232497
 40
0.2484260169
 40
0.2797834265
 40
0.3128300872
 40
0.3836911705
 40
0.4603857471
 40
0.5422094608
 40
0.6284008868
 40
0.7181335577
 40
0.8105726002
 40
0.9048639018
 40
1.0
 40
1.0
 40
1.0
 40
1.0
 10
4.9589935313
 20
5.6859049623
 30
0.0
 10
4.9585177884
 20
5.6859623321
 30
0.0
 10
4.9575551611
 20
5.6860099041
 30
0.0
 10
4.9561055523
 20
5.6858712254
 30
0.0
 10
4.9546585697
 20
5.6855234125
 30
0.0
 10
4.9526826413
 20
5.6847626962
 30
0.0
 10
4.9502035301
 20
5.6832369085
 30
0.0
 10
4.9473601474
 20
5.6806501348
 30
0.0
 10
4.9445566954
 20
5.6772701175
 30
0.0
 10
4.9417913734
 20
5.6731041032
 30
0.0
 10
4.9390657776
 20
5.6681580424
 30
0.0
 10
4.9363860039
 20
5.6624403652
 30
0.0
 10
4.9337576511
 20
5.6559632607
 30
0.0
 10
4.9311865133
 20
5.6487417578
 30
0.0
 10
4.9286794355
 20
5.6407923904
 30
0.0
 10
4.926243387
 20
5.632133841
 30
0.0
 10
4.9238837402
 20
5.6227874298
 30
0.0
 10
4.921606506
 20
5.612776028
 30
0.0
 10
4.9194179639
 20
5.6021238006
 30
0.0
 10
4.9165586449
 20
5.5867400623
 30
0.0
 10
4.9132748806
 20
5.5661051924
 30
0.0
 10
4.9098508837
 20
5.5397912833
 30
0.0
 10
4.9068916572
 20
5.5116376209
 30
0.0
 10
4.9044286051
 20
5.4819230496
 30
0.0
 10
4.9024859254
 20
5.4509397492
 30
0.0
 10
4.9010838143
 20
5.4189895526
 30
0.0
 10
4.900237923
 20
5.3863947598
 30
0.0
 10
4.9000488529
 20
5.3644827663
 30
0.0
 10
4.9000488529
 20
5.353478145
 30
0.0
  0
SPLINE
  5
2EB
100
AcDbEntity
  8
0
100
AcDbSpline
 62
9
  6
CONTINUOUS
 70
0
 71
3
 72
32
 73
28
 74
0
 42
0.0000001
 43
0.0000001
 44
0.0000000001
 40
0.0
 40
0.0
 40
0.0
 40
0.0
 40
0.091860797
 40
0.1829779563
 40
0.2724691975
 40
0.3595832669
 40
0.4435818082
 40
0.5237318397
 40
0.5993527601
 40
0.6698082713
 40
0.7345247259
 40
0.7645679056
 40
0.7929925755
 40
0.8197468385
 40
0.8447843226
 40
0.8680710062
 40
0.8895792735
 40
0.9092886113
 40
0.9184675141
 40
0.9271970989
 40
0.9433170001
 40
0.9576855722
 40
0.9703722271
 40
0.9815019976
 40
0.9865459071
 40
0.9912833143
 40
1.0
 40
1.0
 40
1.0
 40
1.0
 10
5.7517827994
 20
5.353478145
 30
0.0
 10
5.7517827994
 20
5.3405442142
 30
0.0
 10
5.7519947234
 20
5.3147805526
 30
0.0
 10
5.752943545
 20
5.2764271274
 30
0.0
 10
5.7545169723
 20
5.2387629404
 30
0.0
 10
5.7566992308
 20
5.2021330341
 30
0.0
 10
5.759469599
 20
5.1668617929
 30
0.0
 10
5.7628038059
 20
5.1332648905
 30
0.0
 10
5.7666691999
 20
5.1016445889
 30
0.0
 10
5.7710316393
 20
5.0722838944
 30
0.0
 10
5.7751397538
 20
5.0493824344
 30
0.0
 10
5.7786778776
 20
5.0324018828
 30
0.0
 10
5.781363548
 20
5.0207061353
 30
0.0
 10
5.7841412478
 20
5.0097574833
 30
0.0
 10
5.787005387
 20
4.9995805194
 30
0.0
 10
5.7899486244
 20
4.9901972494
 30
0.0
 10
5.7929639709
 20
4.9816281735
 30
0.0
 10
5.7955903245
 20
4.975033465
 30
0.0
 10
5.7977336511
 20
4.9701892805
 30
0.0
 10
5.799790696
 20
4.9658616945
 30
0.0
 10
5.8023776377
 20
4.9609786315
 30
0.0
 10
5.8056158452
 20
4.9558254676
 30
0.0
 10
5.8088968969
 20
4.9515546795
 30
0.0
 10
5.8117541359
 20
4.9486444291
 30
0.0
 10
5.8140624341
 20
4.9468101549
 30
0.0
 10
5.8162415066
 20
4.9453805953
 30
0.0
 10
5.8179835285
 20
4.9445830234
 30
0.0
 10
5.8191567146
 20
4.9442225979
 30
0.0
  0
SPLINE
  5
2EC
100
AcDbEntity
  8
0
100
AcDbSpline
 62
9
  6
CONTINUOUS
 70
0
 71
3
 72
32
 73
28
 74
0
 42
0.0000001
 43
0.0000001
 44
0.0000000001
 40
0.0
 40
0.0
 40
0.0
 40
0.0
 40
0.0087166857
 40
0.0134540929
 40
0.0184980024
 40
0.0296277729
 40
0.0423144278
 40
0.0566829999
 40
0.0728029011
 40
0.0815324859
 40
0.0907113887
 40
0.1104207265
 40
0.1319289938
 40
0.1552156774
 40
0.1802531615
 40
0.2070074245
 40
0.2354320944
 40
0.2654752741
 40
0.3301917287
 40
0.4006472399
 40
0.4762681603
 40
0.5564181918
 40
0.6404167331
 40
0.7275308025
 40
0.8170220437
 40
0.908139203
 40
1.0
 40
1.0
 40
1.0
 40
1.0
 10
5.8191567146
 20
5.7627336921
 30
0.0
 10
5.8179835285
 20
5.7623732666
 30
0.0
 10
5.8162415066
 20
5.7615756946
 30
0.0
 10
5.8140624341
 20
5.7601461351
 30
0.0
 10
5.8117541359
 20
5.7583118609
 30
0.0
 10
5.8088968969
 20
5.7554016104
 30
0.0
 10
5.8056158452
 20
5.7511308224
 30
0.0
 10
5.8023776377
 20
5.7459776585
 30
0.0
 10
5.799790696
 20
5.7410945955
 30
0.0
 10
5.7977336511
 20
5.7367670095
 30
0.0
 10
5.7955903245
 20
5.731922825
 30
0.0
 10
5.7929639709
 20
5.7253281165
 30
0.0
 10
5.7899486244
 20
5.7167590406
 30
0.0
 10
5.787005387
 20
5.7073757705
 30
0.0
 10
5.7841412478
 20
5.6971988067
 30
0.0
 10
5.781363548
 20
5.6862501547
 30
0.0
 10
5.7786778776
 20
5.6745544072
 30
0.0
 10
5.7751397538
 20
5.6575738556
 30
0.0
 10
5.7710316393
 20
5.6346723956
 30
0.0
 10
5.7666691999
 20
5.605311701
 30
0.0
 10
5.7628038059
 20
5.5736913994
 30
0.0
 10
5.759469599
 20
5.5400944971
 30
0.0
 10
5.7566992308
 20
5.5048232559
 30
0.0
 10
5.7545169723
 20
5.4681933495
 30
0.0
 10
5.752943545
 20
5.4305291626
 30
0.0
 10
5.7519947234
 20
5.3921757373
 30
0.0
 10
5.7517827994
 20
5.3664120758
 30
0.0
 10
5.7517827994
 20
5.353478145
 30
0.0
  0
LINE
  5
2ED
100
AcDbEntity
  8
0
100
AcDbLine
 62
7
  6
CONTINUOUS
 10
4.7263047367
 20
11.6216783858
 11
4.7263047484
 21
11.5966785381
  0
LINE
  5
2EE
100
AcDbEntity
  8
0
100
AcDbLine
 62
7
  6
CONTINUOUS
 10
4.822978014
 20
11.4814577448
 11
4.8933801969
 21
11.4690438828
  0
SPLINE
  5
2EF
100
AcDbEntity
  8
0
100
AcDbSpline
 62
7
  6
CONTINUOUS
 70
0
 71
3
 72
27
 73
23
 74
0
 42
0.0000001
 43
0.0000001
 44
0.0000000001
 40
0.0
 40
0.0
 40
0.0
 40
0.0
 40
0.0627399074
 40
0.1255000917
 40
0.1568747365
 40
0.1882412552
 40
0.219600764
 40
0.2509543259
 40
0.2823016006
 40
0.313641188
 40
0.3449717077
 40
0.3762920908
 40
0.4388895495
 40
0.5014404639
 40
0.5639417759
 40
0.6263906941
 40
0.6887860686
 40
0.7511278838
 40
0.8134172662
 40
0.8756566821
 40
0.9378493606
 40
1.0
 40
1.0
 40
1.0
 40
1.0
 10
16.9030240849
 20
5.353478145
 30
0.0
 10
16.9030240849
 20
5.3628627713
 30
0.0
 10
16.9023322563
 20
5.3816417973
 30
0.0
 10
16.8997485928
 20
5.4049865604
 30
0.0
 10
16.8966553235
 20
5.4235061046
 30
0.0
 10
16.8938267754
 20
5.4372979014
 30
0.0
 10
16.8904935101
 20
5.4509730902
 30
0.0
 10
16.8866592598
 20
5.4645134065
 30
0.0
 10
16.8823296347
 20
5.4779004165
 30
0.0
 10
16.8775111717
 20
5.4911156236
 30
0.0
 10
16.8722100973
 20
5.5041406333
 30
0.0
 10
16.8645095185
 20
5.5212233115
 30
0.0
 10
16.8537142495
 20
5.5420157919
 30
0.0
 10
16.8389588074
 20
5.5659225405
 30
0.0
 10
16.8224859006
 20
5.5886535811
 30
0.0
 10
16.8043841788
 20
5.6100795344
 30
0.0
 10
16.7847560606
 20
5.6300833078
 30
0.0
 10
16.76370736
 20
5.6485504405
 30
0.0
 10
16.7413571748
 20
5.6653803048
 30
0.0
 10
16.7178268229
 20
5.6804759772
 30
0.0
 10
16.6932505316
 20
5.6937543692
 30
0.0
 10
16.6762492536
 20
5.7013479879
 30
0.0
 10
16.6676243395
 20
5.7048172046
 30
0.0
  0
SPLINE
  5
2F0
100
AcDbEntity
  8
0
100
AcDbSpline
 62
7
  6
CONTINUOUS
 70
0
 71
3
 72
27
 73
23
 74
0
 42
0.0000001
 43
0.0000001
 44
0.0000000001
 40
0.0
 40
0.0
 40
0.0
 40
0.0
 40
0.0621506469
 40
0.1243433416
 40
0.1865827774
 40
0.2488721855
 40
0.3112140248
 40
0.3736094253
 40
0.4360583648
 40
0.4985596955
 40
0.5611106211
 40
0.6237080868
 40
0.6550284707
 40
0.6863589885
 40
0.7176985701
 40
0.7490458353
 40
0.7803993847
 40
0.8117588809
 40
0.8431253863
 40
0.8745000154
 40
0.9372601537
 40
1.0
 40
1.0
 40
1.0
 40
1.0
 10
16.6676343068
 20
5.0021431004
 30
0.0
 10
16.6762589154
 20
5.0056124836
 30
0.0
 10
16.6932595826
 20
5.0132063842
 30
0.0
 10
16.7178349304
 20
5.0264851272
 30
0.0
 10
16.7413643675
 20
5.0415810005
 30
0.0
 10
16.7637136373
 20
5.0584109833
 30
0.0
 10
16.7847614624
 20
5.0768781122
 30
0.0
 10
16.8043887379
 20
5.0968817865
 30
0.0
 10
16.8224896623
 20
5.1183075456
 30
0.0
 10
16.838961835
 20
5.1410382966
 30
0.0
 10
16.8537165978
 20
5.1649446794
 30
0.0
 10
16.8645113695
 20
5.185736788
 30
0.0
 10
16.8722115854
 20
5.2028191387
 30
0.0
 10
16.877512407
 20
5.2158438867
 30
0.0
 10
16.8823306414
 20
5.2290588158
 30
0.0
 10
16.8866600598
 20
5.2424455342
 30
0.0
 10
16.890494124
 20
5.2559855477
 30
0.0
 10
16.8938272272
 20
5.2696604231
 30
0.0
 10
16.8966556375
 20
5.2834518977
 30
0.0
 10
16.899748755
 20
5.3019710001
 30
0.0
 10
16.9023322905
 20
5.3253151922
 30
0.0
 10
16.9030240849
 20
5.3440937524
 30
0.0
 10
16.9030240849
 20
5.353478145
 30
0.0
  0
SPLINE
  5
2F1
100
AcDbEntity
  8
0
100
AcDbSpline
 62
7
  6
CONTINUOUS
 70
0
 71
3
 72
27
 73
23
 74
0
 42
0.0000001
 43
0.0000001
 44
0.0000000001
 40
0.0
 40
0.0
 40
0.0
 40
0.0
 40
0.0623525332
 40
0.1247506747
 40
0.1871360896
 40
0.249529624
 40
0.2807447241
 40
0.3119652106
 40
0.3431904232
 40
0.3744205622
 40
0.4368785302
 40
0.4993605485
 40
0.5618671898
 40
0.624397891
 40
0.6556816737
 40
0.6869713417
 40
0.7182664119
 40
0.7495655511
 40
0.8121525251
 40
0.8747595428
 40
0.9373993762
 40
1.0
 40
1.0
 40
1.0
 40
1.0
 10
15.842722847
 20
5.233478145
 30
0.0
 10
15.838821747
 20
5.233478145
 30
0.0
 10
15.8310112836
 20
5.2338666215
 30
0.0
 10
15.8194138865
 20
5.2356023391
 30
0.0
 10
15.8080424207
 20
5.2384793916
 30
0.0
 10
15.798847333
 20
5.241802353
 30
0.0
 10
15.791716768
 20
5.2449947397
 30
0.0
 10
15.7864906235
 20
5.2476508181
 30
0.0
 10
15.781401185
 20
5.2505622074
 30
0.0
 10
15.7748151715
 20
5.2547744316
 30
0.0
 10
15.7669804984
 20
5.2606415871
 30
0.0
 10
15.758316762
 20
5.268573336
 30
0.0
 10
15.7504676385
 20
5.2773180385
 30
0.0
 10
15.7446693434
 20
5.2852152941
 30
0.0
 10
15.7405095181
 20
5.2918485724
 30
0.0
 10
15.7376353389
 20
5.2969728944
 30
0.0
 10
15.7350143877
 20
5.3022322817
 30
0.0
 10
15.7318652007
 20
5.3094060327
 30
0.0
 10
15.7285896992
 20
5.3186507827
 30
0.0
 10
15.7257559179
 20
5.3300748381
 30
0.0
 10
15.7240471552
 20
5.3417206052
 30
0.0
 10
15.7236647663
 20
5.3495615232
 30
0.0
 10
15.7236647663
 20
5.353478145
 30
0.0
  0
SPLINE
  5
2F2
100
AcDbEntity
  8
0
100
AcDbSpline
 62
7
  6
CONTINUOUS
 70
0
 71
3
 72
27
 73
23
 74
0
 42
0.0000001
 43
0.0000001
 44
0.0000000001
 40
0.0
 40
0.0
 40
0.0
 40
0.0
 40
0.0626007104
 40
0.125240738
 40
0.1878478507
 40
0.2504348057
 40
0.2817339233
 40
0.3130289683
 40
0.3443186046
 40
0.3756023453
 40
0.4381329434
 40
0.5006394667
 40
0.5631213664
 40
0.6255792273
 40
0.6568093219
 40
0.6880345003
 40
0.7192549592
 40
0.7504700353
 40
0.8128635459
 40
0.8752490455
 40
0.9376473784
 40
1.0
 40
1.0
 40
1.0
 40
1.0
 10
15.7236647663
 20
5.353478145
 30
0.0
 10
15.7236647663
 20
5.3573947722
 30
0.0
 10
15.7240471624
 20
5.3652357074
 30
0.0
 10
15.725755924
 20
5.3768814984
 30
0.0
 10
15.7285897182
 20
5.3883055682
 30
0.0
 10
15.7318652229
 20
5.3975503206
 30
0.0
 10
15.7350144147
 20
5.4047240652
 30
0.0
 10
15.7376353681
 20
5.4099834458
 30
0.0
 10
15.7405095438
 20
5.4151077626
 30
0.0
 10
15.7446693653
 20
5.4217410302
 30
0.0
 10
15.7504676552
 20
5.429638269
 30
0.0
 10
15.7583167631
 20
5.4383829568
 30
0.0
 10
15.7669804851
 20
5.4463146895
 30
0.0
 10
15.7748151415
 20
5.4521818387
 30
0.0
 10
15.7814011439
 20
5.4563940589
 30
0.0
 10
15.786490577
 20
5.4593054443
 30
0.0
 10
15.7917167145
 20
5.4619615243
 30
0.0
 10
15.7988472724
 20
5.4651539154
 30
0.0
 10
15.8080423617
 20
5.4684768792
 30
0.0
 10
15.8194138405
 20
5.4713539451
 30
0.0
 10
15.8310112611
 20
5.473089661
 30
0.0
 10
15.8388217415
 20
5.473478145
 30
0.0
 10
15.842722847
 20
5.473478145
 30
0.0
  0
SPLINE
  5
2F3
100
AcDbEntity
  8
0
100
AcDbSpline
 62
7
  6
CONTINUOUS
 70
0
 71
3
 72
28
 73
24
 74
0
 42
0.0000001
 43
0.0000001
 44
0.0000000001
 40
0.0
 40
0.0
 40
0.0
 40
0.0
 40
0.0622590307
 40
0.0934172947
 40
0.1245737865
 40
0.1868672393
 40
0.2491857373
 40
0.3115381747
 40
0.3739258994
 40
0.4051439846
 40
0.4363727051
 40
0.4988441051
 40
0.5613595817
 40
0.592642951
 40
0.6239367385
 40
0.6865365147
 40
0.7178603394
 40
0.7491929161
 40
0.8118588083
 40
0.8745488367
 40
0.9059174777
 40
0.937294382
 40
1.0
 40
1.0
 40
1.0
 40
1.0
 10
15.8550518676
 20
5.124978145
 30
0.0
 10
15.8476442646
 20
5.124978145
 30
0.0
 10
15.8365192097
 20
5.1255327599
 30
0.0
 10
15.8218070921
 20
5.1273682352
 30
0.0
 10
15.8071992499
 20
5.1299338902
 30
0.0
 10
15.7892024085
 20
5.1344970706
 30
0.0
 10
15.7682539505
 20
5.1420866432
 30
0.0
 10
15.748147198
 20
5.1517122938
 30
0.0
 10
15.7322557588
 20
5.1613560778
 30
0.0
 10
15.7201573636
 20
5.1699810297
 30
0.0
 10
15.708491038
 20
5.179198243
 30
0.0
 10
15.6947713857
 20
5.1917846498
 30
0.0
 10
15.6823495235
 20
5.2056618573
 30
0.0
 10
15.6732585577
 20
5.2174530734
 30
0.0
 10
15.6647503474
 20
5.2296829654
 30
0.0
 10
15.657145448
 20
5.2425269712
 30
0.0
 10
15.6505084917
 20
5.2558757744
 30
0.0
 10
15.6445258791
 20
5.2695395974
 30
0.0
 10
15.6383017316
 20
5.2871458729
 30
0.0
 10
15.6338160704
 20
5.305277482
 30
0.0
 10
15.6312940147
 20
5.3199926608
 30
0.0
 10
15.6294896368
 20
5.3348136014
 30
0.0
 10
15.6289446465
 20
5.3460174069
 30
0.0
 10
15.6289446465
 20
5.353478145
 30
0.0
  0
SPLINE
  5
2F4
100
AcDbEntity
  8
0
100
AcDbSpline
 62
7
  6
CONTINUOUS
 70
0
 71
3
 72
23
 73
19
 74
0
 42
0.0000001
 43
0.0000001
 44
0.0000000001
 40
0.0
 40
0.0
 40
0.0
 40
0.0
 40
0.0621965642
 40
0.1244357567
 40
0.1867192949
 40
0.2490488939
 40
0.3114247011
 40
0.3738467279
 40
0.4363133488
 40
0.4988227771
 40
0.5613730695
 40
0.6239612801
 40
0.6865815554
 40
0.7492259444
 40
0.8118949225
 40
0.8745952959
 40
0.9373142046
 40
1.0
 40
1.0
 40
1.0
 40
1.0
 10
16.0897320218
 20
5.5961454011
 30
0.0
 10
16.094999987
 20
5.5931172496
 30
0.0
 10
16.1053410521
 20
5.5867059267
 30
0.0
 10
16.1201848464
 20
5.5760815781
 30
0.0
 10
16.134303456
 20
5.5644891376
 30
0.0
 10
16.1476355643
 20
5.5519810809
 30
0.0
 10
16.1601239095
 20
5.5386119031
 30
0.0
 10
16.1717133581
 20
5.5244392186
 30
0.0
 10
16.1823560842
 20
5.5095264563
 30
0.0
 10
16.1920034629
 20
5.4939365937
 30
0.0
 10
16.2006171667
 20
5.4777392413
 30
0.0
 10
16.2081569169
 20
5.4610030725
 30
0.0
 10
16.2145931212
 20
5.4438025725
 30
0.0
 10
16.21989702
 20
5.4262116191
 30
0.0
 10
16.2240460461
 20
5.4083051169
 30
0.0
 10
16.2270224749
 20
5.3901591935
 30
0.0
 10
16.2288118846
 20
5.3718572833
 30
0.0
 10
16.2292115414
 20
5.3596022187
 30
0.0
 10
16.2292115414
 20
5.353478145
 30
0.0
  0
SPLINE
  5
2F5
100
AcDbEntity
  8
0
100
AcDbSpline
 62
7
  6
CONTINUOUS
 70
0
 71
3
 72
23
 73
19
 74
0
 42
0.0000001
 43
0.0000001
 44
0.0000000001
 40
0.0
 40
0.0
 40
0.0
 40
0.0
 40
0.0626858105
 40
0.1254047251
 40
0.1881050941
 40
0.2507740585
 40
0.3134184326
 40
0.3760386908
 40
0.4386268818
 40
0.5011771565
 40
0.5636865716
 40
0.6261531867
 40
0.6885752112
 40
0.750951024
 40
0.8132806341
 40
0.8755641903
 40
0.9378034077
 40
1.0
 40
1.0
 40
1.0
 40
1.0
 10
16.2292115414
 20
5.353478145
 30
0.0
 10
16.2292115414
 20
5.3473549782
 30
0.0
 10
16.228812003
 20
5.3351017304
 30
0.0
 10
16.227023123
 20
5.3168025112
 30
0.0
 10
16.224047575
 20
5.2986592126
 30
0.0
 10
16.2198997712
 20
5.2807552331
 30
0.0
 10
16.2145974267
 20
5.2631666663
 30
0.0
 10
16.2081630997
 20
5.245968382
 30
0.0
 10
16.2006255249
 20
5.2292342297
 30
0.0
 10
16.1920142878
 20
5.2130386577
 30
0.0
 10
16.1823696351
 20
5.1974503151
 30
0.0
 10
16.1717298751
 20
5.1825387825
 30
0.0
 10
16.1601436099
 20
5.1683670081
 30
0.0
 10
16.1476586214
 20
5.1549984122
 30
0.0
 10
16.1343300377
 20
5.1424905628
 30
0.0
 10
16.1202150553
 20
5.1308979733
 30
0.0
 10
16.1053749897
 20
5.1202730628
 30
0.0
 10
16.0950364384
 20
5.1138611062
 30
0.0
 10
16.0897697304
 20
5.1108325709
 30
0.0
  0
SPLINE
  5
2F6
100
AcDbEntity
  8
0
100
AcDbSpline
 62
7
  6
CONTINUOUS
 70
0
 71
3
 72
28
 73
24
 74
0
 42
0.0000001
 43
0.0000001
 44
0.0000000001
 40
0.0
 40
0.0
 40
0.0
 40
0.0
 40
0.0627056624
 40
0.0940826136
 40
0.1254513002
 40
0.1881413625
 40
0.2508072455
 40
0.2821398153
 40
0.3134636298
 40
0.3760633711
 40
0.407357136
 40
0.43864048
 40
0.501155903
 40
0.5636272486
 40
0.5948559433
 40
0.6260740049
 40
0.6884616918
 40
0.7508141097
 40
0.8131325963
 40
0.8754260786
 40
0.9065826138
 40
0.9377409241
 40
1.0
 40
1.0
 40
1.0
 40
1.0
 10
15.6289446465
 20
5.353478145
 30
0.0
 10
15.6289446465
 20
5.3609388884
 30
0.0
 10
15.6294896409
 20
5.3721427046
 30
0.0
 10
15.6312940211
 20
5.3869636612
 30
0.0
 10
15.6338160778
 20
5.4016788552
 30
0.0
 10
15.6383017485
 20
5.4198104706
 30
0.0
 10
15.6445258994
 20
5.4374167472
 30
0.0
 10
15.650508517
 20
5.4510805645
 30
0.0
 10
15.6571454695
 20
5.4644293626
 30
0.0
 10
15.6647503703
 20
5.4772733584
 30
0.0
 10
15.6732585758
 20
5.4895032416
 30
0.0
 10
15.6823495349
 20
5.5012944476
 30
0.0
 10
15.6947713887
 20
5.5151716412
 30
0.0
 10
15.7084910276
 20
5.527758039
 30
0.0
 10
15.7201573431
 20
5.5369752451
 30
0.0
 10
15.7322557292
 20
5.5456001918
 30
0.0
 10
15.7481471573
 20
5.5552439753
 30
0.0
 10
15.7682539011
 20
5.5648696253
 30
0.0
 10
15.7892023568
 20
5.5724592031
 30
0.0
 10
15.8071992038
 20
5.5770223924
 30
0.0
 10
15.8218070602
 20
5.5795880484
 30
0.0
 10
15.8365191936
 20
5.5814235258
 30
0.0
 10
15.8476442592
 20
5.581978145
 30
0.0
 10
15.8550518676
 20
5.581978145
 30
0.0
  0
SPLINE
  5
2F7
100
AcDbEntity
  8
0
100
AcDbSpline
 62
7
  6
CONTINUOUS
 70
0
 71
3
 72
59
 73
55
 74
0
 42
0.0000001
 43
0.0000001
 44
0.0000000001
 40
0.0
 40
0.0
 40
0.0
 40
0.0
 40
0.0314284201
 40
0.0471514232
 40
0.0628687783
 40
0.0942780307
 40
0.1256684618
 40
0.1413590617
 40
0.157042291
 40
0.172717689
 40
0.1883848524
 40
0.2040435178
 40
0.2196933277
 40
0.2353339825
 40
0.2509654106
 40
0.2665875383
 40
0.2822003808
 40
0.2978041498
 40
0.31339902
 40
0.3289852757
 40
0.3445633782
 40
0.3601337368
 40
0.3756968833
 40
0.4067946227
 40
0.4378717096
 40
0.453409298
 40
0.468944181
 40
0.4999998333
 40
0.5310554898
 40
0.5465903762
 40
0.5621279709
 40
0.5932050722
 40
0.6243028327
 40
0.639865991
 40
0.6554363634
 40
0.6710144797
 40
0.68660075
 40
0.7021956361
 40
0.7177994207
 40
0.7334122791
 40
0.7490344234
 40
0.7646658675
 40
0.7803065384
 40
0.7959563642
 40
0.8116150445
 40
0.8272822225
 40
0.8429576348
 40
0.8586408778
 40
0.8743314903
 40
0.9057219412
 40
0.9371312097
 40
0.9528485715
 40
0.9685715787
 40
1.0
 40
1.0
 40
1.0
 40
1.0
 10
16.1928399481
 20
5.353478145
 30
0.0
 10
16.1928399481
 20
5.3424968732
 30
0.0
 10
16.1920402158
 20
5.3260074429
 30
0.0
 10
16.1893899255
 20
5.30419506
 30
0.0
 10
16.1856863107
 20
5.282541618
 30
0.0
 10
16.1791007044
 20
5.2558626682
 30
0.0
 10
16.169963319
 20
5.2299558456
 30
0.0
 10
16.1611807823
 20
5.2098531907
 30
0.0
 10
16.1538707854
 20
5.1951210263
 30
0.0
 10
16.1458573632
 20
5.1807691532
 30
0.0
 10
16.1371584216
 20
5.1668320746
 30
0.0
 10
16.1277942707
 20
5.1533438712
 30
0.0
 10
16.1177887917
 20
5.1403359619
 30
0.0
 10
16.1071647339
 20
5.1278406102
 30
0.0
 10
16.0959473868
 20
5.1158882867
 30
0.0
 10
16.0841648694
 20
5.1045066721
 30
0.0
 10
16.0718442339
 20
5.0937244838
 30
0.0
 10
16.0590152352
 20
5.083567798
 30
0.0
 10
16.04570959
 20
5.0740600227
 30
0.0
 10
16.0319581419
 20
5.0652257434
 30
0.0
 10
16.0177945206
 20
5.057086038
 30
0.0
 10
16.003252942
 20
5.0496593881
 30
0.0
 10
15.9834150706
 20
5.0407385771
 30
0.0
 10
15.9578391656
 20
5.0314519653
 30
0.0
 10
15.9314761324
 20
5.0247535411
 30
0.0
 10
15.9100819402
 20
5.0209867093
 30
0.0
 10
15.8885341412
 20
5.0182910061
 30
0.0
 10
15.8613902002
 20
5.0169363321
 30
0.0
 10
15.8342462554
 20
5.018290969
 30
0.0
 10
15.8126984501
 20
5.0209866613
 30
0.0
 10
15.7913042458
 20
5.0247534725
 30
0.0
 10
15.7649411931
 20
5.0314518771
 30
0.0
 10
15.7393652577
 20
5.0407384552
 30
0.0
 10
15.7195273695
 20
5.0496592693
 30
0.0
 10
15.7049857718
 20
5.0570859113
 30
0.0
 10
15.6908221258
 20
5.0652256037
 30
0.0
 10
15.6770706649
 20
5.0740598922
 30
0.0
 10
15.6637649978
 20
5.0835676639
 30
0.0
 10
15.6509359746
 20
5.093724346
 30
0.0
 10
15.6386153272
 20
5.1045065461
 30
0.0
 10
15.6268327884
 20
5.1158881628
 30
0.0
 10
15.6156154201
 20
5.1278404899
 30
0.0
 10
15.6049913522
 20
5.1403358551
 30
0.0
 10
15.594985855
 20
5.1533437709
 30
0.0
 10
15.5856216878
 20
5.1668319825
 30
0.0
 10
15.5769227385
 20
5.1807690744
 30
0.0
 10
15.5689093031
 20
5.195120957
 30
0.0
 10
15.5615992958
 20
5.2098531322
 30
0.0
 10
15.5528167529
 20
5.2299558019
 30
0.0
 10
15.5436793544
 20
5.2558626379
 30
0.0
 10
15.537093745
 20
5.2825416025
 30
0.0
 10
15.5333901275
 20
5.3041950536
 30
0.0
 10
15.5307398368
 20
5.3260074406
 30
0.0
 10
15.5299401041
 20
5.3424968727
 30
0.0
 10
15.5299401041
 20
5.353478145
 30
0.0
  0
SPLINE
  5
2F8
100
AcDbEntity
  8
0
100
AcDbSpline
 62
7
  6
CONTINUOUS
 70
0
 71
3
 72
59
 73
55
 74
0
 42
0.0000001
 43
0.0000001
 44
0.0000000001
 40
0.0
 40
0.0
 40
0.0
 40
0.0
 40
0.0314284201
 40
0.0471514232
 40
0.0628687783
 40
0.0942780307
 40
0.1256684618
 40
0.1413590617
 40
0.157042291
 40
0.172717689
 40
0.1883848524
 40
0.2040435178
 40
0.2196933277
 40
0.2353339825
 40
0.2509654106
 40
0.2665875383
 40
0.2822003808
 40
0.2978041498
 40
0.31339902
 40
0.3289852757
 40
0.3445633782
 40
0.3601337368
 40
0.3756968833
 40
0.4067946227
 40
0.4378717096
 40
0.453409298
 40
0.468944181
 40
0.4999998333
 40
0.5310554898
 40
0.5465903762
 40
0.5621279709
 40
0.5932050722
 40
0.6243028327
 40
0.639865991
 40
0.6554363634
 40
0.6710144797
 40
0.68660075
 40
0.7021956361
 40
0.7177994207
 40
0.7334122791
 40
0.7490344234
 40
0.7646658675
 40
0.7803065384
 40
0.7959563642
 40
0.8116150445
 40
0.8272822225
 40
0.8429576348
 40
0.8586408778
 40
0.8743314903
 40
0.9057219412
 40
0.9371312097
 40
0.9528485715
 40
0.9685715787
 40
1.0
 40
1.0
 40
1.0
 40
1.0
 10
15.5299401041
 20
5.353478145
 30
0.0
 10
15.5299401041
 20
5.3644594168
 30
0.0
 10
15.5307398364
 20
5.3809488471
 30
0.0
 10
15.5333901267
 20
5.40276123
 30
0.0
 10
15.5370937415
 20
5.424414672
 30
0.0
 10
15.5436793478
 20
5.4510936218
 30
0.0
 10
15.5528167332
 20
5.4770004444
 30
0.0
 10
15.5615992699
 20
5.4971030993
 30
0.0
 10
15.5689092668
 20
5.5118352637
 30
0.0
 10
15.576922689
 20
5.5261871368
 30
0.0
 10
15.5856216306
 20
5.5401242154
 30
0.0
 10
15.5949857815
 20
5.5536124187
 30
0.0
 10
15.6049912605
 20
5.5666203281
 30
0.0
 10
15.6156153183
 20
5.5791156798
 30
0.0
 10
15.6268326654
 20
5.5910680032
 30
0.0
 10
15.6386151828
 20
5.6024496179
 30
0.0
 10
15.6509358183
 20
5.6132318061
 30
0.0
 10
15.663764817
 20
5.623388492
 30
0.0
 10
15.6770704622
 20
5.6328962673
 30
0.0
 10
15.6908219103
 20
5.6417305466
 30
0.0
 10
15.7049855316
 20
5.6498702519
 30
0.0
 10
15.7195271102
 20
5.6572969019
 30
0.0
 10
15.7393649816
 20
5.6662177129
 30
0.0
 10
15.7649408866
 20
5.6755043247
 30
0.0
 10
15.7913039198
 20
5.6822027489
 30
0.0
 10
15.812698112
 20
5.6859695806
 30
0.0
 10
15.834245911
 20
5.6886652839
 30
0.0
 10
15.8613898519
 20
5.6900199579
 30
0.0
 10
15.8885337968
 20
5.6886653209
 30
0.0
 10
15.9100816021
 20
5.6859696287
 30
0.0
 10
15.9314758064
 20
5.6822028175
 30
0.0
 10
15.9578388591
 20
5.6755044129
 30
0.0
 10
15.9834147945
 20
5.6662178348
 30
0.0
 10
16.0032526827
 20
5.6572970207
 30
0.0
 10
16.0177942804
 20
5.6498703787
 30
0.0
 10
16.0319579264
 20
5.6417306863
 30
0.0
 10
16.0457093873
 20
5.6328963978
 30
0.0
 10
16.0590150544
 20
5.6233886261
 30
0.0
 10
16.0718440776
 20
5.613231944
 30
0.0
 10
16.084164725
 20
5.6024497438
 30
0.0
 10
16.0959472637
 20
5.5910681272
 30
0.0
 10
16.1071646321
 20
5.5791158001
 30
0.0
 10
16.1177887
 20
5.5666204349
 30
0.0
 10
16.1277941972
 20
5.5536125191
 30
0.0
 10
16.1371583643
 20
5.5401243074
 30
0.0
 10
16.1458573137
 20
5.5261872156
 30
0.0
 10
16.1538707491
 20
5.511835333
 30
0.0
 10
16.1611807564
 20
5.4971031578
 30
0.0
 10
16.1699632993
 20
5.4770004881
 30
0.0
 10
16.1791006978
 20
5.4510936521
 30
0.0
 10
16.1856863072
 20
5.4244146874
 30
0.0
 10
16.1893899247
 20
5.4027612364
 30
0.0
 10
16.1920402154
 20
5.3809488494
 30
0.0
 10
16.1928399481
 20
5.3644594172
 30
0.0
 10
16.1928399481
 20
5.353478145
 30
0.0
  0
SPLINE
  5
2F9
100
AcDbEntity
  8
0
100
AcDbSpline
 62
7
  6
CONTINUOUS
 70
0
 71
3
 72
23
 73
19
 74
0
 42
0.0000001
 43
0.0000001
 44
0.0000000001
 40
0.0
 40
0.0
 40
0.0
 40
0.0
 40
0.0620227719
 40
0.1240639903
 40
0.1861411224
 40
0.248270978
 40
0.3104671675
 40
0.3727421659
 40
0.4351039346
 40
0.4975582647
 40
0.5601047716
 40
0.6227433631
 40
0.6854704766
 40
0.7482745617
 40
0.8111378625
 40
0.8740640245
 40
0.937049897
 40
1.0
 40
1.0
 40
1.0
 40
1.0
 10
15.8427228468
 20
5.2334786932
 30
0.0
 10
15.8465887441
 20
5.2334786961
 30
0.0
 10
15.8543272842
 20
5.2338639597
 30
0.0
 10
15.8658179634
 20
5.2355961521
 30
0.0
 10
15.8770875998
 20
5.2384619993
 30
0.0
 10
15.8880252047
 20
5.2424373594
 30
0.0
 10
15.8985268462
 20
5.2474808834
 30
0.0
 10
15.9084902284
 20
5.2535462182
 30
0.0
 10
15.9178203007
 20
5.2605733124
 30
0.0
 10
15.926426594
 20
5.2684952065
 30
0.0
 10
15.9342265597
 20
5.2772351279
 30
0.0
 10
15.941145541
 20
5.286708845
 30
0.0
 10
15.9471156214
 20
5.2968259513
 30
0.0
 10
15.9520815658
 20
5.3074873387
 30
0.0
 10
15.9559938613
 20
5.3185917707
 30
0.0
 10
15.9588167532
 20
5.3300338185
 30
0.0
 10
15.9605184893
 20
5.3416996477
 30
0.0
 10
15.9608997774
 20
5.3495544469
 30
0.0
 10
15.9608997774
 20
5.353478145
 30
0.0
  0
SPLINE
  5
2FA
100
AcDbEntity
  8
0
100
AcDbSpline
 62
9
  6
CONTINUOUS
 70
0
 71
3
 72
51
 73
47
 74
0
 42
0.0000001
 43
0.0000001
 44
0.0000000001
 40
0.0
 40
0.0
 40
0.0
 40
0.0
 40
0.0314791036
 40
0.0472274036
 40
0.0629696633
 40
0.0787052593
 40
0.094434726
 40
0.125865713
 40
0.1415742072
 40
0.1572734866
 40
0.1886328016
 40
0.2199490946
 40
0.2355948751
 40
0.2512289413
 40
0.2824525307
 40
0.3136299647
 40
0.3292069095
 40
0.3447734136
 40
0.3758682335
 40
0.4069296678
 40
0.4224548936
 40
0.437974511
 40
0.4689917565
 40
0.4999997277
 40
0.5310076957
 40
0.5620249388
 40
0.5775445577
 40
0.5930697887
 40
0.6241312376
 40
0.6552260739
 40
0.6707925774
 40
0.6863695128
 40
0.7175468892
 40
0.7487703824
 40
0.7644044018
 40
0.7800501466
 40
0.8113664013
 40
0.8427257662
 40
0.8584251099
 40
0.8741336871
 40
0.9055647923
 40
0.9212943035
 40
0.9370299875
 40
0.952772397
 40
0.9685208529
 40
1.0
 40
1.0
 40
1.0
 40
1.0
 10
16.1500017896
 20
5.353478145
 30
0.0
 10
16.1499939924
 20
5.3436828775
 30
0.0
 10
16.1492826323
 20
5.3289748581
 30
0.0
 10
16.1469276159
 20
5.3095175152
 30
0.0
 10
16.1444528023
 20
5.2950258703
 30
0.0
 10
16.1412788167
 20
5.2806773505
 30
0.0
 10
16.1361301495
 20
5.2617895381
 30
0.0
 10
16.1296162502
 20
5.2433043013
 30
0.0
 10
16.1217923973
 20
5.2253777787
 30
0.0
 10
16.113114887
 20
5.2078725574
 30
0.0
 10
16.1006995974
 20
5.1868340154
 30
0.0
 10
16.0863008756
 20
5.167120066
 30
0.0
 10
16.0736867743
 20
5.1522695398
 30
0.0
 10
16.0603792113
 20
5.1380766391
 30
0.0
 10
16.0424838043
 20
5.1216027517
 30
0.0
 10
16.0230678939
 20
5.1069806404
 30
0.0
 10
16.0067514003
 20
5.0964878426
 30
0.0
 10
15.9899581658
 20
5.086827789
 30
0.0
 10
15.9681204034
 20
5.0763371024
 30
0.0
 10
15.9453616488
 20
5.0680686091
 30
0.0
 10
15.9267502497
 20
5.0628379699
 30
0.0
 10
15.9079151677
 20
5.0585430542
 30
0.0
 10
15.8840122179
 20
5.054941376
 30
0.0
 10
15.8550521178
 20
5.0534974968
 30
0.0
 10
15.8260920197
 20
5.0549413444
 30
0.0
 10
15.8021890579
 20
5.0585429438
 30
0.0
 10
15.7833539751
 20
5.0628378623
 30
0.0
 10
15.7647425553
 20
5.0680684518
 30
0.0
 10
15.7419837856
 20
5.0763369358
 30
0.0
 10
15.7201459816
 20
5.0868275586
 30
0.0
 10
15.7033527446
 20
5.096487612
 30
0.0
 10
15.6870362432
 20
5.1069803587
 30
0.0
 10
15.6676203648
 20
5.1216024263
 30
0.0
 10
15.6497249421
 20
5.1380762052
 30
0.0
 10
15.6364174171
 20
5.1522690654
 30
0.0
 10
15.6238032904
 20
5.1671195202
 30
0.0
 10
15.6094045412
 20
5.1868334408
 30
0.0
 10
15.5969891792
 20
5.2078719676
 30
0.0
 10
15.5883116188
 20
5.2253772326
 30
0.0
 10
15.5804876532
 20
5.2433037941
 30
0.0
 10
15.5739736466
 20
5.2617890831
 30
0.0
 10
15.5688251438
 20
5.2806770228
 30
0.0
 10
15.5656512038
 20
5.2950256399
 30
0.0
 10
15.5631762166
 20
5.309517375
 30
0.0
 10
15.5608204128
 20
5.3289747165
 30
0.0
 10
15.5601088152
 20
5.3436828633
 30
0.0
 10
15.5601019456
 20
5.353478145
 30
0.0
  0
SPLINE
  5
2FB
100
AcDbEntity
  8
0
100
AcDbSpline
 62
9
  6
CONTINUOUS
 70
0
 71
3
 72
51
 73
47
 74
0
 42
0.0000001
 43
0.0000001
 44
0.0000000001
 40
0.0
 40
0.0
 40
0.0
 40
0.0
 40
0.0314791036
 40
0.0472274036
 40
0.0629696633
 40
0.0787052593
 40
0.094434726
 40
0.125865713
 40
0.1415742072
 40
0.1572734866
 40
0.1886328016
 40
0.2199490946
 40
0.2355948751
 40
0.2512289413
 40
0.2824525307
 40
0.3136299647
 40
0.3292069095
 40
0.3447734136
 40
0.3758682335
 40
0.4069296678
 40
0.4224548936
 40
0.437974511
 40
0.4689917565
 40
0.4999997277
 40
0.5310076957
 40
0.5620249388
 40
0.5775445577
 40
0.5930697887
 40
0.6241312376
 40
0.6552260739
 40
0.6707925774
 40
0.6863695128
 40
0.7175468892
 40
0.7487703824
 40
0.7644044018
 40
0.7800501466
 40
0.8113664013
 40
0.8427257662
 40
0.8584251099
 40
0.8741336871
 40
0.9055647923
 40
0.9212943035
 40
0.9370299875
 40
0.952772397
 40
0.9685208529
 40
1.0
 40
1.0
 40
1.0
 40
1.0
 10
15.5601019456
 20
5.353478145
 30
0.0
 10
15.5601097428
 20
5.3632734125
 30
0.0
 10
15.5608211029
 20
5.3779814318
 30
0.0
 10
15.5631761193
 20
5.3974387748
 30
0.0
 10
15.5656509329
 20
5.4119304196
 30
0.0
 10
15.5688249185
 20
5.4262789394
 30
0.0
 10
15.5739735857
 20
5.4451667519
 30
0.0
 10
15.580487485
 20
5.4636519887
 30
0.0
 10
15.5883113379
 20
5.4815785113
 30
0.0
 10
15.5969888482
 20
5.4990837325
 30
0.0
 10
15.6094041378
 20
5.5201222746
 30
0.0
 10
15.6238028596
 20
5.539836224
 30
0.0
 10
15.636416961
 20
5.5546867502
 30
0.0
 10
15.649724524
 20
5.5688796509
 30
0.0
 10
15.6676199309
 20
5.5853535383
 30
0.0
 10
15.6870358413
 20
5.5999756496
 30
0.0
 10
15.7033523349
 20
5.6104684474
 30
0.0
 10
15.7201455694
 20
5.6201285009
 30
0.0
 10
15.7419833319
 20
5.6306191875
 30
0.0
 10
15.7647420864
 20
5.6388876809
 30
0.0
 10
15.7833534855
 20
5.6441183201
 30
0.0
 10
15.8021885675
 20
5.6484132358
 30
0.0
 10
15.8260915174
 20
5.652014914
 30
0.0
 10
15.8550516174
 20
5.6534587932
 30
0.0
 10
15.8840117155
 20
5.6520149456
 30
0.0
 10
15.9079146774
 20
5.6484133462
 30
0.0
 10
15.9267497601
 20
5.6441184277
 30
0.0
 10
15.94536118
 20
5.6388878381
 30
0.0
 10
15.9681199497
 20
5.6306193542
 30
0.0
 10
15.9899577536
 20
5.6201287314
 30
0.0
 10
16.0067509906
 20
5.6104686779
 30
0.0
 10
16.023067492
 20
5.5999759313
 30
0.0
 10
16.0424833705
 20
5.5853538637
 30
0.0
 10
16.0603787931
 20
5.5688800848
 30
0.0
 10
16.0736863181
 20
5.5546872246
 30
0.0
 10
16.0863004448
 20
5.5398367698
 30
0.0
 10
16.100699194
 20
5.5201228491
 30
0.0
 10
16.1131145561
 20
5.4990843223
 30
0.0
 10
16.1217921164
 20
5.4815790574
 30
0.0
 10
16.129616082
 20
5.4636524959
 30
0.0
 10
16.1361300887
 20
5.4451672069
 30
0.0
 10
16.1412785914
 20
5.4262792672
 30
0.0
 10
16.1444525314
 20
5.4119306501
 30
0.0
 10
16.1469275187
 20
5.397438915
 30
0.0
 10
16.1492833224
 20
5.3779815735
 30
0.0
 10
16.14999492
 20
5.3632734267
 30
0.0
 10
16.1500017896
 20
5.353478145
 30
0.0
  0
SPLINE
  5
2FC
100
AcDbEntity
  8
0
100
AcDbSpline
 62
7
  6
CONTINUOUS
 70
0
 71
3
 72
28
 73
24
 74
0
 42
0.0000001
 43
0.0000001
 44
0.0000000001
 40
0.0
 40
0.0
 40
0.0
 40
0.0
 40
0.0629558208
 40
0.0944548425
 40
0.1259419832
 40
0.1888543476
 40
0.2517158698
 40
0.2831336391
 40
0.3145329716
 40
0.3772522814
 40
0.408589318
 40
0.4399044265
 40
0.5024472853
 40
0.5648961987
 40
0.5960952404
 40
0.6272716657
 40
0.6895413656
 40
0.7517324367
 40
0.8138567076
 40
0.8759285022
 40
0.9069592307
 40
0.9379830898
 40
1.0
 40
1.0
 40
1.0
 40
1.0
 10
16.0800804392
 20
5.353478145
 30
0.0
 10
16.0800804392
 20
5.3609509106
 30
0.0
 10
16.0795363096
 20
5.3721723526
 30
0.0
 10
16.0777347185
 20
5.3870166892
 30
0.0
 10
16.0752169318
 20
5.4017524593
 30
0.0
 10
16.0707399789
 20
5.4199061695
 30
0.0
 10
16.0645280805
 20
5.4375331472
 30
0.0
 10
16.0585583576
 20
5.4512102034
 30
0.0
 10
16.0519388676
 20
5.4645653778
 30
0.0
 10
16.0443554548
 20
5.4774138371
 30
0.0
 10
16.0358720377
 20
5.4896461029
 30
0.0
 10
16.0268129761
 20
5.5014326956
 30
0.0
 10
16.0144395196
 20
5.5152998009
 30
0.0
 10
16.0007743736
 20
5.5278760321
 30
0.0
 10
15.9891584284
 20
5.5370822268
 30
0.0
 10
15.9771196883
 20
5.5456914844
 30
0.0
 10
15.961311981
 20
5.5553149071
 30
0.0
 10
15.9413155635
 20
5.5649186421
 30
0.0
 10
15.9204886588
 20
5.5724878838
 30
0.0
 10
15.9026000345
 20
5.5770375098
 30
0.0
 10
15.8880845935
 20
5.5795955465
 30
0.0
 10
15.8734672711
 20
5.5814257728
 30
0.0
 10
15.8624131858
 20
5.5819779257
 30
0.0
 10
15.8550518676
 20
5.5819779605
 30
0.0
  0
SPLINE
  5
2FD
100
AcDbEntity
  8
0
100
AcDbSpline
 62
9
  6
CONTINUOUS
 70
0
 71
3
 72
44
 73
40
 74
0
 42
0.0000001
 43
0.0000001
 44
0.0000000001
 40
0.0
 40
0.0
 40
0.0
 40
0.0
 40
0.0314762172
 40
0.0629639641
 40
0.0944235001
 40
0.1258549659
 40
0.1572558114
 40
0.1729464888
 40
0.1886266254
 40
0.2199446524
 40
0.2512173037
 40
0.2824434094
 40
0.3136233692
 40
0.3447596656
 40
0.3758568843
 40
0.3913972464
 40
0.406930088
 40
0.4379675211
 40
0.4689866438
 40
0.4999965494
 40
0.5310063897
 40
0.5620253473
 40
0.5930624888
 40
0.6085951511
 40
0.6241353039
 40
0.6552320578
 40
0.6863678648
 40
0.7175473379
 40
0.7487730008
 40
0.7800453272
 40
0.8113631808
 40
0.8270432308
 40
0.8427338086
 40
0.8741345957
 40
0.9055665011
 40
0.9370263882
 40
0.9527724747
 40
0.9685233381
 40
1.0
 40
1.0
 40
1.0
 40
1.0
 10
15.9978300681
 20
5.353478145
 30
0.0
 10
15.9978255357
 20
5.3483278634
 30
0.0
 10
15.9973255106
 20
5.3380190415
 30
0.0
 10
15.9950978528
 20
5.3227071878
 30
0.0
 10
15.9913919822
 20
5.3076901496
 30
0.0
 10
15.9862558894
 20
5.2931167909
 30
0.0
 10
15.9808226246
 20
5.2814495744
 30
0.0
 10
15.9758175471
 20
5.2724765658
 30
0.0
 10
15.9703875966
 20
5.2637701109
 30
0.0
 10
15.9628222816
 20
5.2534089236
 30
0.0
 10
15.9525840845
 20
5.2419388208
 30
0.0
 10
15.941288808
 20
5.2315402685
 30
0.0
 10
15.9290424082
 20
5.2223175451
 30
0.0
 10
15.9159659055
 20
5.214356794
 30
0.0
 10
15.9044740749
 20
5.20883781
 30
0.0
 10
15.894999005
 20
5.2051258409
 30
0.0
 10
15.8853602531
 20
5.2018930702
 30
0.0
 10
15.8730347461
 20
5.1987566343
 30
0.0
 10
15.8579521512
 20
5.1964856049
 30
0.0
 10
15.8427223471
 20
5.1957247129
 30
0.0
 10
15.8274925778
 20
5.1964857141
 30
0.0
 10
15.8124100739
 20
5.198756779
 30
0.0
 10
15.8000846941
 20
5.201893295
 30
0.0
 10
15.7904460629
 20
5.2051260716
 30
0.0
 10
15.7809711233
 20
5.2088379923
 30
0.0
 10
15.7694795043
 20
5.2143569754
 30
0.0
 10
15.7564031952
 20
5.2223175866
 30
0.0
 10
15.7441569978
 20
5.2315401928
 30
0.0
 10
15.7328618522
 20
5.2419385827
 30
0.0
 10
15.7226237467
 20
5.2534085578
 30
0.0
 10
15.7150583927
 20
5.2637695957
 30
0.0
 10
15.709628458
 20
5.2724759967
 30
0.0
 10
15.7046234933
 20
5.2814490107
 30
0.0
 10
15.699190292
 20
5.2931164011
 30
0.0
 10
15.6940534541
 20
5.3076891387
 30
0.0
 10
15.6909652581
 20
5.3202029501
 30
0.0
 10
15.6892345338
 20
5.3303615135
 30
0.0
 10
15.6879983356
 20
5.3405940455
 30
0.0
 10
15.6876226419
 20
5.3483277934
 30
0.0
 10
15.6876156259
 20
5.353478145
 30
0.0
  0
SPLINE
  5
2FE
100
AcDbEntity
  8
0
100
AcDbSpline
 62
9
  6
CONTINUOUS
 70
0
 71
3
 72
44
 73
40
 74
0
 42
0.0000001
 43
0.0000001
 44
0.0000000001
 40
0.0
 40
0.0
 40
0.0
 40
0.0
 40
0.0314762172
 40
0.0629639641
 40
0.0944235001
 40
0.1258549659
 40
0.1572558114
 40
0.1729464888
 40
0.1886266254
 40
0.2199446524
 40
0.2512173037
 40
0.2824434094
 40
0.3136233692
 40
0.3447596656
 40
0.3758568843
 40
0.3913972464
 40
0.406930088
 40
0.4379675211
 40
0.4689866438
 40
0.4999965494
 40
0.5310063897
 40
0.5620253473
 40
0.5930624888
 40
0.6085951511
 40
0.6241353039
 40
0.6552320578
 40
0.6863678648
 40
0.7175473379
 40
0.7487730008
 40
0.7800453272
 40
0.8113631808
 40
0.8270432308
 40
0.8427338086
 40
0.8741345957
 40
0.9055665011
 40
0.9370263882
 40
0.9527724747
 40
0.9685233381
 40
1.0
 40
1.0
 40
1.0
 40
1.0
 10
15.6876156259
 20
5.353478145
 30
0.0
 10
15.6876201583
 20
5.3586284266
 30
0.0
 10
15.6881201834
 20
5.3689372484
 30
0.0
 10
15.6903478412
 20
5.3842491022
 30
0.0
 10
15.6940537118
 20
5.3992661404
 30
0.0
 10
15.6991898046
 20
5.4138394991
 30
0.0
 10
15.7046230694
 20
5.4255067156
 30
0.0
 10
15.7096281469
 20
5.4344797241
 30
0.0
 10
15.7150580974
 20
5.443186179
 30
0.0
 10
15.7226234124
 20
5.4535473664
 30
0.0
 10
15.7328616095
 20
5.4650174692
 30
0.0
 10
15.744156886
 20
5.4754160215
 30
0.0
 10
15.7564032858
 20
5.4846387448
 30
0.0
 10
15.7694797885
 20
5.492599496
 30
0.0
 10
15.7809716191
 20
5.49811848
 30
0.0
 10
15.790446689
 20
5.5018304491
 30
0.0
 10
15.8000854409
 20
5.5050632198
 30
0.0
 10
15.8124109479
 20
5.5081996557
 30
0.0
 10
15.8274935428
 20
5.5104706851
 30
0.0
 10
15.8427233469
 20
5.5112315771
 30
0.0
 10
15.8579531162
 20
5.5104705759
 30
0.0
 10
15.8730356201
 20
5.508199511
 30
0.0
 10
15.8853609999
 20
5.505062995
 30
0.0
 10
15.8949996311
 20
5.5018302184
 30
0.0
 10
15.9044745707
 20
5.4981182977
 30
0.0
 10
15.9159661897
 20
5.4925993146
 30
0.0
 10
15.9290424988
 20
5.4846387034
 30
0.0
 10
15.9412886962
 20
5.4754160972
 30
0.0
 10
15.9525838418
 20
5.4650177073
 30
0.0
 10
15.9628219473
 20
5.4535477322
 30
0.0
 10
15.9703873013
 20
5.4431866943
 30
0.0
 10
15.975817236
 20
5.4344802933
 30
0.0
 10
15.9808222007
 20
5.4255072793
 30
0.0
 10
15.986255402
 20
5.4138398889
 30
0.0
 10
15.9913922399
 20
5.3992671513
 30
0.0
 10
15.9944804359
 20
5.3867533398
 30
0.0
 10
15.9962111602
 20
5.3765947765
 30
0.0
 10
15.9974473584
 20
5.3663622445
 30
0.0
 10
15.9978230521
 20
5.3586284966
 30
0.0
 10
15.9978300681
 20
5.353478145
 30
0.0
  0
SPLINE
  5
2FF
100
AcDbEntity
  8
0
100
AcDbSpline
 62
7
  6
CONTINUOUS
 70
0
 71
3
 72
24
 73
20
 74
0
 42
0.0000001
 43
0.0000001
 44
0.0000000001
 40
0.0
 40
0.0
 40
0.0
 40
0.0
 40
0.062948324
 40
0.1259315895
 40
0.1888553381
 40
0.2517168707
 40
0.3145193977
 40
0.3459022398
 40
0.3772636804
 40
0.4399010702
 40
0.5024466998
 40
0.5649004129
 40
0.6272617391
 40
0.6895364053
 40
0.7517322407
 40
0.8138616341
 40
0.8759380816
 40
0.9379783944
 40
1.0
 40
1.0
 40
1.0
 40
1.0
 10
15.9608997774
 20
5.353478145
 30
0.0
 10
15.9608997774
 20
5.3574018056
 30
0.0
 10
15.9605185293
 20
5.365256486
 30
0.0
 10
15.9588168305
 20
5.3769220865
 30
0.0
 10
15.9559939727
 20
5.3883640425
 30
0.0
 10
15.9520820468
 20
5.3994680165
 30
0.0
 10
15.9479415118
 20
5.4083566784
 30
0.0
 10
15.9441283846
 20
5.415193385
 30
0.0
 10
15.9399914816
 20
5.4218270552
 30
0.0
 10
15.9342270153
 20
5.4297208554
 30
0.0
 10
15.9264271684
 20
5.4384604101
 30
0.0
 10
15.9178208571
 20
5.4463825807
 30
0.0
 10
15.9084906932
 20
5.4534097316
 30
0.0
 10
15.8985272258
 20
5.4594752215
 30
0.0
 10
15.8880254558
 20
5.4645188162
 30
0.0
 10
15.8770877448
 20
5.4684942465
 30
0.0
 10
15.8658180233
 20
5.4713601254
 30
0.0
 10
15.8543272996
 20
5.4730923227
 30
0.0
 10
15.8465887441
 20
5.4734775997
 30
0.0
 10
15.8427228472
 20
5.4734775968
 30
0.0
  0
SPLINE
  5
300
100
AcDbEntity
  8
0
100
AcDbSpline
 62
9
  6
CONTINUOUS
 70
0
 71
3
 72
39
 73
35
 74
0
 42
0.0000001
 43
0.0000001
 44
0.0000000001
 40
0.0
 40
0.0
 40
0.0
 40
0.0
 40
0.0314684711
 40
0.0629671145
 40
0.0787132963
 40
0.094449918
 40
0.1258878249
 40
0.1572920902
 40
0.188659608
 40
0.2199832668
 40
0.2512605777
 40
0.2824912511
 40
0.3136761859
 40
0.344818365
 40
0.375920937
 40
0.4069906907
 40
0.4380336721
 40
0.4999976607
 40
0.5619613873
 40
0.5930040466
 40
0.6240733863
 40
0.6551756143
 40
0.6863175911
 40
0.7175024546
 40
0.7487333722
 40
0.7800112029
 40
0.8113357439
 40
0.8427040191
 40
0.8741087087
 40
0.9055473703
 40
0.9212846688
 40
0.9370317116
 40
0.9685315337
 40
1.0
 40
1.0
 40
1.0
 40
1.0
 10
15.8937093334
 20
5.353478145
 30
0.0
 10
15.8937038744
 20
5.3514516222
 30
0.0
 10
15.8935038279
 20
5.3473947516
 30
0.0
 10
15.8927769763
 20
5.3423699194
 30
0.0
 10
15.8919045829
 20
5.338407408
 30
0.0
 10
15.8908395019
 20
5.3344964413
 30
0.0
 10
15.8891540363
 20
5.3297157954
 30
0.0
 10
15.88658717
 20
5.3242082793
 30
0.0
 10
15.8835021595
 20
5.3189816247
 30
0.0
 10
15.8799288292
 20
5.3140858696
 30
0.0
 10
15.8758981612
 20
5.3095709529
 30
0.0
 10
15.8714522469
 20
5.3054774358
 30
0.0
 10
15.8666312529
 20
5.3018474769
 30
0.0
 10
15.8614837845
 20
5.298713301
 30
0.0
 10
15.8560580518
 20
5.2961073235
 30
0.0
 10
15.8504063029
 20
5.2940538479
 30
0.0
 10
15.8426521472
 20
5.2920801908
 30
0.0
 10
15.8326517056
 20
5.2910774413
 30
0.0
 10
15.8226512512
 20
5.292079998
 30
0.0
 10
15.8148971554
 20
5.2940536087
 30
0.0
 10
15.809245401
 20
5.296106872
 30
0.0
 10
15.8038197359
 20
5.2987128457
 30
0.0
 10
15.7986721839
 20
5.3018468031
 30
0.0
 10
15.7938511682
 20
5.3054767371
 30
0.0
 10
15.7894051417
 20
5.3095701922
 30
0.0
 10
15.78537431
 20
5.3140851098
 30
0.0
 10
15.7818008483
 20
5.318980936
 30
0.0
 10
15.778715565
 20
5.3242075882
 30
0.0
 10
15.7761487716
 20
5.3297152881
 30
0.0
 10
15.7744633905
 20
5.334496082
 30
0.0
 10
15.7733981576
 20
5.3384071573
 30
0.0
 10
15.7725253565
 20
5.3423697519
 30
0.0
 10
15.7717976206
 20
5.3473945908
 30
0.0
 10
15.7715978829
 20
5.3514516207
 30
0.0
 10
15.771593172
 20
5.353478145
 30
0.0
  0
SPLINE
  5
301
100
AcDbEntity
  8
0
100
AcDbSpline
 62
9
  6
CONTINUOUS
 70
0
 71
3
 72
39
 73
35
 74
0
 42
0.0000001
 43
0.0000001
 44
0.0000000001
 40
0.0
 40
0.0
 40
0.0
 40
0.0
 40
0.0314684711
 40
0.0629671145
 40
0.0787132963
 40
0.094449918
 40
0.1258878249
 40
0.1572920902
 40
0.188659608
 40
0.2199832668
 40
0.2512605777
 40
0.2824912511
 40
0.3136761859
 40
0.344818365
 40
0.375920937
 40
0.4069906907
 40
0.4380336721
 40
0.4999976607
 40
0.5619613873
 40
0.5930040466
 40
0.6240733863
 40
0.6551756143
 40
0.6863175911
 40
0.7175024546
 40
0.7487333722
 40
0.7800112029
 40
0.8113357439
 40
0.8427040191
 40
0.8741087087
 40
0.9055473703
 40
0.9212846688
 40
0.9370317116
 40
0.9685315337
 40
1.0
 40
1.0
 40
1.0
 40
1.0
 10
15.771593172
 20
5.353478145
 30
0.0
 10
15.771598631
 20
5.3555046677
 30
0.0
 10
15.7717986775
 20
5.3595615383
 30
0.0
 10
15.7725255291
 20
5.3645863705
 30
0.0
 10
15.7733979225
 20
5.368548882
 30
0.0
 10
15.7744630035
 20
5.3724598487
 30
0.0
 10
15.7761484691
 20
5.3772404946
 30
0.0
 10
15.7787153354
 20
5.3827480107
 30
0.0
 10
15.7818003459
 20
5.3879746653
 30
0.0
 10
15.7853736762
 20
5.3928704204
 30
0.0
 10
15.7894043442
 20
5.3973853371
 30
0.0
 10
15.7938502585
 20
5.4014788542
 30
0.0
 10
15.7986712524
 20
5.4051088131
 30
0.0
 10
15.8038187209
 20
5.408242989
 30
0.0
 10
15.8092444536
 20
5.4108489664
 30
0.0
 10
15.8148962025
 20
5.4129024421
 30
0.0
 10
15.8226503582
 20
5.4148760992
 30
0.0
 10
15.8326507998
 20
5.4158788487
 30
0.0
 10
15.8426512541
 20
5.414876292
 30
0.0
 10
15.85040535
 20
5.4129026813
 30
0.0
 10
15.8560571044
 20
5.410849418
 30
0.0
 10
15.8614827695
 20
5.4082434443
 30
0.0
 10
15.8666303215
 20
5.4051094869
 30
0.0
 10
15.8714513371
 20
5.4014795529
 30
0.0
 10
15.8758973637
 20
5.3973860978
 30
0.0
 10
15.8799281954
 20
5.3928711801
 30
0.0
 10
15.8835016571
 20
5.387975354
 30
0.0
 10
15.8865869404
 20
5.3827487018
 30
0.0
 10
15.8891537338
 20
5.3772410019
 30
0.0
 10
15.8908391148
 20
5.3724602079
 30
0.0
 10
15.8919043478
 20
5.3685491327
 30
0.0
 10
15.8927771489
 20
5.3645865381
 30
0.0
 10
15.8935048848
 20
5.3595616991
 30
0.0
 10
15.8937046224
 20
5.3555046693
 30
0.0
 10
15.8937093334
 20
5.353478145
 30
0.0
  0
SPLINE
  5
302
100
AcDbEntity
  8
0
100
AcDbSpline
 62
7
  6
CONTINUOUS
 70
0
 71
3
 72
21
 73
17
 74
0
 42
0.0000001
 43
0.0000001
 44
0.0000000001
 40
0.0
 40
0.0
 40
0.0
 40
0.0
 40
0.0629447393
 40
0.1259599498
 40
0.18892506
 40
0.2518087242
 40
0.3146227598
 40
0.3773687093
 40
0.4400291218
 40
0.5025948282
 40
0.5650658735
 40
0.6274458194
 40
0.6897408523
 40
0.7519568401
 40
0.8760504826
 40
1.0
 40
1.0
 40
1.0
 40
1.0
 10
15.8868156791
 20
5.353478145
 30
0.0
 10
15.8868156791
 20
5.3552757962
 30
0.0
 10
15.886640449
 20
5.3588754562
 30
0.0
 10
15.8858608427
 20
5.3642224376
 30
0.0
 10
15.884567343
 20
5.3694677015
 30
0.0
 10
15.8827739503
 20
5.37455747
 30
0.0
 10
15.8804980225
 20
5.3794437359
 30
0.0
 10
15.8777611272
 20
5.384080084
 30
0.0
 10
15.8745908814
 20
5.3884229696
 30
0.0
 10
15.8710152392
 20
5.3924281694
 30
0.0
 10
15.8670713122
 20
5.3960595649
 30
0.0
 10
15.8627947265
 20
5.3992796526
 30
0.0
 10
15.8582280698
 20
5.402060037
 30
0.0
 10
15.8518192443
 20
5.4051384898
 30
0.0
 10
15.8432941105
 20
5.4077685761
 30
0.0
 10
15.8361911513
 20
5.4084779985
 30
0.0
 10
15.8326512527
 20
5.4084779676
 30
0.0
  0
SPLINE
  5
303
100
AcDbEntity
  8
0
100
AcDbSpline
 62
7
  6
CONTINUOUS
 70
0
 71
3
 72
28
 73
24
 74
0
 42
0.0000001
 43
0.0000001
 44
0.0000000001
 40
0.0
 40
0.0
 40
0.0
 40
0.0
 40
0.0620171599
 40
0.0930410901
 40
0.124071818
 40
0.1861434829
 40
0.2482674067
 40
0.3104580077
 40
0.372727127
 40
0.4039032537
 40
0.435101987
 40
0.497550323
 40
0.5600926957
 40
0.5914076124
 40
0.6227445039
 40
0.6854636864
 40
0.7168630565
 40
0.7482809019
 40
0.811142642
 40
0.8740557231
 40
0.9055435574
 40
0.9370432963
 40
1.0
 40
1.0
 40
1.0
 40
1.0
 10
15.8550518676
 20
5.1249783295
 30
0.0
 10
15.8624132156
 20
5.1249782947
 30
0.0
 10
15.87346734
 20
5.1255305451
 30
0.0
 10
15.8880846953
 20
5.1273607817
 30
0.0
 10
15.9026001495
 20
5.1299187158
 30
0.0
 10
15.9204886845
 20
5.1344684727
 30
0.0
 10
15.9413155076
 20
5.1420375897
 30
0.0
 10
15.9613117896
 20
5.151641236
 30
0.0
 10
15.9771193451
 20
5.1612645953
 30
0.0
 10
15.9891580041
 20
5.1698737231
 30
0.0
 10
16.0007738707
 20
5.179079792
 30
0.0
 10
16.0144389126
 20
5.1916558942
 30
0.0
 10
16.0268123449
 20
5.2055228199
 30
0.0
 10
16.03587139
 20
5.217309303
 30
0.0
 10
16.0443548258
 20
5.2295414878
 30
0.0
 10
16.0519383164
 20
5.2423898706
 30
0.0
 10
16.0585578323
 20
5.2557450304
 30
0.0
 10
16.0645276718
 20
5.2694220785
 30
0.0
 10
16.0707396745
 20
5.2870491474
 30
0.0
 10
16.0752167877
 20
5.305203019
 30
0.0
 10
16.0777346161
 20
5.3199390395
 30
0.0
 10
16.0795362555
 20
5.3347836437
 30
0.0
 10
16.0800804392
 20
5.3460052745
 30
0.0
 10
16.0800804392
 20
5.353478145
 30
0.0
  0
SPLINE
  5
304
100
AcDbEntity
  8
0
100
AcDbSpline
 62
7
  6
CONTINUOUS
 70
0
 71
3
 72
21
 73
17
 74
0
 42
0.0000001
 43
0.0000001
 44
0.0000000001
 40
0.0
 40
0.0
 40
0.0
 40
0.0
 40
0.1239476594
 40
0.248038671
 40
0.3102534203
 40
0.3725475618
 40
0.4349269708
 40
0.4973982662
 40
0.5599646589
 40
0.6226261496
 40
0.6853730355
 40
0.7481880331
 40
0.8110731492
 40
0.8740397916
 40
0.9370556113
 40
1.0
 40
1.0
 40
1.0
 40
1.0
 10
15.8326512527
 20
5.2984783223
 30
0.0
 10
15.8361910976
 20
5.2984783532
 30
0.0
 10
15.8432939194
 20
5.2991876611
 30
0.0
 10
15.8518189382
 20
5.3018176259
 30
0.0
 10
15.8582275993
 20
5.3048960908
 30
0.0
 10
15.8627942725
 20
5.307676298
 30
0.0
 10
15.8670708226
 20
5.3108963808
 30
0.0
 10
15.8710148082
 20
5.3145277218
 30
0.0
 10
15.8745905545
 20
5.3185329102
 30
0.0
 10
15.8777608248
 20
5.3228758697
 30
0.0
 10
15.8804978805
 20
5.327512221
 30
0.0
 10
15.8827738266
 20
5.3323985856
 30
0.0
 10
15.8845673066
 20
5.3374884407
 30
0.0
 10
15.8858608166
 20
5.3427338088
 30
0.0
 10
15.8866404394
 20
5.3480808373
 30
0.0
 10
15.8868156791
 20
5.3516805041
 30
0.0
 10
15.8868156791
 20
5.353478145
 30
0.0
  0
SPLINE
  5
305
100
AcDbEntity
  8
0
100
AcDbSpline
 62
9
  6
CONTINUOUS
 70
0
 71
3
 72
35
 73
31
 74
0
 42
0.0000001
 43
0.0000001
 44
0.0000000001
 40
0.0
 40
0.0
 40
0.0
 40
0.0
 40
0.003074972
 40
0.0062485459
 40
0.0096231121
 40
0.0132823815
 40
0.0172905939
 40
0.0216952362
 40
0.0265307628
 40
0.0318219765
 40
0.0375866713
 40
0.0438375647
 40
0.0578289475
 40
0.0738426287
 40
0.0918959466
 40
0.1119911718
 40
0.1341212088
 40
0.1582726862
 40
0.1844108109
 40
0.2124672358
 40
0.2423679495
 40
0.307395894
 40
0.3788753665
 40
0.4561727044
 40
0.5386460564
 40
0.6255628037
 40
0.7160478793
 40
0.809210712
 40
0.9041590423
 40
1.0
 40
1.0
 40
1.0
 40
1.0
 10
16.9301518739
 20
5.6341744397
 30
0.0
 10
16.9304465236
 20
5.6341822494
 30
0.0
 10
16.931048446
 20
5.6341380854
 30
0.0
 10
16.9319430857
 20
5.6338938369
 30
0.0
 10
16.9328322838
 20
5.6334754378
 30
0.0
 10
16.9337155802
 20
5.6328864902
 30
0.0
 10
16.9345938823
 20
5.6321293732
 30
0.0
 10
16.9354678246
 20
5.6312055286
 30
0.0
 10
16.9363377438
 20
5.6301159451
 30
0.0
 10
16.9372036199
 20
5.6288614536
 30
0.0
 10
16.9380652924
 20
5.6274429029
 30
0.0
 10
16.9392530312
 20
5.6252501899
 30
0.0
 10
16.9407083124
 20
5.6220903211
 30
0.0
 10
16.9423725368
 20
5.6177926156
 30
0.0
 10
16.9440098246
 20
5.612863999
 30
0.0
 10
16.9456158088
 20
5.6073124174
 30
0.0
 10
16.947186015
 20
5.6011456758
 30
0.0
 10
16.9487153832
 20
5.5943736718
 30
0.0
 10
16.9501995947
 20
5.5870113161
 30
0.0
 10
16.9516367184
 20
5.5790789942
 30
0.0
 10
16.9535390165
 20
5.5674442047
 30
0.0
 10
16.9557492061
 20
5.5516446901
 30
0.0
 10
16.9580988035
 20
5.5312839024
 30
0.0
 10
16.9601877696
 20
5.5092145303
 30
0.0
 10
16.9619886764
 20
5.4856356847
 30
0.0
 10
16.9634811294
 20
5.4607689649
 30
0.0
 10
16.964658955
 20
5.4348597605
 30
0.0
 10
16.9655119453
 20
5.4081676047
 30
0.0
 10
16.9660310079
 20
5.3809534633
 30
0.0
 10
16.9661481527
 20
5.3626650354
 30
0.0
 10
16.9661481527
 20
5.353478145
 30
0.0
  0
SPLINE
  5
306
100
AcDbEntity
  8
0
100
AcDbSpline
 62
9
  6
CONTINUOUS
 70
0
 71
3
 72
35
 73
31
 74
0
 42
0.0000001
 43
0.0000001
 44
0.0000000001
 40
0.0
 40
0.0
 40
0.0
 40
0.0
 40
0.0958409576
 40
0.1907892878
 40
0.2839521204
 40
0.3744371959
 40
0.4613539432
 40
0.5438272951
 40
0.6211246329
 40
0.6926041054
 40
0.7576320499
 40
0.7875327635
 40
0.8155891884
 40
0.8417273132
 40
0.8658787905
 40
0.8880088276
 40
0.9081040528
 40
0.9261573707
 40
0.9421710519
 40
0.9561624348
 40
0.9624133282
 40
0.968178023
 40
0.9734692368
 40
0.9783047634
 40
0.9827094058
 40
0.9867176183
 40
0.9903768877
 40
0.993751454
 40
0.9969250279
 40
1.0
 40
1.0
 40
1.0
 40
1.0
 10
16.966148152
 20
5.353478145
 30
0.0
 10
16.966148152
 20
5.3442912546
 30
0.0
 10
16.9660310073
 20
5.3260028266
 30
0.0
 10
16.9655119447
 20
5.2987886853
 30
0.0
 10
16.9646589544
 20
5.2720965295
 30
0.0
 10
16.9634811287
 20
5.2461873251
 30
0.0
 10
16.9619886756
 20
5.2213206053
 30
0.0
 10
16.9601877688
 20
5.1977417597
 30
0.0
 10
16.9580988026
 20
5.1756723876
 30
0.0
 10
16.9557492052
 20
5.1553115999
 30
0.0
 10
16.9535390156
 20
5.1395120853
 30
0.0
 10
16.9516367174
 20
5.1278772958
 30
0.0
 10
16.9501995937
 20
5.1199449739
 30
0.0
 10
16.9487153822
 20
5.1125826182
 30
0.0
 10
16.9471860139
 20
5.1058106142
 30
0.0
 10
16.9456158076
 20
5.0996438726
 30
0.0
 10
16.9440098234
 20
5.094092291
 30
0.0
 10
16.9423725356
 20
5.0891636744
 30
0.0
 10
16.9407083111
 20
5.0848659689
 30
0.0
 10
16.9392530299
 20
5.0817061002
 30
0.0
 10
16.938065291
 20
5.0795133871
 30
0.0
 10
16.9372036185
 20
5.0780948364
 30
0.0
 10
16.9363377424
 20
5.076840345
 30
0.0
 10
16.9354678232
 20
5.0757507615
 30
0.0
 10
16.9345938809
 20
5.0748269168
 30
0.0
 10
16.9337155788
 20
5.0740697998
 30
0.0
 10
16.9328322823
 20
5.0734808523
 30
0.0
 10
16.9319430842
 20
5.0730624531
 30
0.0
 10
16.9310484444
 20
5.0728182046
 30
0.0
 10
16.9304465221
 20
5.0727740406
 30
0.0
 10
16.9301518723
 20
5.0727818503
 30
0.0
  0
SPLINE
  5
307
100
AcDbEntity
  8
0
100
AcDbSpline
 62
7
  6
CONTINUOUS
 70
0
 71
3
 72
17
 73
13
 74
0
 42
0.0000001
 43
0.0000001
 44
0.0000000001
 40
0.0
 40
0.0
 40
0.0
 40
0.0
 40
0.1253679531
 40
0.1881037098
 40
0.250809643
 40
0.3760687885
 40
0.5012035678
 40
0.6261848748
 40
0.7509769339
 40
0.8133212341
 40
0.8756149596
 40
1.0
 40
1.0
 40
1.0
 40
1.0
 10
16.8489621514
 20
5.353478145
 30
0.0
 10
16.8489621514
 20
5.3656464228
 30
0.0
 10
16.8479695313
 20
5.3839237545
 30
0.0
 10
16.8446882852
 20
5.4080538646
 30
0.0
 10
16.8401047897
 20
5.4319623712
 30
0.0
 10
16.8319627608
 20
5.4613079291
 30
0.0
 10
16.8184461409
 20
5.4952179815
 30
0.0
 10
16.8013543065
 20
5.5274231402
 30
0.0
 10
16.784283196
 20
5.5525286013
 30
0.0
 10
16.769068396
 20
5.5713741619
 30
0.0
 10
16.7528708665
 20
5.5893257444
 30
0.0
 10
16.7396345518
 20
5.6017695063
 30
0.0
 10
16.7303952319
 20
5.6095405613
 30
0.0
  0
SPLINE
  5
308
100
AcDbEntity
  8
0
100
AcDbSpline
 62
7
  6
CONTINUOUS
 70
0
 71
3
 72
17
 73
13
 74
0
 42
0.0000001
 43
0.0000001
 44
0.0000000001
 40
0.0
 40
0.0
 40
0.0
 40
0.0
 40
0.1243826822
 40
0.1866754496
 40
0.24901897
 40
0.3738099794
 40
0.4987910063
 40
0.6239258779
 40
0.7491862462
 40
0.8118935006
 40
0.8746306211
 40
1.0
 40
1.0
 40
1.0
 40
1.0
 10
16.7302533237
 20
5.0972964446
 30
0.0
 10
16.7395027253
 20
5.10506708
 30
0.0
 10
16.7527538624
 20
5.1175115541
 30
0.0
 10
16.7689699673
 20
5.1354665598
 30
0.0
 10
16.7842025507
 20
5.1543172215
 30
0.0
 10
16.8012942387
 20
5.1794318842
 30
0.0
 10
16.8184070956
 20
5.2116520994
 30
0.0
 10
16.8319407809
 20
5.2455805358
 30
0.0
 10
16.8400933174
 20
5.2749436306
 30
0.0
 10
16.844682687
 20
5.2988671733
 30
0.0
 10
16.8479681684
 20
5.3230127458
 30
0.0
 10
16.8489621514
 20
5.3413019918
 30
0.0
 10
16.8489621514
 20
5.353478145
 30
0.0
  0
SPLINE
  5
309
100
AcDbEntity
  8
0
100
AcDbSpline
 62
7
  6
CONTINUOUS
 70
0
 71
3
 72
17
 73
13
 74
0
 42
0.0000001
 43
0.0000001
 44
0.0000000001
 40
0.0
 40
0.0
 40
0.0
 40
0.0
 40
0.0661341698
 40
0.1321877538
 40
0.197977252
 40
0.263356647
 40
0.3925416583
 40
0.5192748768
 40
0.643310645
 40
0.7646611705
 40
0.8834740028
 40
1.0
 40
1.0
 40
1.0
 40
1.0
 10
16.7978296516
 20
5.353478145
 30
0.0
 10
16.7978296516
 20
5.3610430003
 30
0.0
 10
16.7974941688
 20
5.3761655745
 30
0.0
 10
16.7960027221
 20
5.3987690629
 30
0.0
 10
16.7935362418
 20
5.4212010856
 30
0.0
 10
16.7889920068
 20
5.4506410226
 30
0.0
 10
16.7810627716
 20
5.4865770022
 30
0.0
 10
16.7681675496
 20
5.5281316445
 30
0.0
 10
16.7522953769
 20
5.5676756151
 30
0.0
 10
16.733789143
 20
5.6050448006
 30
0.0
 10
16.712972413
 20
5.6401764299
 30
0.0
 10
16.6975911554
 20
5.6623015398
 30
0.0
 10
16.6896024208
 20
5.6729712326
 30
0.0
  0
SPLINE
  5
30A
100
AcDbEntity
  8
0
100
AcDbSpline
 62
7
  6
CONTINUOUS
 70
0
 71
3
 72
19
 73
15
 74
0
 42
0.0000001
 43
0.0000001
 44
0.0000000001
 40
0.0
 40
0.0
 40
0.0
 40
0.0
 40
0.1165005046
 40
0.2352897735
 40
0.3566237346
 40
0.480645699
 40
0.543700701
 40
0.6074056875
 40
0.6717303658
 40
0.7366251705
 40
0.8020082683
 40
0.8677979397
 40
0.9338563214
 40
1.0
 40
1.0
 40
1.0
 40
1.0
 10
16.6889643515
 20
5.0331346231
 30
0.0
 10
16.696996579
 20
5.0438205654
 30
0.0
 10
16.7124629941
 20
5.0659831146
 30
0.0
 10
16.7333981116
 20
5.101185992
 30
0.0
 10
16.7520117917
 20
5.1386407495
 30
0.0
 10
16.7652493105
 20
5.1715052575
 30
0.0
 10
16.7743678023
 20
5.1988058506
 30
0.0
 10
16.780454395
 20
5.2198774019
 30
0.0
 10
16.7857009531
 20
5.2413909783
 30
0.0
 10
16.7900638647
 20
5.2632976594
 30
0.0
 10
16.7935082467
 20
5.2855377257
 30
0.0
 10
16.7959916564
 20
5.3080401851
 30
0.0
 10
16.79749227
 20
5.3307164628
 30
0.0
 10
16.7978296516
 20
5.345888348
 30
0.0
 10
16.7978296516
 20
5.353478145
 30
0.0
  0
SPLINE
  5
30B
100
AcDbEntity
  8
0
100
AcDbSpline
 62
7
  6
CONTINUOUS
 70
0
 71
3
 72
48
 73
44
 74
0
 42
0.0000001
 43
0.0000001
 44
0.0000000001
 40
0.0
 40
0.0
 40
0.0
 40
0.0
 40
0.0314710499
 40
0.0472149307
 40
0.0629547151
 40
0.0944123068
 40
0.1258533669
 40
0.1415702423
 40
0.1572810969
 40
0.1886755092
 40
0.2043653286
 40
0.2200475113
 40
0.2513806784
 40
0.2826801811
 40
0.2983205959
 40
0.313952399
 40
0.3451834674
 40
0.3763816889
 40
0.4075493346
 40
0.4386895527
 40
0.4542541444
 40
0.4698134107
 40
0.5009111147
 40
0.5319950334
 40
0.5475371806
 40
0.5630779751
 40
0.5941512685
 40
0.6252279678
 40
0.6563138892
 40
0.6874145733
 40
0.7029756341
 40
0.7185422461
 40
0.7496870067
 40
0.7808598399
 40
0.7964613245
 40
0.8120708481
 40
0.8433078312
 40
0.8745789721
 40
0.9058844427
 40
0.937223371
 40
0.9529082622
 40
0.9686007066
 40
1.0
 40
1.0
 40
1.0
 40
1.0
 10
16.7791934676
 20
5.353478145
 30
0.0
 10
16.7791934676
 20
5.3707070631
 30
0.0
 10
16.7781036671
 20
5.39657213
 30
0.0
 10
16.7744895181
 20
5.4308540856
 30
0.0
 10
16.7694362788
 20
5.4649483278
 30
0.0
 10
16.7604410033
 20
5.5071040292
 30
0.0
 10
16.7479321238
 20
5.5483409595
 30
0.0
 10
16.7358781995
 20
5.5805885895
 30
0.0
 10
16.7224847553
 20
5.6122744482
 30
0.0
 10
16.7070992718
 20
5.6430713276
 30
0.0
 10
16.6898197158
 20
5.672781625
 30
0.0
 10
16.6713134091
 20
5.7017050969
 30
0.0
 10
16.6459277264
 20
5.736323197
 30
0.0
 10
16.6177045131
 20
5.768639911
 30
0.0
 10
16.5935642698
 20
5.7929562557
 30
0.0
 10
16.5684350403
 20
5.8161936812
 30
0.0
 10
16.5352227082
 20
5.8431759697
 30
0.0
 10
16.4927810508
 20
5.8719956695
 30
0.0
 10
16.4480685896
 20
5.8970472884
 30
0.0
 10
16.4091698832
 20
5.9146320265
 30
0.0
 10
16.377259069
 20
5.9266412355
 30
0.0
 10
16.3448813879
 20
5.9372540227
 30
0.0
 10
16.303612324
 20
5.9478826706
 30
0.0
 10
16.2615878805
 20
5.9549014245
 30
0.0
 10
16.2277174635
 20
5.9583225668
 30
0.0
 10
16.1937366473
 20
5.960273211
 30
0.0
 10
16.1511481135
 20
5.9599522678
 30
0.0
 10
16.1002695919
 20
5.9551467888
 30
0.0
 10
16.0499814224
 20
5.9459628696
 30
0.0
 10
16.0088726867
 20
5.9347114824
 30
0.0
 10
15.9766556189
 20
5.9236098186
 30
0.0
 10
15.9449252196
 20
5.9111187482
 30
0.0
 10
15.9062906749
 20
5.8929487405
 30
0.0
 10
15.869346428
 20
5.8715126246
 30
0.0
 10
15.8409611217
 20
5.8525053861
 30
0.0
 10
15.8133892982
 20
5.8322770438
 30
0.0
 10
15.7805587839
 20
5.8047831285
 30
0.0
 10
15.7441000921
 20
5.7685235346
 30
0.0
 10
15.7108215872
 20
5.7292518304
 30
0.0
 10
15.6859468502
 20
5.694253815
 30
0.0
 10
15.6678683333
 20
5.6650538323
 30
0.0
 10
15.6510284466
 20
5.6350866606
 30
0.0
 10
15.6398311
 20
5.61181994
 30
0.0
 10
15.633037671
 20
5.5960296624
 30
0.0
  0
SPLINE
  5
30C
100
AcDbEntity
  8
0
100
AcDbSpline
 62
7
  6
CONTINUOUS
 70
0
 71
3
 72
48
 73
44
 74
0
 42
0.0000001
 43
0.0000001
 44
0.0000000001
 40
0.0
 40
0.0
 40
0.0
 40
0.0
 40
0.0313992755
 40
0.0470917105
 40
0.0627765921
 40
0.0941154999
 40
0.1254209495
 40
0.1566920685
 40
0.1879290304
 40
0.2035385435
 40
0.2191400182
 40
0.2503128319
 40
0.2814575758
 40
0.2970241798
 40
0.3125852339
 40
0.343685906
 40
0.3747718193
 40
0.4058485126
 40
0.4369218044
 40
0.4524625991
 40
0.468004748
 40
0.4990886713
 40
0.5301863843
 40
0.5457456556
 40
0.5613102536
 40
0.5924504856
 40
0.623618148
 40
0.654816387
 40
0.6860474747
 40
0.7016792873
 40
0.717319712
 40
0.7486192339
 40
0.7799524199
 40
0.7956346112
 40
0.8113244392
 40
0.8427188677
 40
0.8584297297
 40
0.8741466115
 40
0.9055876814
 40
0.9370452815
 40
0.952785069
 40
0.968528951
 40
1.0
 40
1.0
 40
1.0
 40
1.0
 10
15.6330366621
 20
5.1109289722
 30
0.0
 10
15.6398300334
 20
5.0951386514
 30
0.0
 10
15.6510272911
 20
5.0718718602
 30
0.0
 10
15.6678670729
 20
5.0419045913
 30
0.0
 10
15.6859454907
 20
5.01270451
 30
0.0
 10
15.7108201053
 20
4.9777063603
 30
0.0
 10
15.7440984852
 20
4.93843449
 30
0.0
 10
15.7805570747
 20
4.9021747308
 30
0.0
 10
15.8133875013
 20
4.8746806523
 30
0.0
 10
15.8409592814
 20
4.8544521994
 30
0.0
 10
15.8693445396
 20
4.8354448333
 30
0.0
 10
15.906288744
 20
4.814008562
 30
0.0
 10
15.9449232584
 20
4.7958383912
 30
0.0
 10
15.9766536466
 20
4.7833471938
 30
0.0
 10
16.0088707164
 20
4.772245419
 30
0.0
 10
16.0499794569
 20
4.7609938556
 30
0.0
 10
16.1002676626
 20
4.7518097647
 30
0.0
 10
16.1511462392
 20
4.7470041281
 30
0.0
 10
16.1937348346
 20
4.7466830249
 30
0.0
 10
16.2277157087
 20
4.7486335901
 30
0.0
 10
16.2615861922
 20
4.7520546338
 30
0.0
 10
16.3036107298
 20
4.7590732797
 30
0.0
 10
16.3448798968
 20
4.7697018332
 30
0.0
 10
16.3772576669
 20
4.7803145553
 30
0.0
 10
16.4091685671
 20
4.7923237248
 30
0.0
 10
16.4480674024
 20
4.8099083875
 30
0.0
 10
16.4927800054
 20
4.8349599727
 30
0.0
 10
16.5352218062
 20
4.8637796542
 30
0.0
 10
16.5684342665
 20
4.8907619314
 30
0.0
 10
16.5935635821
 20
4.9139993736
 30
0.0
 10
16.6177039155
 20
4.9383157334
 30
0.0
 10
16.6459272374
 20
4.9706324764
 30
0.0
 10
16.6713130155
 20
5.0052506212
 30
0.0
 10
16.6898193946
 20
5.0341741337
 30
0.0
 10
16.7070990106
 20
5.0638844792
 30
0.0
 10
16.7224845577
 20
5.0946814065
 30
0.0
 10
16.7358780473
 20
5.126367322
 30
0.0
 10
16.7479320168
 20
5.1586150059
 30
0.0
 10
16.7604409407
 20
5.199852007
 30
0.0
 10
16.769436247
 20
5.2420077823
 30
0.0
 10
16.7744895032
 20
5.2761020832
 30
0.0
 10
16.7781036637
 20
5.3103840934
 30
0.0
 10
16.7791934676
 20
5.3362492006
 30
0.0
 10
16.7791934676
 20
5.353478145
 30
0.0
  0
SPLINE
  5
30D
100
AcDbEntity
  8
0
100
AcDbSpline
 62
7
  6
CONTINUOUS
 70
0
 71
3
 72
33
 73
29
 74
0
 42
0.0000001
 43
0.0000001
 44
0.0000000001
 40
0.0
 40
0.0
 40
0.0
 40
0.0
 40
0.0629551162
 40
0.094449132
 40
0.1259304619
 40
0.1888364214
 40
0.2516942129
 40
0.2831088954
 40
0.3145050465
 40
0.345881542
 40
0.3772373791
 40
0.4085718352
 40
0.4398840083
 40
0.4711731129
 40
0.5024388994
 40
0.5336811996
 40
0.5649000242
 40
0.5960958502
 40
0.6272691451
 40
0.6584205971
 40
0.6895513368
 40
0.7206624535
 40
0.7517552826
 40
0.8138736126
 40
0.8759395436
 40
0.9069674986
 40
0.93798857
 40
1.0
 40
1.0
 40
1.0
 40
1.0
 10
16.7241467263
 20
5.353478145
 30
0.0
 10
16.7241467263
 20
5.3717936746
 30
0.0
 10
16.722814115
 20
5.399295816
 30
0.0
 10
16.7183978486
 20
5.4356758272
 30
0.0
 10
16.7122268067
 20
5.4717881054
 30
0.0
 10
16.7012548053
 20
5.5162780839
 30
0.0
 10
16.6860318851
 20
5.5594790149
 30
0.0
 10
16.6714014058
 20
5.5929979159
 30
0.0
 10
16.6592256528
 20
5.6175587597
 30
0.0
 10
16.6458794676
 20
5.6414834568
 30
0.0
 10
16.6313928803
 20
5.664714477
 30
0.0
 10
16.6158000888
 20
5.687195112
 30
0.0
 10
16.5991411233
 20
5.7088730361
 30
0.0
 10
16.5814540795
 20
5.729694511
 30
0.0
 10
16.5627814086
 20
5.7496089644
 30
0.0
 10
16.5431701257
 20
5.7685704271
 30
0.0
 10
16.5226654317
 20
5.7865312344
 30
0.0
 10
16.5013170824
 20
5.8034482633
 30
0.0
 10
16.4791779561
 20
5.819282746
 30
0.0
 10
16.4562994557
 20
5.833994008
 30
0.0
 10
16.4327376175
 20
5.8475473121
 30
0.0
 10
16.4085493101
 20
5.8599121237
 30
0.0
 10
16.3755559558
 20
5.8747624652
 30
0.0
 10
16.3330237611
 20
5.8902204212
 30
0.0
 10
16.2891845458
 20
5.9013698129
 30
0.0
 10
16.2536102774
 20
5.9076389745
 30
0.0
 10
16.2177865686
 20
5.9121250926
 30
0.0
 10
16.1906953676
 20
5.9134778431
 30
0.0
 10
16.1726543846
 20
5.9134778333
 30
0.0
  0
SPLINE
  5
30E
100
AcDbEntity
  8
0
100
AcDbSpline
 62
7
  6
CONTINUOUS
 70
0
 71
3
 72
33
 73
29
 74
0
 42
0.0000001
 43
0.0000001
 44
0.0000000001
 40
0.0
 40
0.0
 40
0.0
 40
0.0
 40
0.0620113726
 40
0.0930324052
 40
0.1240603217
 40
0.1861261785
 40
0.2482444619
 40
0.2793372719
 40
0.3104483704
 40
0.3415790817
 40
0.3727304911
 40
0.4039037255
 40
0.4350994697
 40
0.4663181963
 40
0.4975603874
 40
0.5288260628
 40
0.5601150731
 40
0.5914271728
 40
0.6227615794
 40
0.6541174074
 40
0.6854939359
 40
0.7168901531
 40
0.7483049289
 40
0.8111628992
 40
0.8740691078
 40
0.9055506177
 40
0.9370447936
 40
1.0
 40
1.0
 40
1.0
 40
1.0
 10
16.1726543846
 20
4.7934784566
 30
0.0
 10
16.1906953506
 20
4.7934784664
 30
0.0
 10
16.2177865246
 20
4.7948311743
 30
0.0
 10
16.2536101916
 20
4.7993173121
 30
0.0
 10
16.2891844176
 20
4.8055864555
 30
0.0
 10
16.3330235856
 20
4.8167358374
 30
0.0
 10
16.3755557608
 20
4.8321937281
 30
0.0
 10
16.4085490842
 20
4.8470440784
 30
0.0
 10
16.4327373812
 20
4.8594088656
 30
0.0
 10
16.4562992163
 20
4.8729621235
 30
0.0
 10
16.4791776733
 20
4.8876733818
 30
0.0
 10
16.5013167731
 20
4.9035078065
 30
0.0
 10
16.5226650937
 20
4.9204247599
 30
0.0
 10
16.5431697109
 20
4.9383855265
 30
0.0
 10
16.5627809641
 20
4.9573468845
 30
0.0
 10
16.5814536109
 20
4.9772612362
 30
0.0
 10
16.5991405852
 20
4.9980826627
 30
0.0
 10
16.6157995738
 20
5.0197604871
 30
0.0
 10
16.6313923964
 20
5.0422410552
 30
0.0
 10
16.6458789666
 20
5.0654720764
 30
0.0
 10
16.6592252371
 20
5.0893967542
 30
0.0
 10
16.6714010612
 20
5.1139576265
 30
0.0
 10
16.6860315714
 20
5.1474766199
 30
0.0
 10
16.7012546713
 20
5.1906776468
 30
0.0
 10
16.7122267232
 20
5.235167798
 30
0.0
 10
16.7183978157
 20
5.2712802408
 30
0.0
 10
16.7228140861
 20
5.3076603772
 30
0.0
 10
16.7241467263
 20
5.3351625894
 30
0.0
 10
16.7241467263
 20
5.353478145
 30
0.0
  0
SPLINE
  5
30F
100
AcDbEntity
  8
0
100
AcDbSpline
 62
7
  6
CONTINUOUS
 70
0
 71
3
 72
23
 73
19
 74
0
 42
0.0000001
 43
0.0000001
 44
0.0000000001
 40
0.0
 40
0.0
 40
0.0
 40
0.0
 40
0.0657231719
 40
0.1308006423
 40
0.1952651616
 40
0.2591629018
 40
0.3225471179
 40
0.3854710854
 40
0.4479895573
 40
0.510151943
 40
0.5720095679
 40
0.6336099335
 40
0.6949924602
 40
0.7561896986
 40
0.8172503995
 40
0.8782432127
 40
0.9391859246
 40
1.0
 40
1.0
 40
1.0
 40
1.0
 10
15.6505971306
 20
5.6126489842
 30
0.0
 10
15.6572723442
 20
5.6247744825
 30
0.0
 10
15.6714723574
 20
5.6484151361
 30
0.0
 10
15.6952210088
 20
5.6820308057
 30
0.0
 10
15.7211042587
 20
5.7135366745
 30
0.0
 10
15.7489161476
 20
5.7428610955
 30
0.0
 10
15.7784671341
 20
5.7699523704
 30
0.0
 10
15.8095774393
 20
5.7947723574
 30
0.0
 10
15.8420778121
 20
5.8172912874
 30
0.0
 10
15.8758077682
 20
5.8374872809
 30
0.0
 10
15.9106153598
 20
5.8553419354
 30
0.0
 10
15.9463543756
 20
5.8708403118
 30
0.0
 10
15.9828807806
 20
5.8839715705
 30
0.0
 10
16.0200565505
 20
5.8947290647
 30
0.0
 10
16.0577558611
 20
5.9031045397
 30
0.0
 10
16.0958539086
 20
5.9090878769
 30
0.0
 10
16.1341974536
 20
5.9126769049
 30
0.0
 10
16.1598467865
 20
5.913478145
 30
0.0
 10
16.1726543846
 20
5.913478145
 30
0.0
  0
SPLINE
  5
310
100
AcDbEntity
  8
0
100
AcDbSpline
 62
7
  6
CONTINUOUS
 70
0
 71
3
 72
23
 73
19
 74
0
 42
0.0000001
 43
0.0000001
 44
0.0000000001
 40
0.0
 40
0.0
 40
0.0
 40
0.0
 40
0.121700157
 40
0.1827105734
 40
0.2437811833
 40
0.3049804304
 40
0.3663670689
 40
0.42797362
 40
0.4898377871
 40
0.5520035076
 40
0.6145250914
 40
0.6774524402
 40
0.7408387929
 40
0.8047374936
 40
0.8691993496
 40
0.9016632473
 40
0.9342832589
 40
1.0
 40
1.0
 40
1.0
 40
1.0
 10
16.1726543846
 20
4.793478145
 30
0.0
 10
16.1470739652
 20
4.793478145
 30
0.0
 10
16.1086135846
 20
4.7958754572
 30
0.0
 10
16.0579685755
 20
4.8038126845
 30
0.0
 10
16.0203308802
 20
4.8121575545
 30
0.0
 10
15.9832196646
 20
4.8228764586
 30
0.0
 10
15.9467538281
 20
4.8359603824
 30
0.0
 10
15.9110693116
 20
4.8514020999
 30
0.0
 10
15.8763104286
 20
4.869191872
 30
0.0
 10
15.8426232752
 20
4.8893153142
 30
0.0
 10
15.8101589278
 20
4.9117543372
 30
0.0
 10
15.7790755587
 20
4.9364863215
 30
0.0
 10
15.7495423712
 20
4.9634834143
 30
0.0
 10
15.721738011
 20
4.9927053968
 30
0.0
 10
15.7002143236
 20
5.0188124085
 30
0.0
 10
15.6840542619
 20
5.0407349265
 30
0.0
 10
15.6685586822
 20
5.0634506694
 30
0.0
 10
15.6578656438
 20
5.0811690938
 30
0.0
 10
15.651178013
 20
5.0932553895
 30
0.0
  0
SPLINE
  5
311
100
AcDbEntity
  8
0
100
AcDbSpline
 62
7
  6
CONTINUOUS
 70
0
 71
3
 72
39
 73
35
 74
0
 42
0.0000001
 43
0.0000001
 44
0.0000000001
 40
0.0
 40
0.0
 40
0.0
 40
0.0
 40
0.0347903655
 40
0.0686967006
 40
0.1017438357
 40
0.1339730119
 40
0.1961718411
 40
0.2263238476
 40
0.2559506147
 40
0.2851383819
 40
0.3139939853
 40
0.3425932954
 40
0.3568252025
 40
0.3710251635
 40
0.3993439583
 40
0.4134823693
 40
0.4276125688
 40
0.4558672242
 40
0.4841635077
 40
0.5125445286
 40
0.5410853919
 40
0.5698501423
 40
0.5989243789
 40
0.6284088652
 40
0.6583847451
 40
0.6889512205
 40
0.7201933552
 40
0.784939188
 40
0.8185710195
 40
0.8530795193
 40
0.88848834
 40
0.9248074296
 40
0.9619993626
 40
1.0
 40
1.0
 40
1.0
 40
1.0
 10
18.5207772489
 20
11.7378754254
 30
0.0
 10
18.5242461886
 20
11.7346614399
 30
0.0
 10
18.5312394439
 20
11.7284675132
 30
0.0
 10
18.5420286927
 20
11.7198070563
 30
0.0
 10
18.5529739866
 20
11.711922967
 30
0.0
 10
18.567584484
 20
11.7025973644
 30
0.0
 10
18.5826674705
 20
11.6947720507
 30
0.0
 10
18.5981280902
 20
11.6887476086
 30
0.0
 10
18.6097088779
 20
11.6852208373
 30
0.0
 10
18.6213682851
 20
11.6826891714
 30
0.0
 10
18.633067079
 20
11.6812043091
 30
0.0
 10
18.6428216862
 20
11.6808739439
 30
0.0
 10
18.6505707194
 20
11.6811782604
 30
0.0
 10
18.6582565669
 20
11.6818653861
 30
0.0
 10
18.6658692269
 20
11.6831310666
 30
0.0
 10
18.6733395171
 20
11.6849754279
 30
0.0
 10
18.6806953316
 20
11.6872047608
 30
0.0
 10
18.6896593995
 20
11.6907137326
 30
0.0
 10
18.6999366344
 20
11.6960164211
 30
0.0
 10
18.7096491974
 20
11.7023648815
 30
0.0
 10
18.7187393519
 20
11.7096754046
 30
0.0
 10
18.7271691353
 20
11.7178722617
 30
0.0
 10
18.7349163482
 20
11.7268845283
 30
0.0
 10
18.7419814688
 20
11.7366427097
 30
0.0
 10
18.7483718658
 20
11.7470921223
 30
0.0
 10
18.7540984202
 20
11.7581880018
 30
0.0
 10
18.7609514194
 20
11.7739773899
 30
0.0
 10
18.7664346882
 20
11.7907705957
 30
0.0
 10
18.7706732862
 20
11.8083338741
 30
0.0
 10
18.7732944594
 20
11.822169074
 30
0.0
 10
18.77532191
 20
11.8364712129
 30
0.0
 10
18.7767617983
 20
11.8512107442
 30
0.0
 10
18.777620045
 20
11.8663477412
 30
0.0
 10
18.7778055235
 20
11.8765696477
 30
0.0
 10
18.7778055235
 20
11.8817349924
 30
0.0
  0
SPLINE
  5
312
100
AcDbEntity
  8
0
100
AcDbSpline
 62
7
  6
CONTINUOUS
 70
0
 71
3
 72
52
 73
48
 74
0
 42
0.0000001
 43
0.0000001
 44
0.0000000001
 40
0.0
 40
0.0
 40
0.0
 40
0.0
 40
0.0343981899
 40
0.0699143563
 40
0.1063597899
 40
0.1435678213
 40
0.1813385145
 40
0.2194530974
 40
0.257687585
 40
0.2958154105
 40
0.3336114111
 40
0.3708592193
 40
0.4073565536
 40
0.442920204
 40
0.4773952541
 40
0.5106584061
 40
0.542628214
 40
0.5732727041
 40
0.6026142153
 40
0.6168253504
 40
0.6307488557
 40
0.6444038179
 40
0.6578137923
 40
0.6710079027
 40
0.6840127559
 40
0.6968557927
 40
0.7095715691
 40
0.7221857083
 40
0.7347202019
 40
0.7472031851
 40
0.7596518126
 40
0.7720801643
 40
0.7845060697
 40
0.7969444923
 40
0.8031735426
 40
0.8094102191
 40
0.8219169381
 40
0.8344920306
 40
0.8471538496
 40
0.8599312594
 40
0.8728568405
 40
0.8859555065
 40
0.9127793259
 40
0.9265712446
 40
0.9406413948
 40
0.9696780144
 40
1.0
 40
1.0
 40
1.0
 40
1.0
 10
18.7778055235
 20
11.8817349924
 30
0.0
 10
18.7778055235
 20
11.8907158955
 30
0.0
 10
18.7772315024
 20
11.908973353
 30
0.0
 10
18.7747805084
 20
11.936647258
 30
0.0
 10
18.7707508461
 20
11.9648769017
 30
0.0
 10
18.765184245
 20
11.9934427572
 30
0.0
 10
18.758130738
 20
12.0221267327
 30
0.0
 10
18.7496478412
 20
12.0507002576
 30
0.0
 10
18.7398064249
 20
12.0789334203
 30
0.0
 10
18.7286865511
 20
12.1065984386
 30
0.0
 10
18.7163751627
 20
12.1334714453
 30
0.0
 10
18.7029684521
 20
12.1593371791
 30
0.0
 10
18.6885661121
 20
12.1839903342
 30
0.0
 10
18.6732700698
 20
12.2072387143
 30
0.0
 10
18.6571826199
 20
12.2289056511
 30
0.0
 10
18.6403996267
 20
12.2488289886
 30
0.0
 10
18.6230095859
 20
12.2668639074
 30
0.0
 10
18.6050873154
 20
12.2828742165
 30
0.0
 10
18.5895929852
 20
12.2945490166
 30
0.0
 10
18.5769874725
 20
12.3027005508
 30
0.0
 10
18.5675346727
 20
12.3081592962
 30
0.0
 10
18.5579881574
 20
12.3130074087
 30
0.0
 10
18.5483525976
 20
12.317222725
 30
0.0
 10
18.5386359743
 20
12.3207826166
 30
0.0
 10
18.528849556
 20
12.3236612102
 30
0.0
 10
18.5190084819
 20
12.3258289774
 30
0.0
 10
18.5091350041
 20
12.3272545001
 30
0.0
 10
18.4992607965
 20
12.3279115945
 30
0.0
 10
18.4894255131
 20
12.3277747582
 30
0.0
 10
18.4796788322
 20
12.3268160488
 30
0.0
 10
18.4700768475
 20
12.3250322154
 30
0.0
 10
18.46068072
 20
12.3224215291
 30
0.0
 10
18.4515564437
 20
12.3189876796
 30
0.0
 10
18.4442274553
 20
12.3154707166
 30
0.0
 10
18.4385588426
 20
12.3122821018
 30
0.0
 10
18.4330181772
 20
12.3088420137
 30
0.0
 10
18.4263523252
 20
12.3040884259
 30
0.0
 10
18.4188154237
 20
12.2977239451
 30
0.0
 10
18.4117534055
 20
12.2907359622
 30
0.0
 10
18.4051779598
 20
12.2831681382
 30
0.0
 10
18.3990887067
 20
12.2750614235
 30
0.0
 10
18.3915549538
 20
12.26349197
 30
0.0
 10
18.3850403781
 20
12.2510282121
 30
0.0
 10
18.3794897249
 20
12.2378688923
 30
0.0
 10
18.3744326133
 20
12.2238938868
 30
0.0
 10
18.369250473
 20
12.2054065438
 30
0.0
 10
18.3663581883
 20
12.1901618708
 30
0.0
 10
18.3651751551
 20
12.1823341026
 30
0.0
  0
SPLINE
  5
313
100
AcDbEntity
  8
0
100
AcDbSpline
 62
7
  6
CONTINUOUS
 70
0
 71
3
 72
46
 73
42
 74
0
 42
0.0000001
 43
0.0000001
 44
0.0000000001
 40
0.0
 40
0.0
 40
0.0
 40
0.0
 40
0.0332932201
 40
0.0674858652
 40
0.1024427619
 40
0.1380537882
 40
0.1742072431
 40
0.2107649667
 40
0.2475795955
 40
0.2845010496
 40
0.3213782312
 40
0.3580603026
 40
0.3943991743
 40
0.4302554633
 40
0.4654975458
 40
0.5000098807
 40
0.5336899036
 40
0.5664599618
 40
0.5982614462
 40
0.6290691108
 40
0.6588837085
 40
0.6877449626
 40
0.7157264424
 40
0.7429329138
 40
0.7695064988
 40
0.7955902233
 40
0.8085085291
 40
0.8213609979
 40
0.8341610253
 40
0.8469271892
 40
0.8596717467
 40
0.872398609
 40
0.885114768
 40
0.8978285097
 40
0.9105429805
 40
0.9232597695
 40
0.9359823263
 40
0.9487209524
 40
0.961483947
 40
0.974276236
 40
1.0
 40
1.0
 40
1.0
 40
1.0
 10
18.309979262
 20
11.7533900396
 30
0.0
 10
18.309979262
 20
11.7596226209
 30
0.0
 10
18.3096440915
 20
11.7722581085
 30
0.0
 10
18.3082025172
 20
11.7913881554
 30
0.0
 10
18.3058272738
 20
11.8108620394
 30
0.0
 10
18.3025385631
 20
11.8305742523
 30
0.0
 10
18.2983581009
 20
11.850422844
 30
0.0
 10
18.2933131525
 20
11.8703018191
 30
0.0
 10
18.2874315328
 20
11.8900994027
 30
0.0
 10
18.2807494293
 20
11.9097044675
 30
0.0
 10
18.2733031813
 20
11.9290056596
 30
0.0
 10
18.2651359884
 20
11.9478943667
 30
0.0
 10
18.2562903736
 20
11.9662633551
 30
0.0
 10
18.2468145476
 20
11.9840106155
 30
0.0
 10
18.2367546469
 20
12.0010379108
 30
0.0
 10
18.2261599893
 20
12.0172537896
 30
0.0
 10
18.2150760753
 20
12.0325724142
 30
0.0
 10
18.2035477506
 20
12.0469149588
 30
0.0
 10
18.1916144108
 20
12.0602095562
 30
0.0
 10
18.1793092793
 20
12.0723882105
 30
0.0
 10
18.1666599221
 20
12.08338984
 30
0.0
 10
18.1536817158
 20
12.0931480369
 30
0.0
 10
18.1403888473
 20
12.1015995886
 30
0.0
 10
18.1267843972
 20
12.108660876
 30
0.0
 10
18.1128867632
 20
12.1142402956
 30
0.0
 10
18.1010401361
 20
12.1175680268
 30
0.0
 10
18.0914923904
 20
12.11934917
 30
0.0
 10
18.0843212379
 20
12.1202335401
 30
0.0
 10
18.0771363092
 20
12.1206538117
 30
0.0
 10
18.0699591429
 20
12.1205922396
 30
0.0
 10
18.062816669
 20
12.1200383566
 30
0.0
 10
18.0557394
 20
12.1189880639
 30
0.0
 10
18.0487608434
 20
12.1174347774
 30
0.0
 10
18.0419163843
 20
12.1153772039
 30
0.0
 10
18.0352384653
 20
12.1128305582
 30
0.0
 10
18.0287600985
 20
12.1098080451
 30
0.0
 10
18.0225138735
 20
12.1063219528
 30
0.0
 10
18.0165224745
 20
12.1023991942
 30
0.0
 10
18.0108041881
 20
12.0980660124
 30
0.0
 10
18.0035563771
 20
12.0917635562
 30
0.0
 10
17.9985878113
 20
12.0865040435
 30
0.0
 10
17.9954947325
 20
12.0828131808
 30
0.0
  0
SPLINE
  5
314
100
AcDbEntity
  8
0
100
AcDbSpline
 62
7
  6
CONTINUOUS
 70
0
 71
3
 72
31
 73
27
 74
0
 42
0.0000001
 43
0.0000001
 44
0.0000000001
 40
0.0
 40
0.0
 40
0.0
 40
0.0
 40
0.0589229921
 40
0.0882116048
 40
0.1174326393
 40
0.1466055301
 40
0.1757417843
 40
0.2048618644
 40
0.2339808102
 40
0.2631034899
 40
0.2922344186
 40
0.3213924866
 40
0.3506021292
 40
0.3798772729
 40
0.4092420292
 40
0.4387473951
 40
0.4684342739
 40
0.4983339393
 40
0.5284987589
 40
0.5898201042
 40
0.6527726457
 40
0.7176655315
 40
0.7847276596
 40
0.8541341466
 40
0.9259537712
 40
1.0
 40
1.0
 40
1.0
 40
1.0
 10
18.1694859473
 20
11.5851214554
 30
0.0
 10
18.174381612
 20
11.5841191801
 30
0.0
 10
18.1818168254
 20
11.5830697856
 30
0.0
 10
18.1917744979
 20
11.5826831257
 30
0.0
 10
18.1992137945
 20
11.582917401
 30
0.0
 10
18.2066039354
 20
11.5836832842
 30
0.0
 10
18.213910382
 20
11.584985893
 30
0.0
 10
18.2210939442
 20
11.58683325
 30
0.0
 10
18.2281165712
 20
11.5892165767
 30
0.0
 10
18.2349421495
 20
11.5921187374
 30
0.0
 10
18.2415332521
 20
11.5955272496
 30
0.0
 10
18.2478589949
 20
11.5994195468
 30
0.0
 10
18.2538979465
 20
11.6037637731
 30
0.0
 10
18.2596299585
 20
11.608532722
 30
0.0
 10
18.2650396665
 20
11.6137001695
 30
0.0
 10
18.2701225219
 20
11.6192362904
 30
0.0
 10
18.2748768496
 20
11.6251148606
 30
0.0
 10
18.2793031219
 20
11.6313128174
 30
0.0
 10
18.2848004684
 20
11.6400222859
 30
0.0
 10
18.2908754194
 20
11.6516548892
 30
0.0
 10
18.2968994946
 20
11.6665472963
 30
0.0
 10
18.3017475462
 20
11.6823700076
 30
0.0
 10
18.3054707617
 20
11.699052281
 30
0.0
 10
18.3080952206
 20
11.7165345274
 30
0.0
 10
18.3096482358
 20
11.7347362855
 30
0.0
 10
18.309979262
 20
11.7471102429
 30
0.0
 10
18.309979262
 20
11.7533900396
 30
0.0
  0
SPLINE
  5
315
100
AcDbEntity
  8
0
100
AcDbSpline
 62
7
  6
CONTINUOUS
 70
0
 71
3
 72
24
 73
20
 74
0
 42
0.0000001
 43
0.0000001
 44
0.0000000001
 40
0.0
 40
0.0
 40
0.0
 40
0.0
 40
0.0640001387
 40
0.1288469432
 40
0.1943051623
 40
0.2601504101
 40
0.3261812779
 40
0.3922008669
 40
0.4580126583
 40
0.523408983
 40
0.5881718389
 40
0.6520742165
 40
0.7148479101
 40
0.7457232989
 40
0.7762061051
 40
0.8358137712
 40
0.8932955404
 40
0.9482173311
 40
1.0
 40
1.0
 40
1.0
 40
1.0
 10
18.1523873122
 20
12.0933582977
 30
0.0
 10
18.1587899449
 20
12.0938407993
 30
0.0
 10
18.1716562362
 20
12.0951597378
 30
0.0
 10
18.1909247955
 20
12.0981687227
 30
0.0
 10
18.2101906166
 20
12.1022241711
 30
0.0
 10
18.2293279933
 20
12.1073299426
 30
0.0
 10
18.2482233533
 20
12.1134537202
 30
0.0
 10
18.2667680132
 20
12.1205603698
 30
0.0
 10
18.2848502465
 20
12.1286175732
 30
0.0
 10
18.3023703109
 20
12.1375587504
 30
0.0
 10
18.3192307239
 20
12.1473123274
 30
0.0
 10
18.3353265936
 20
12.1578068027
 30
0.0
 10
18.3481002009
 20
12.1671301708
 30
0.0
 10
18.3578600393
 20
12.1748675296
 30
0.0
 10
18.3671661808
 20
12.1826588531
 30
0.0
 10
18.3781384174
 20
12.1926098323
 30
0.0
 10
18.39029873
 20
12.2048658082
 30
0.0
 10
18.4012634278
 20
12.2171679429
 30
0.0
 10
18.4079615267
 20
12.2255261776
 30
0.0
 10
18.4110967815
 20
12.2296685177
 30
0.0
  0
SPLINE
  5
316
100
AcDbEntity
  8
0
100
AcDbSpline
 62
7
  6
CONTINUOUS
 70
0
 71
3
 72
28
 73
24
 74
0
 42
0.0000001
 43
0.0000001
 44
0.0000000001
 40
0.0
 40
0.0
 40
0.0
 40
0.0
 40
0.0517985939
 40
0.0789031447
 40
0.1067119371
 40
0.1351619186
 40
0.1641981654
 40
0.1937670928
 40
0.2238171767
 40
0.2543036464
 40
0.2851849763
 40
0.3479645686
 40
0.4118648477
 40
0.4766324097
 40
0.5420282808
 40
0.6078387026
 40
0.6738582263
 40
0.739886501
 40
0.8057242967
 40
0.8385117416
 40
0.8711755977
 40
0.9360118673
 40
1.0
 40
1.0
 40
1.0
 40
1.0
 10
18.5862027413
 20
11.7295140626
 30
0.0
 10
18.5811611939
 20
11.7307980089
 30
0.0
 10
18.5734257446
 20
11.7325421927
 30
0.0
 10
18.5628858483
 20
11.7344911251
 30
0.0
 10
18.5546138819
 20
11.7357932465
 30
0.0
 10
18.5461178447
 20
11.736899215
 30
0.0
 10
18.5374196187
 20
11.7377980669
 30
0.0
 10
18.5285403592
 20
11.7384783829
 30
0.0
 10
18.5195006056
 20
11.7389283929
 30
0.0
 10
18.5103202441
 20
11.7391409545
 30
0.0
 10
18.4978501828
 20
11.7390999771
 30
0.0
 10
18.4820319066
 20
11.7384154917
 30
0.0
 10
18.4628842629
 20
11.7365628667
 30
0.0
 10
18.4436003704
 20
11.7336660454
 30
0.0
 10
18.4243098722
 20
11.7297089438
 30
0.0
 10
18.4051331729
 20
11.7247089608
 30
0.0
 10
18.3861861815
 20
11.7186848934
 30
0.0
 10
18.3675837395
 20
11.7116618751
 30
0.0
 10
18.3524332876
 20
11.705012121
 30
0.0
 10
18.340577797
 20
11.6992363747
 30
0.0
 10
18.3289696745
 20
11.6931930746
 30
0.0
 10
18.3148841424
 20
11.6851359972
 30
0.0
 10
18.3040011678
 20
11.6781251976
 30
0.0
 10
18.298693856
 20
11.674500901
 30
0.0
  0
SPLINE
  5
317
100
AcDbEntity
  8
0
100
AcDbSpline
 62
9
  6
CONTINUOUS
 70
0
 71
3
 72
9
 73
5
 74
0
 42
0.0000001
 43
0.0000001
 44
0.0000000001
 40
0.0
 40
0.0
 40
0.0
 40
0.0
 40
0.246683992
 40
1.0
 40
1.0
 40
1.0
 40
1.0
 10
18.0472432999
 20
12.0702588496
 30
0.0
 10
18.0478858613
 20
12.0702149238
 30
0.0
 10
18.050488167
 20
12.0700016515
 30
0.0
 10
18.0530787712
 20
12.0696492023
 30
0.0
 10
18.0550164647
 20
12.0693120064
 30
0.0
  0
SPLINE
  5
318
100
AcDbEntity
  8
0
100
AcDbSpline
 62
9
  6
CONTINUOUS
 70
0
 71
3
 72
9
 73
5
 74
0
 42
0.0000001
 43
0.0000001
 44
0.0000000001
 40
0.0
 40
0.0
 40
0.0
 40
0.0
 40
0.2423236071
 40
1.0
 40
1.0
 40
1.0
 40
1.0
 10
18.0591512073
 20
12.0684813323
 30
0.0
 10
18.060428093
 20
12.0681908256
 30
0.0
 10
18.0656693446
 20
12.0668697683
 30
0.0
 10
18.0707881032
 20
12.0650780063
 30
0.0
 10
18.0745707849
 20
12.0635108164
 30
0.0
  0
SPLINE
  5
319
100
AcDbEntity
  8
0
100
AcDbSpline
 62
9
  6
CONTINUOUS
 70
0
 71
3
 72
32
 73
28
 74
0
 42
0.0000001
 43
0.0000001
 44
0.0000000001
 40
0.0
 40
0.0
 40
0.0
 40
0.0
 40
0.0446262737
 40
0.0683796557
 40
0.0931075014
 40
0.1188109982
 40
0.1454782426
 40
0.1730896877
 40
0.2016157718
 40
0.2612427179
 40
0.2922602259
 40
0.3240032586
 40
0.3564120608
 40
0.3894209942
 40
0.4569542368
 40
0.5260278858
 40
0.5960238435
 40
0.6663019751
 40
0.7362193484
 40
0.7708470648
 40
0.805147462
 40
0.8390435144
 40
0.8724625168
 40
0.9053350655
 40
0.9375935735
 40
0.9691708404
 40
1.0
 40
1.0
 40
1.0
 40
1.0
 10
18.0745707849
 20
12.0635108164
 30
0.0
 10
18.0797502453
 20
12.0613649318
 30
0.0
 10
18.0874424936
 20
12.0574631364
 30
0.0
 10
18.0973500539
 20
12.0512394681
 30
0.0
 10
18.1049481476
 20
12.0458327615
 30
0.0
 10
18.1125329326
 20
12.0398024471
 30
0.0
 10
18.1200837261
 20
12.0331671261
 30
0.0
 10
18.127576804
 20
12.0259460125
 30
0.0
 10
18.1376082725
 20
12.0154110984
 30
0.0
 10
18.1472619542
 20
12.0039449894
 30
0.0
 10
18.1565258866
 20
11.991671189
 30
0.0
 10
18.1633984153
 20
11.981884647
 30
0.0
 10
18.1700817075
 20
11.9716680451
 30
0.0
 10
18.1787803507
 20
11.9574066198
 30
0.0
 10
18.1890327086
 20
11.9387105584
 30
0.0
 10
18.2001859996
 20
11.9152587979
 30
0.0
 10
18.2101468622
 20
11.8909030845
 30
0.0
 10
18.2187950317
 20
11.8659395913
 30
0.0
 10
18.2248407161
 20
11.8448122388
 30
0.0
 10
18.2289291779
 20
11.8278530303
 30
0.0
 10
18.2315989728
 20
11.8152122564
 30
0.0
 10
18.2338732091
 20
11.8026486763
 30
0.0
 10
18.2357445253
 20
11.7902000537
 30
0.0
 10
18.2372063865
 20
11.7779037692
 30
0.0
 10
18.2382512124
 20
11.7657971146
 30
0.0
 10
18.2388812318
 20
11.7539189628
 30
0.0
 10
18.2390290793
 20
11.7460783603
 30
0.0
 10
18.2390323323
 20
11.7422052991
 30
0.0
  0
SPLINE
  5
31A
100
AcDbEntity
  8
0
100
AcDbSpline
 62
9
  6
CONTINUOUS
 70
0
 71
3
 72
15
 73
11
 74
0
 42
0.0000001
 43
0.0000001
 44
0.0000000001
 40
0.0
 40
0.0
 40
0.0
 40
0.0
 40
0.1438209241
 40
0.2827636157
 40
0.41639038
 40
0.5444532358
 40
0.6668426098
 40
0.7835175114
 40
0.8945199164
 40
1.0
 40
1.0
 40
1.0
 40
1.0
 10
18.2390323323
 20
11.7422052991
 30
0.0
 10
18.2390305658
 20
11.7376143587
 30
0.0
 10
18.2388309673
 20
11.7285867443
 30
0.0
 10
18.237910184
 20
11.7153218192
 30
0.0
 10
18.2363693266
 20
11.7026200933
 30
0.0
 10
18.2342149882
 20
11.690543572
 30
0.0
 10
18.2314588232
 20
11.6791450833
 30
0.0
 10
18.2281121871
 20
11.6684737188
 30
0.0
 10
18.2241910557
 20
11.6585775923
 30
0.0
 10
18.2211260025
 20
11.6523727771
 30
0.0
 10
18.2194970021
 20
11.6494260145
 30
0.0
  0
SPLINE
  5
31B
100
AcDbEntity
  8
0
100
AcDbSpline
 62
9
  6
CONTINUOUS
 70
0
 71
3
 72
9
 73
5
 74
0
 42
0.0000001
 43
0.0000001
 44
0.0000000001
 40
0.0
 40
0.0
 40
0.0
 40
0.0
 40
0.5132566224
 40
1.0
 40
1.0
 40
1.0
 40
1.0
 10
18.2194970021
 20
11.6494260145
 30
0.0
 10
18.2178033598
 20
11.6463623186
 30
0.0
 10
18.2142143472
 20
11.6405466395
 30
0.0
 10
18.2100024246
 20
11.6351593456
 30
0.0
 10
18.2077981515
 20
11.6326769148
 30
0.0
  0
SPLINE
  5
31C
100
AcDbEntity
  8
0
100
AcDbSpline
 62
9
  6
CONTINUOUS
 70
0
 71
3
 72
9
 73
5
 74
0
 42
0.0000001
 43
0.0000001
 44
0.0000000001
 40
0.0
 40
0.0
 40
0.0
 40
0.0
 40
0.2540703377
 40
1.0
 40
1.0
 40
1.0
 40
1.0
 10
18.2077981515
 20
11.6326769148
 30
0.0
 10
18.2072842276
 20
11.6320981388
 30
0.0
 10
18.2052284079
 20
11.6298497833
 30
0.0
 10
18.2030384539
 20
11.6277233609
 30
0.0
 10
18.2013330497
 20
11.6262214944
 30
0.0
  0
SPLINE
  5
31D
100
AcDbEntity
  8
0
100
AcDbSpline
 62
9
  6
CONTINUOUS
 70
0
 71
3
 72
51
 73
47
 74
0
 42
0.0000001
 43
0.0000001
 44
0.0000000001
 40
0.0
 40
0.0
 40
0.0
 40
0.0
 40
0.0143194283
 40
0.0281892576
 40
0.0545878693
 40
0.0671462513
 40
0.0792961444
 40
0.1024513604
 40
0.1135316902
 40
0.1243259166
 40
0.1348785525
 40
0.1452394524
 40
0.1554623443
 40
0.1656043142
 40
0.1757246531
 40
0.1858829667
 40
0.1961380804
 40
0.2065464492
 40
0.2171606157
 40
0.2280289198
 40
0.2391947377
 40
0.250695174
 40
0.2748103123
 40
0.2874843079
 40
0.3005877762
 40
0.3281174075
 40
0.3574481888
 40
0.3885632881
 40
0.4213960022
 40
0.4384275227
 40
0.4558460474
 40
0.4917673874
 40
0.528999598
 40
0.5673569863
 40
0.6066353395
 40
0.6466180191
 40
0.6870775195
 40
0.7277802474
 40
0.7684887728
 40
0.8089665757
 40
0.8489796546
 40
0.8882988693
 40
0.907631391
 40
0.9267113064
 40
0.9640117961
 40
1.0
 40
1.0
 40
1.0
 40
1.0
 10
18.3768097434
 20
12.1929354098
 30
0.0
 10
18.3776013748
 20
12.1959204621
 30
0.0
 10
18.3792839392
 20
12.2017652382
 30
0.0
 10
18.3830531788
 20
12.2129209055
 30
0.0
 10
18.3874733769
 20
12.22344824
 30
0.0
 10
18.3925871668
 20
12.2332188598
 30
0.0
 10
18.3979100376
 20
12.2420680551
 30
0.0
 10
18.4038686729
 20
12.2501492631
 30
0.0
 10
18.41045475
 20
12.2572964502
 30
0.0
 10
18.4155760554
 20
12.2620697176
 30
0.0
 10
18.4209407528
 20
12.2663224732
 30
0.0
 10
18.4265378915
 20
12.2700470732
 30
0.0
 10
18.4323565996
 20
12.2732353225
 30
0.0
 10
18.4383856699
 20
12.2758791183
 30
0.0
 10
18.4446120685
 20
12.2779739419
 30
0.0
 10
18.4510229133
 20
12.2795158947
 30
0.0
 10
18.4576052158
 20
12.2805007557
 30
0.0
 10
18.4643452197
 20
12.2809271998
 30
0.0
 10
18.4712292438
 20
12.2807959493
 30
0.0
 10
18.4782435902
 20
12.2801072045
 30
0.0
 10
18.4853746195
 20
12.2788620142
 30
0.0
 10
18.4951727657
 20
12.2764278428
 30
0.0
 10
18.5050052211
 20
12.2728975714
 30
0.0
 10
18.5147855906
 20
12.2684029244
 30
0.0
 10
18.5249596586
 20
12.2630377391
 30
0.0
 10
18.5377407336
 20
12.2549699505
 30
0.0
 10
18.5528355886
 20
12.2434396619
 30
0.0
 10
18.5678215148
 20
12.2299907889
 30
0.0
 10
18.5799749177
 20
12.2174292087
 30
0.0
 10
18.5895608336
 20
12.2065331411
 30
0.0
 10
18.5992345694
 20
12.1948361533
 30
0.0
 10
18.6110117433
 20
12.1792381686
 30
0.0
 10
18.6244535311
 20
12.1592833688
 30
0.0
 10
18.6372420331
 20
12.1380543538
 30
0.0
 10
18.6492802638
 20
12.1157158165
 30
0.0
 10
18.6604740539
 20
12.0924387756
 30
0.0
 10
18.6707378513
 20
12.0684029376
 30
0.0
 10
18.6799925603
 20
12.0437936311
 30
0.0
 10
18.6881660427
 20
12.0188002893
 30
0.0
 10
18.6951965523
 20
11.9936158112
 30
0.0
 10
18.7010276233
 20
11.9684344159
 30
0.0
 10
18.7048747823
 20
11.9474975939
 30
0.0
 10
18.7073070774
 20
11.9309092859
 30
0.0
 10
18.7092782381
 20
11.9146983904
 30
0.0
 10
18.7109338112
 20
11.894837222
 30
0.0
 10
18.7114028144
 20
11.8790287158
 30
0.0
 10
18.7114064739
 20
11.8712672225
 30
0.0
  0
SPLINE
  5
31E
100
AcDbEntity
  8
0
100
AcDbSpline
 62
9
  6
CONTINUOUS
 70
0
 71
3
 72
36
 73
32
 74
0
 42
0.0000001
 43
0.0000001
 44
0.0000000001
 40
0.0
 40
0.0
 40
0.0
 40
0.0
 40
0.0429476877
 40
0.0848553002
 40
0.1256443238
 40
0.1652488924
 40
0.2036369941
 40
0.2407894706
 40
0.2766940747
 40
0.3113471757
 40
0.3769076217
 40
0.4078998595
 40
0.4377579643
 40
0.4943342088
 40
0.5212982634
 40
0.5475321391
 40
0.5731862389
 40
0.598426073
 40
0.6234293768
 40
0.6483819578
 40
0.6734706201
 40
0.6988785215
 40
0.7247783501
 40
0.7513283674
 40
0.7786707994
 40
0.8069267722
 40
0.8665308091
 40
0.898061521
 40
0.9307986044
 40
0.9647734659
 40
1.0
 40
1.0
 40
1.0
 40
1.0
 10
18.7114064739
 20
11.8712672225
 30
0.0
 10
18.7114042041
 20
11.867028882
 30
0.0
 10
18.7112658332
 20
11.8586541785
 30
0.0
 10
18.7106387931
 20
11.846268262
 30
0.0
 10
18.7095929826
 20
11.834241363
 30
0.0
 10
18.7081258277
 20
11.8226083265
 30
0.0
 10
18.7062428654
 20
11.811398733
 30
0.0
 10
18.7039498351
 20
11.8006387021
 30
0.0
 10
18.7012518426
 20
11.7903524939
 30
0.0
 10
18.6971998794
 20
11.7775416499
 30
0.0
 10
18.6923234494
 20
11.7655096507
 30
0.0
 10
18.6865577534
 20
11.7544373436
 30
0.0
 10
18.6805256813
 20
11.7445359481
 30
0.0
 10
18.6736854844
 20
11.7356107513
 30
0.0
 10
18.6660565472
 20
11.7279033148
 30
0.0
 10
18.6601077182
 20
11.7228698298
 30
0.0
 10
18.6538577542
 20
11.7185059336
 30
0.0
 10
18.6473220327
 20
11.714822929
 30
0.0
 10
18.6405167331
 20
11.711833089
 30
0.0
 10
18.6334607618
 20
11.7095432729
 30
0.0
 10
18.6261729461
 20
11.7079591587
 30
0.0
 10
18.6186725437
 20
11.7070863841
 30
0.0
 10
18.6109797248
 20
11.7069247692
 30
0.0
 10
18.6031142587
 20
11.7074733573
 30
0.0
 10
18.5950958015
 20
11.7087315782
 30
0.0
 10
18.5840328889
 20
11.7113941456
 30
0.0
 10
18.5729249189
 20
11.7154597607
 30
0.0
 10
18.5618939321
 20
11.7207382871
 30
0.0
 10
18.5534101131
 20
11.725443833
 30
0.0
 10
18.5448956232
 20
11.730809931
 30
0.0
 10
18.5393118024
 20
11.7347476208
 30
0.0
 10
18.5365191024
 20
11.736817881
 30
0.0
  0
SPLINE
  5
31F
100
AcDbEntity
  8
0
100
AcDbSpline
 62
7
  6
CONTINUOUS
 70
0
 71
3
 72
30
 73
26
 74
0
 42
0.0000001
 43
0.0000001
 44
0.0000000001
 40
0.0
 40
0.0
 40
0.0
 40
0.0
 40
0.0556809409
 40
0.082523447
 40
0.1088072305
 40
0.1346311782
 40
0.1601019141
 40
0.185333433
 40
0.2104447484
 40
0.2355568193
 40
0.2607908837
 40
0.2862658379
 40
0.3120951312
 40
0.3383857295
 40
0.3652371113
 40
0.4209376442
 40
0.449963527
 40
0.4798457057
 40
0.5423388794
 40
0.6087181139
 40
0.6791171813
 40
0.7535552846
 40
0.8319704709
 40
0.9142193061
 40
1.0
 40
1.0
 40
1.0
 40
1.0
 10
18.5862026512
 20
11.7295145736
 30
0.0
 10
18.5901611408
 20
11.7285064705
 30
0.0
 10
18.5961294943
 20
11.7273624604
 30
0.0
 10
18.6040878804
 20
11.7266837006
 30
0.0
 10
18.6098847277
 20
11.7266060119
 30
0.0
 10
18.6155707366
 20
11.7269541254
 30
0.0
 10
18.6211369679
 20
11.7277283004
 30
0.0
 10
18.6265738435
 20
11.7289279953
 30
0.0
 10
18.6318724564
 20
11.7305503528
 30
0.0
 10
18.6370240119
 20
11.7325926766
 30
0.0
 10
18.6420195323
 20
11.7350523359
 30
0.0
 10
18.6468507033
 20
11.7379249215
 30
0.0
 10
18.6515099847
 20
11.7412046779
 30
0.0
 10
18.6559900886
 20
11.744886408
 30
0.0
 10
18.6617834985
 20
11.7503893393
 30
0.0
 10
18.6671188782
 20
11.7566336223
 30
0.0
 10
18.6719772321
 20
11.763499758
 30
0.0
 10
18.6766913894
 20
11.7710615782
 30
0.0
 10
18.6820183967
 20
11.7814441991
 30
0.0
 10
18.6874052895
 20
11.7950553227
 30
0.0
 10
18.6918536326
 20
11.8099162031
 30
0.0
 10
18.6953361015
 20
11.8259344282
 30
0.0
 10
18.6978337992
 20
11.8430126402
 30
0.0
 10
18.6993289842
 20
11.8610405585
 30
0.0
 10
18.699648157
 20
11.8733705276
 30
0.0
 10
18.699648157
 20
11.8796635309
 30
0.0
  0
SPLINE
  5
320
100
AcDbEntity
  8
0
100
AcDbSpline
 62
7
  6
CONTINUOUS
 70
0
 71
3
 72
9
 73
5
 74
0
 42
0.0000001
 43
0.0000001
 44
0.0000000001
 40
0.0
 40
0.0
 40
0.0
 40
0.0
 40
0.4913014551
 40
1.0
 40
1.0
 40
1.0
 40
1.0
 10
18.699648157
 20
11.8796635309
 30
0.0
 10
18.699648157
 20
11.8865889169
 30
0.0
 10
18.6992468215
 20
11.900686982
 30
0.0
 10
18.6981190002
 20
11.9147442795
 30
0.0
 10
18.6973741413
 20
11.9218761033
 30
0.0
  0
SPLINE
  5
321
100
AcDbEntity
  8
0
100
AcDbSpline
 62
7
  6
CONTINUOUS
 70
0
 71
3
 72
16
 73
12
 74
0
 42
0.0000001
 43
0.0000001
 44
0.0000000001
 40
0.0
 40
0.0
 40
0.0
 40
0.0
 40
0.1208215978
 40
0.2450723762
 40
0.3716774295
 40
0.4994998324
 40
0.6273865747
 40
0.7541782668
 40
0.8787400962
 40
0.9398495377
 40
1.0
 40
1.0
 40
1.0
 40
1.0
 10
18.6973741413
 20
11.9218761033
 30
0.0
 10
18.6963734031
 20
11.9314579017
 30
0.0
 10
18.6937181956
 20
11.9508326038
 30
0.0
 10
18.6879628992
 20
11.9799204368
 30
0.0
 10
18.6804375171
 20
12.0091785066
 30
0.0
 10
18.6712309551
 20
12.0382552447
 30
0.0
 10
18.6604533361
 20
12.0668031607
 30
0.0
 10
18.6482338944
 20
12.0944800161
 30
0.0
 10
18.6368997814
 20
12.1166845736
 30
0.0
 10
18.6272203211
 20
12.1337315371
 30
0.0
 10
18.6221924081
 20
12.1419925139
 30
0.0
 10
18.6196341156
 20
12.1460494426
 30
0.0
  0
SPLINE
  5
322
100
AcDbEntity
  8
0
100
AcDbSpline
 62
7
  6
CONTINUOUS
 70
0
 71
3
 72
32
 73
28
 74
0
 42
0.0000001
 43
0.0000001
 44
0.0000000001
 40
0.0
 40
0.0
 40
0.0
 40
0.0
 40
0.0875746401
 40
0.1719593795
 40
0.2128318694
 40
0.2527617411
 40
0.3296260668
 40
0.4023149959
 40
0.4370498824
 40
0.4706963451
 40
0.534716342
 40
0.5651427774
 40
0.5945471774
 40
0.6504492841
 40
0.6771091619
 40
0.7030077408
 40
0.7282456421
 40
0.7529379013
 40
0.7772106389
 40
0.8012003401
 40
0.825051286
 40
0.8489107667
 40
0.8729262469
 40
0.897241007
 40
0.9219902532
 40
0.9472997172
 40
1.0
 40
1.0
 40
1.0
 40
1.0
 10
18.6179985013
 20
12.1486238622
 30
0.0
 10
18.6138688288
 20
12.1550754058
 30
0.0
 10
18.6054341762
 20
12.1675388433
 30
0.0
 10
18.5941539419
 20
12.1823621602
 30
0.0
 10
18.5848864252
 20
12.1934501198
 30
0.0
 10
18.5757113713
 20
12.2037487311
 30
0.0
 10
18.564083264
 20
12.2155781411
 30
0.0
 10
18.5519583433
 20
12.2262270593
 30
0.0
 10
18.5421897056
 20
12.2337719601
 30
0.0
 10
18.532719117
 20
12.240441657
 30
0.0
 10
18.5231149761
 20
12.246255336
 30
0.0
 10
18.5134144854
 20
12.2510900745
 30
0.0
 10
18.5041061391
 20
12.2550783318
 30
0.0
 10
18.4947578934
 20
12.2581108087
 30
0.0
 10
18.4854656751
 20
12.2600581003
 30
0.0
 10
18.4787129235
 20
12.2609525923
 30
0.0
 10
18.472082178
 20
12.2613008207
 30
0.0
 10
18.4655869725
 20
12.261102752
 30
0.0
 10
18.4592410615
 20
12.2603577799
 30
0.0
 10
18.4530584014
 20
12.2590658379
 30
0.0
 10
18.4470523157
 20
12.2572307827
 30
0.0
 10
18.4412357515
 20
12.2548566251
 30
0.0
 10
18.4356219364
 20
12.2519473379
 30
0.0
 10
18.4302227593
 20
12.2485105198
 30
0.0
 10
18.4250486307
 20
12.2445539814
 30
0.0
 10
18.4183780694
 20
12.238518436
 30
0.0
 10
18.4138790304
 20
12.233343663
 30
0.0
 10
18.4110969307
 20
12.2296682433
 30
0.0
  0
SPLINE
  5
323
100
AcDbEntity
  8
0
100
AcDbSpline
 62
7
  6
CONTINUOUS
 70
0
 71
3
 72
52
 73
48
 74
0
 42
0.0000001
 43
0.0000001
 44
0.0000000001
 40
0.0
 40
0.0
 40
0.0
 40
0.0
 40
0.0281708037
 40
0.0419144631
 40
0.0554548577
 40
0.0688183177
 40
0.0820303021
 40
0.0951122376
 40
0.1080917884
 40
0.1209938701
 40
0.1338341473
 40
0.1466338049
 40
0.1594079064
 40
0.1721638289
 40
0.1849125177
 40
0.1976623701
 40
0.2104184471
 40
0.223189202
 40
0.2359892282
 40
0.2488287298
 40
0.2617247182
 40
0.2747025087
 40
0.2877809155
 40
0.3009835969
 40
0.3143400819
 40
0.3278738336
 40
0.3416068624
 40
0.3697540563
 40
0.3989348592
 40
0.4139467215
 40
0.429248358
 40
0.4607261344
 40
0.4933671632
 40
0.5271201389
 40
0.561897839
 40
0.5975789435
 40
0.6340184114
 40
0.6710500108
 40
0.7084926556
 40
0.7461555761
 40
0.7838419846
 40
0.8213558718
 40
0.858504695
 40
0.8951014826
 40
0.9309786438
 40
0.9659986542
 40
1.0
 40
1.0
 40
1.0
 40
1.0
 10
15.1926670007
 20
11.1434004135
 30
0.0
 10
15.1950295402
 20
11.1509197301
 30
0.0
 10
15.199042285
 20
11.1619640902
 30
0.0
 10
15.205440384
 20
11.1761047361
 30
0.0
 10
15.2106823357
 20
11.1862040486
 30
0.0
 10
15.2164163918
 20
11.1958599385
 30
0.0
 10
15.2226512202
 20
11.2050466522
 30
0.0
 10
15.2293949755
 20
11.2137319017
 30
0.0
 10
15.2366525085
 20
11.2218779654
 30
0.0
 10
15.244420307
 20
11.2294433892
 30
0.0
 10
15.2526858914
 20
11.2363847691
 30
0.0
 10
15.261432525
 20
11.2426492794
 30
0.0
 10
15.2706266729
 20
11.24819141
 30
0.0
 10
15.2802236471
 20
11.2529717643
 30
0.0
 10
15.2901758735
 20
11.256942605
 30
0.0
 10
15.3004197777
 20
11.2600845712
 30
0.0
 10
15.3108918998
 20
11.2623819007
 30
0.0
 10
15.3215296776
 20
11.2638215522
 30
0.0
 10
15.3322703333
 20
11.2644210162
 30
0.0
 10
15.3430598775
 20
11.2641941266
 30
0.0
 10
15.3538514714
 20
11.2631616734
 30
0.0
 10
15.3646080684
 20
11.2613574506
 30
0.0
 10
15.3753011843
 20
11.2588118427
 30
0.0
 10
15.3859094231
 20
11.2555541482
 30
0.0
 10
15.3964189634
 20
11.2516142
 30
0.0
 10
15.4068214939
 20
11.2470204196
 30
0.0
 10
15.4206520049
 20
11.2400000854
 30
0.0
 10
15.4376655668
 20
11.2296487542
 30
0.0
 10
15.4539628776
 20
11.2176056738
 30
0.0
 10
15.4667390549
 20
11.2069306487
 30
0.0
 10
15.479578217
 20
11.1953476755
 30
0.0
 10
15.4952558665
 20
11.1795736941
 30
0.0
 10
15.513264847
 20
11.1589234591
 30
0.0
 10
15.5305750448
 20
11.1365073016
 30
0.0
 10
15.5471022584
 20
11.1124704208
 30
0.0
 10
15.5627577932
 20
11.0869719841
 30
0.0
 10
15.5774483026
 20
11.0601851662
 30
0.0
 10
15.591080387
 20
11.032295606
 30
0.0
 10
15.6035642905
 20
11.0035005202
 30
0.0
 10
15.6148129594
 20
10.9740048847
 30
0.0
 10
15.6247479284
 20
10.9440202563
 30
0.0
 10
15.6332973329
 20
10.9137608037
 30
0.0
 10
15.64039681
 20
10.8834413668
 30
0.0
 10
15.6459944906
 20
10.8532742213
 30
0.0
 10
15.6500441211
 20
10.8234603212
 30
0.0
 10
15.6525062094
 20
10.7942021937
 30
0.0
 10
15.6530810819
 20
10.7748874895
 30
0.0
 10
15.6530810819
 20
10.7653744657
 30
0.0
  0
SPLINE
  5
324
100
AcDbEntity
  8
0
100
AcDbSpline
 62
7
  6
CONTINUOUS
 70
0
 71
3
 72
42
 73
38
 74
0
 42
0.0000001
 43
0.0000001
 44
0.0000000001
 40
0.0
 40
0.0
 40
0.0
 40
0.0
 40
0.0376368748
 40
0.0745712104
 40
0.1107510162
 40
0.1461429665
 40
0.1807561513
 40
0.2146127312
 40
0.2801551992
 40
0.3119443042
 40
0.3431423927
 40
0.3738148659
 40
0.4040430741
 40
0.4338974386
 40
0.463452266
 40
0.4927901717
 40
0.5073968495
 40
0.5219692394
 40
0.5365164845
 40
0.5510456778
 40
0.5800516206
 40
0.5945424777
 40
0.6090285863
 40
0.6379919286
 40
0.6669679582
 40
0.6959789403
 40
0.7250673272
 40
0.7396537031
 40
0.7542723942
 40
0.7836424665
 40
0.8132536083
 40
0.8431668696
 40
0.8734704335
 40
0.9042381601
 40
0.9355380105
 40
0.9674401175
 40
1.0
 40
1.0
 40
1.0
 40
1.0
 10
15.6530810819
 20
10.7653744657
 30
0.0
 10
15.6530810819
 20
10.7600111392
 30
0.0
 10
15.6529022321
 20
10.7493835915
 30
0.0
 10
15.6520761876
 20
10.7336196627
 30
0.0
 10
15.6506899502
 20
10.7182156941
 30
0.0
 10
15.6487373092
 20
10.7032065862
 30
0.0
 10
15.6462111518
 20
10.6886179864
 30
0.0
 10
15.6421148972
 20
10.6699613567
 30
0.0
 10
15.6368180519
 20
10.6519921954
 30
0.0
 10
15.63020467
 20
10.6349032925
 30
0.0
 10
15.62466559
 20
10.6227510095
 30
0.0
 10
15.6184784642
 20
10.6111662647
 30
0.0
 10
15.6116283836
 20
10.6001844196
 30
0.0
 10
15.6041018803
 20
10.5898492706
 30
0.0
 10
15.5958886822
 20
10.5802158298
 30
0.0
 10
15.588460197
 20
10.5728133612
 30
0.0
 10
15.5821883004
 20
10.5673147362
 30
0.0
 10
15.5773269755
 20
10.5634135077
 30
0.0
 10
15.5723051486
 20
10.559739532
 30
0.0
 10
15.5654082254
 20
10.5551598251
 30
0.0
 10
15.5582096275
 20
10.5510625327
 30
0.0
 10
15.5507566068
 20
10.5474896221
 30
0.0
 10
15.5431471787
 20
10.5442780957
 30
0.0
 10
15.5333604257
 20
10.5409488451
 30
0.0
 10
15.5212880812
 20
10.5380788189
 30
0.0
 10
15.5089817274
 20
10.5363578228
 30
0.0
 10
15.4986207516
 20
10.5358624136
 30
0.0
 10
15.4903129937
 20
10.5360154031
 30
0.0
 10
15.4819795873
 20
10.5365314409
 30
0.0
 10
15.471560893
 20
10.5378444737
 30
0.0
 10
15.4591474631
 20
10.540431134
 30
0.0
 10
15.4468382044
 20
10.5439858434
 30
0.0
 10
15.4346591406
 20
10.548462155
 30
0.0
 10
15.4226238857
 20
10.5538151931
 30
0.0
 10
15.410741562
 20
10.5600072462
 30
0.0
 10
15.3990191972
 20
10.5670066698
 30
0.0
 10
15.3913930586
 20
10.5721362718
 30
0.0
 10
15.3876086475
 20
10.5748207453
 30
0.0
  0
SPLINE
  5
325
100
AcDbEntity
  8
0
100
AcDbSpline
 62
9
  6
CONTINUOUS
 70
0
 71
3
 72
16
 73
12
 74
0
 42
0.0000001
 43
0.0000001
 44
0.0000000001
 40
0.0
 40
0.0
 40
0.0
 40
0.0
 40
0.1459939457
 40
0.2864872006
 40
0.4210069639
 40
0.5493316036
 40
0.6713412169
 40
0.7870080731
 40
0.8425065253
 40
0.8964802966
 40
1.0
 40
1.0
 40
1.0
 40
1.0
 10
15.5639426317
 20
10.751321843
 30
0.0
 10
15.5639403349
 20
10.7444593191
 30
0.0
 10
15.5636174758
 20
10.7309901582
 30
0.0
 10
15.5621148892
 20
10.7112481734
 30
0.0
 10
15.559598604
 20
10.6924454485
 30
0.0
 10
15.5560870573
 20
10.6746861075
 30
0.0
 10
15.5515992306
 20
10.6580628636
 30
0.0
 10
15.5470021519
 20
10.6450539912
 30
0.0
 10
15.5428376362
 20
10.6353213318
 30
0.0
 10
15.5384890518
 20
10.6263010403
 30
0.0
 10
15.5348056452
 20
10.6198605332
 30
0.0
 10
15.5321636031
 20
10.6157742677
 30
0.0
  0
SPLINE
  5
326
100
AcDbEntity
  8
0
100
AcDbSpline
 62
9
  6
CONTINUOUS
 70
0
 71
3
 72
23
 73
19
 74
0
 42
0.0000001
 43
0.0000001
 44
0.0000000001
 40
0.0
 40
0.0
 40
0.0
 40
0.0
 40
0.0674500988
 40
0.1325917294
 40
0.1956786987
 40
0.257015938
 40
0.3169496766
 40
0.3758666091
 40
0.4341844889
 40
0.4923388879
 40
0.5507716153
 40
0.6099144891
 40
0.6701788581
 40
0.7319408948
 40
0.7955365529
 40
0.8612582477
 40
0.9293467824
 40
1.0
 40
1.0
 40
1.0
 40
1.0
 10
15.5321636031
 20
10.6157742677
 30
0.0
 10
15.5304504928
 20
10.6131247174
 30
0.0
 10
15.5268972236
 20
10.6080329356
 30
0.0
 10
15.5210885343
 20
10.6009466869
 30
0.0
 10
15.514910673
 20
10.5945703447
 30
0.0
 10
15.5083801235
 20
10.5889202562
 30
0.0
 10
15.5015120953
 20
10.5840124105
 30
0.0
 10
15.4943238284
 20
10.5798613128
 30
0.0
 10
15.4868349531
 20
10.5764772642
 30
0.0
 10
15.4790647726
 20
10.5738714601
 30
0.0
 10
15.4710348811
 20
10.5720503411
 30
0.0
 10
15.4627671194
 20
10.5710173475
 30
0.0
 10
15.4542834975
 20
10.5707762256
 30
0.0
 10
15.4456064229
 20
10.5713247236
 30
0.0
 10
15.4367579681
 20
10.572660455
 30
0.0
 10
15.4277605294
 20
10.574780019
 30
0.0
 10
15.418636379
 20
10.5776751271
 30
0.0
 10
15.4125989238
 20
10.5800720236
 30
0.0
 10
15.4095679988
 20
10.581389709
 30
0.0
  0
SPLINE
  5
327
100
AcDbEntity
  8
0
100
AcDbSpline
 62
9
  6
CONTINUOUS
 70
0
 71
3
 72
23
 73
19
 74
0
 42
0.0000001
 43
0.0000001
 44
0.0000000001
 40
0.0
 40
0.0
 40
0.0
 40
0.0
 40
0.0698242266
 40
0.1372189145
 40
0.2023867911
 40
0.2655742153
 40
0.3270742912
 40
0.3872178196
 40
0.4463730211
 40
0.5049366512
 40
0.5633220261
 40
0.6219489212
 40
0.6812286791
 40
0.7415548045
 40
0.8032898863
 40
0.8667592351
 40
0.9322495953
 40
1.0
 40
1.0
 40
1.0
 40
1.0
 10
15.2141310362
 20
11.1494756895
 30
0.0
 10
15.2156931027
 20
11.1522270972
 30
0.0
 10
15.2189392342
 20
11.1575368253
 30
0.0
 10
15.2242684496
 20
11.1650097454
 30
0.0
 10
15.2299571336
 20
11.1718271835
 30
0.0
 10
15.2359931246
 20
11.1779710395
 30
0.0
 10
15.2423615207
 20
11.1834270844
 30
0.0
 10
15.2490482571
 20
11.1881804785
 30
0.0
 10
15.25603742
 20
11.1922181155
 30
0.0
 10
15.2633109957
 20
11.1955305848
 30
0.0
 10
15.2708513275
 20
11.1981076464
 30
0.0
 10
15.2786387508
 20
11.1999430394
 30
0.0
 10
15.2866532124
 20
11.2010336565
 30
0.0
 10
15.2948746569
 20
11.2013757287
 30
0.0
 10
15.3032824338
 20
11.2009706151
 30
0.0
 10
15.3118564795
 20
11.1998207233
 30
0.0
 10
15.3205755548
 20
11.197928506
 30
0.0
 10
15.3263689144
 20
11.1962072236
 30
0.0
 10
15.3292799138
 20
11.1952322437
 30
0.0
  0
SPLINE
  5
328
100
AcDbEntity
  8
0
100
AcDbSpline
 62
9
  6
CONTINUOUS
 70
0
 71
3
 72
32
 73
28
 74
0
 42
0.0000001
 43
0.0000001
 44
0.0000000001
 40
0.0
 40
0.0
 40
0.0
 40
0.0
 40
0.0433224212
 40
0.0663547691
 40
0.0903320908
 40
0.1152668381
 40
0.1411596725
 40
0.1680018231
 40
0.1957732796
 40
0.2244473342
 40
0.2539889996
 40
0.2843563634
 40
0.3155028871
 40
0.347375277
 40
0.3799167959
 40
0.4130663454
 40
0.446758807
 40
0.4809269768
 40
0.5155001025
 40
0.5855633429
 40
0.6563569696
 40
0.7272673704
 40
0.7625767417
 40
0.7976851911
 40
0.8669924281
 40
0.9346093984
 40
1.0
 40
1.0
 40
1.0
 40
1.0
 10
15.3292799138
 20
11.1952322437
 30
0.0
 10
15.3361034101
 20
11.1929468527
 30
0.0
 10
15.3462853362
 20
11.1885996673
 30
0.0
 10
15.3594561256
 20
11.1814022748
 30
0.0
 10
15.3695820447
 20
11.1750409908
 30
0.0
 10
15.3797209522
 20
11.167848289
 30
0.0
 10
15.3898461543
 20
11.1598442253
 30
0.0
 10
15.3999275363
 20
11.1510511892
 30
0.0
 10
15.4099376417
 20
11.1414955302
 30
0.0
 10
15.4198469158
 20
11.1312038021
 30
0.0
 10
15.4296273167
 20
11.1202059191
 30
0.0
 10
15.4392512117
 20
11.1085337574
 30
0.0
 10
15.448689948
 20
11.0962201583
 30
0.0
 10
15.4579175248
 20
11.0833013333
 30
0.0
 10
15.4669066121
 20
11.0698139296
 30
0.0
 10
15.4756314377
 20
11.0557968681
 30
0.0
 10
15.4840674469
 20
11.0412908514
 30
0.0
 10
15.4921893449
 20
11.0263369797
 30
0.0
 10
15.5026151511
 20
11.0057699928
 30
0.0
 10
15.5146980925
 20
10.9792358392
 30
0.0
 10
15.5275374578
 20
10.9464703072
 30
0.0
 10
15.536798576
 20
10.9185480595
 30
0.0
 10
15.5432867789
 20
10.8959846558
 30
0.0
 10
15.5490953984
 20
10.8735118848
 30
0.0
 10
15.5551104334
 20
10.8455600631
 30
0.0
 10
15.5603039727
 20
10.8123406448
 30
0.0
 10
15.5623926808
 20
10.7903288558
 30
0.0
 10
15.5630579048
 20
10.7794875734
 30
0.0
  0
SPLINE
  5
329
100
AcDbEntity
  8
0
100
AcDbSpline
 62
7
  6
CONTINUOUS
 70
0
 71
3
 72
47
 73
43
 74
0
 42
0.0000001
 43
0.0000001
 44
0.0000000001
 40
0.0
 40
0.0
 40
0.0
 40
0.0
 40
0.0248463246
 40
0.0370338388
 40
0.04909257
 40
0.0610423493
 40
0.0729079373
 40
0.0847128758
 40
0.0964737759
 40
0.1082092682
 40
0.1199398392
 40
0.1316835705
 40
0.1434567243
 40
0.1552781156
 40
0.1671717584
 40
0.1791578645
 40
0.1912556153
 40
0.2158802986
 40
0.2412431425
 40
0.2675175022
 40
0.2948410181
 40
0.308932949
 40
0.323322376
 40
0.353009984
 40
0.3839296112
 40
0.4160638546
 40
0.4493636617
 40
0.4837501098
 40
0.5191221958
 40
0.5553566252
 40
0.5923155727
 40
0.6298468713
 40
0.6677893908
 40
0.7059746777
 40
0.7442303689
 40
0.7823828949
 40
0.8202613546
 40
0.857697887
 40
0.8945295524
 40
0.9306124177
 40
0.9658189676
 40
1.0
 40
1.0
 40
1.0
 40
1.0
 10
16.7554121379
 20
11.963101658
 30
0.0
 10
16.7610334593
 20
11.971617395
 30
0.0
 10
16.770140577
 20
11.9838593495
 30
0.0
 10
16.7836736969
 20
11.9988178582
 30
0.0
 10
16.7943636867
 20
12.0091640935
 30
0.0
 10
16.8056413435
 20
12.0186624808
 30
0.0
 10
16.8174898256
 20
12.0272641416
 30
0.0
 10
16.8298784832
 20
12.0349220259
 30
0.0
 10
16.8427617507
 20
12.0416005075
 30
0.0
 10
16.8560930804
 20
12.0472562971
 30
0.0
 10
16.8698178061
 20
12.0518539041
 30
0.0
 10
16.8838701844
 20
12.0553858166
 30
0.0
 10
16.8981881169
 20
12.0578395575
 30
0.0
 10
16.9127114166
 20
12.0592085182
 30
0.0
 10
16.9273823606
 20
12.0595137387
 30
0.0
 10
16.9421512837
 20
12.0587743208
 30
0.0
 10
16.9620273822
 20
12.0564076466
 30
0.0
 10
16.9869966886
 20
12.0508973909
 30
0.0
 10
17.0166290628
 20
12.0405653152
 30
0.0
 10
17.0459966494
 20
12.0266889023
 30
0.0
 10
17.0699355349
 20
12.012481428
 30
0.0
 10
17.0888782464
 20
11.999573308
 30
0.0
 10
17.1080724667
 20
11.9853424548
 30
0.0
 10
17.1317484916
 20
11.9655981713
 30
0.0
 10
17.1592936221
 20
11.9392580603
 30
0.0
 10
17.1861671617
 20
11.9101815229
 30
0.0
 10
17.2122548712
 20
11.8785338348
 30
0.0
 10
17.237438826
 20
11.8444959002
 30
0.0
 10
17.261591352
 20
11.8082628701
 30
0.0
 10
17.2845867594
 20
11.7700477191
 30
0.0
 10
17.3062961764
 20
11.7300766613
 30
0.0
 10
17.32659658
 20
11.688590303
 30
0.0
 10
17.3453689305
 20
11.6458403698
 30
0.0
 10
17.3625001703
 20
11.6020874258
 30
0.0
 10
17.3778883408
 20
11.5576002429
 30
0.0
 10
17.3914369421
 20
11.512650225
 30
0.0
 10
17.4030639553
 20
11.4675122712
 30
0.0
 10
17.4126941314
 20
11.4224605503
 30
0.0
 10
17.4202682145
 20
11.377765057
 30
0.0
 10
17.4257341213
 20
11.3336842947
 30
0.0
 10
17.4290484977
 20
11.2904814764
 30
0.0
 10
17.4298197546
 20
11.2619811855
 30
0.0
 10
17.4298197546
 20
11.2479438749
 30
0.0
  0
SPLINE
  5
32A
100
AcDbEntity
  8
0
100
AcDbSpline
 62
7
  6
CONTINUOUS
 70
0
 71
3
 72
34
 73
30
 74
0
 42
0.0000001
 43
0.0000001
 44
0.0000000001
 40
0.0
 40
0.0
 40
0.0
 40
0.0
 40
0.0783800943
 40
0.1538660411
 40
0.2262584926
 40
0.2613028861
 40
0.295587728
 40
0.3619287444
 40
0.425492357
 40
0.4865979515
 40
0.5163718326
 40
0.54569051
 40
0.5746222271
 40
0.6032296687
 40
0.6315653736
 40
0.6596948916
 40
0.6876779231
 40
0.7155584501
 40
0.7294787215
 40
0.7433930323
 40
0.7712229536
 40
0.7990998718
 40
0.8270668435
 40
0.8551814427
 40
0.8835035056
 40
0.9120817357
 40
0.9409798846
 40
0.9702675047
 40
1.0
 40
1.0
 40
1.0
 40
1.0
 10
17.4298197546
 20
11.2479438749
 30
0.0
 10
17.4298197546
 20
11.2336363075
 30
0.0
 10
17.4290446643
 20
11.2055412937
 30
0.0
 10
17.4253988022
 20
11.1643752737
 30
0.0
 10
17.4202290871
 20
11.1313557351
 30
0.0
 10
17.4147947217
 20
11.1060568458
 30
0.0
 10
17.4086463064
 20
11.0820616506
 30
0.0
 10
17.3994204608
 20
11.053501875
 30
0.0
 10
17.3856368237
 20
11.0214161774
 30
0.0
 10
17.3718069033
 20
10.9967733916
 30
0.0
 10
17.3593881442
 20
10.9786705047
 30
0.0
 10
17.3494757425
 20
10.9660096641
 30
0.0
 10
17.3388846782
 20
10.9541943479
 30
0.0
 10
17.3276228141
 20
10.9432712236
 30
0.0
 10
17.3157071254
 20
10.9332902783
 30
0.0
 10
17.3031581603
 20
10.924310662
 30
0.0
 10
17.2900148988
 20
10.9163854339
 30
0.0
 10
17.2786031482
 20
10.9106914165
 30
0.0
 10
17.269240147
 20
10.9067140466
 30
0.0
 10
17.2597302802
 20
10.9031280179
 30
0.0
 10
17.2475717528
 20
10.8993771363
 30
0.0
 10
17.2326443718
 20
10.8960663529
 30
0.0
 10
17.217447296
 20
10.8939604878
 30
0.0
 10
17.2020516374
 20
10.8930521907
 30
0.0
 10
17.1865207643
 20
10.8933150825
 30
0.0
 10
17.1709094405
 20
10.8947288414
 30
0.0
 10
17.1552629982
 20
10.8972639389
 30
0.0
 10
17.1396167203
 20
10.9008834487
 30
0.0
 10
17.1292870784
 20
10.9039721861
 30
0.0
 10
17.1241355545
 20
10.905680522
 30
0.0
  0
SPLINE
  5
32B
100
AcDbEntity
  8
0
100
AcDbSpline
 62
7
  6
CONTINUOUS
 70
0
 71
3
 72
20
 73
16
 74
0
 42
0.0000001
 43
0.0000001
 44
0.0000000001
 40
0.0
 40
0.0
 40
0.0
 40
0.0
 40
0.1204409389
 40
0.2429515164
 40
0.3048298242
 40
0.3670454636
 40
0.4295551319
 40
0.4923189601
 40
0.5553032295
 40
0.6184763122
 40
0.6818088959
 40
0.7452735137
 40
0.8724856334
 40
0.9362184655
 40
1.0
 40
1.0
 40
1.0
 40
1.0
 10
18.0549874168
 20
12.0681838166
 30
0.0
 10
18.0136016949
 20
12.0792886317
 30
0.0
 10
17.9292767686
 20
12.0986581427
 30
0.0
 10
17.8220326427
 20
12.1154008546
 30
0.0
 10
17.7347429208
 20
12.1243804708
 30
0.0
 10
17.6684920732
 20
12.1288666633
 30
0.0
 10
17.6018113804
 20
12.1310624951
 30
0.0
 10
17.5348210452
 20
12.1309494932
 30
0.0
 10
17.4676384747
 20
12.1285216456
 30
0.0
 10
17.4003774311
 20
12.1237727033
 30
0.0
 10
17.3331476064
 20
12.1167038145
 30
0.0
 10
17.2436353087
 20
12.1041895127
 30
0.0
 10
17.1546713818
 20
12.0870671738
 30
0.0
 10
17.0666568303
 20
12.0654221065
 30
0.0
 10
17.0229864637
 20
12.0530933703
 30
0.0
 10
17.0012559692
 20
12.0465586871
 30
0.0
  0
SPLINE
  5
32C
100
AcDbEntity
  8
0
100
AcDbSpline
 62
7
  6
CONTINUOUS
 70
0
 71
3
 72
19
 73
15
 74
0
 42
0.0000001
 43
0.0000001
 44
0.0000000001
 40
0.0
 40
0.0
 40
0.0
 40
0.0
 40
0.0637823903
 40
0.1275154733
 40
0.2547295398
 40
0.3181954261
 40
0.381529106
 40
0.5076701351
 40
0.570435253
 40
0.6329461813
 40
0.6951631125
 40
0.7570427287
 40
0.8795565377
 40
1.0
 40
1.0
 40
1.0
 40
1.0
 10
17.3704284552
 20
10.993406666
 30
0.0
 10
17.3914793039
 20
11.0018546408
 30
0.0
 10
17.4332825365
 20
11.0194594038
 30
0.0
 10
17.5155374057
 20
11.0574417086
 30
0.0
 10
17.5957138391
 20
11.0995470719
 30
0.0
 10
17.6734474317
 20
11.1455938652
 30
0.0
 10
17.7492431471
 20
11.1940602593
 30
0.0
 10
17.8223067986
 20
11.2462474337
 30
0.0
 10
17.89229043
 20
11.3019158637
 30
0.0
 10
17.9430167023
 20
11.3452126668
 30
0.0
 10
17.9919785527
 20
11.3900296312
 30
0.0
 10
18.0545766448
 20
11.4514759127
 30
0.0
 10
18.1279251415
 20
11.5314286842
 30
0.0
 10
18.1817312007
 20
11.5991410392
 30
0.0
 10
18.2071422914
 20
11.6336220073
 30
0.0
  0
SPLINE
  5
32D
100
AcDbEntity
  8
0
100
AcDbSpline
 62
7
  6
CONTINUOUS
 70
0
 71
3
 72
23
 73
19
 74
0
 42
0.0000001
 43
0.0000001
 44
0.0000000001
 40
0.0
 40
0.0
 40
0.0
 40
0.0
 40
0.0477427086
 40
0.0959998157
 40
0.1452649425
 40
0.1959860893
 40
0.2485537717
 40
0.3032984502
 40
0.360478771
 40
0.4202937773
 40
0.4828819517
 40
0.5483175168
 40
0.6166340539
 40
0.6878281955
 40
0.7618639022
 40
0.8386750663
 40
0.9181171144
 40
1.0
 40
1.0
 40
1.0
 40
1.0
 10
15.4746845015
 20
10.6019760608
 30
0.0
 10
15.4775013564
 20
10.6029618852
 30
0.0
 10
15.4830511178
 20
10.6052892496
 30
0.0
 10
15.4909641363
 20
10.6097840653
 30
0.0
 10
15.4984539775
 20
10.6152745569
 30
0.0
 10
15.5054930984
 20
10.6217344007
 30
0.0
 10
15.5120581509
 20
10.6291376159
 30
0.0
 10
15.5181249255
 20
10.6374571906
 30
0.0
 10
15.5236763827
 20
10.6466603309
 30
0.0
 10
15.5286932583
 20
10.6567148277
 30
0.0
 10
15.533158203
 20
10.6675847627
 30
0.0
 10
15.5370591014
 20
10.6792302265
 30
0.0
 10
15.5403808388
 20
10.6916107887
 30
0.0
 10
15.5431124631
 20
10.7046835922
 30
0.0
 10
15.5452459272
 20
10.7184041542
 30
0.0
 10
15.5467711417
 20
10.7327236426
 30
0.0
 10
15.5476851714
 20
10.7475857931
 30
0.0
 10
15.5478824915
 20
10.7576715017
 30
0.0
 10
15.5478824915
 20
10.7627899716
 30
0.0
  0
SPLINE
  5
32E
100
AcDbEntity
  8
0
100
AcDbSpline
 62
7
  6
CONTINUOUS
 70
0
 71
3
 72
35
 73
31
 74
0
 42
0.0000001
 43
0.0000001
 44
0.0000000001
 40
0.0
 40
0.0
 40
0.0
 40
0.0
 40
0.0334474519
 40
0.0678913167
 40
0.1032041343
 40
0.1392682199
 40
0.2131909699
 40
0.2886943398
 40
0.3267153768
 40
0.3647354896
 40
0.4026220421
 40
0.4402425683
 40
0.4774661881
 40
0.514166871
 40
0.5855012087
 40
0.6533548444
 40
0.6857388191
 40
0.716977918
 40
0.7470063994
 40
0.7757737109
 40
0.8032459285
 40
0.8294132153
 40
0.8542864505
 40
0.8779078526
 40
0.9003498154
 40
0.9217205905
 40
0.9421682694
 40
0.9618777325
 40
0.9810718484
 40
1.0
 40
1.0
 40
1.0
 40
1.0
 10
15.5478824915
 20
10.7627899716
 30
0.0
 10
15.5478824915
 20
10.7688119821
 30
0.0
 10
15.5476013202
 20
10.7810368306
 30
0.0
 10
15.5463881888
 20
10.7995833744
 30
0.0
 10
15.5443797471
 20
10.8185347941
 30
0.0
 10
15.5406231617
 20
10.8444294078
 30
0.0
 10
15.5339879015
 20
10.8771914795
 30
0.0
 10
15.5250008687
 20
10.9097504117
 30
0.0
 10
15.5164147665
 20
10.9356534529
 30
0.0
 10
15.5093042203
 20
10.954897951
 30
0.0
 10
15.5015704593
 20
10.9738224983
 30
0.0
 10
15.4932514489
 20
10.9923401504
 30
0.0
 10
15.48438326
 20
11.0103639982
 30
0.0
 10
15.4720026678
 20
11.0334060411
 30
0.0
 10
15.4554917657
 20
11.0604661314
 30
0.0
 10
15.4373224123
 20
11.0854985757
 30
0.0
 10
15.4221341584
 20
11.1036652096
 30
0.0
 10
15.4107009917
 20
11.1160681725
 30
0.0
 10
15.3991024296
 20
11.1274039809
 30
0.0
 10
15.3873921433
 20
11.1376213605
 30
0.0
 10
15.375621681
 20
11.1466709793
 30
0.0
 10
15.3638467024
 20
11.1545137083
 30
0.0
 10
15.3521179125
 20
11.161110009
 30
0.0
 10
15.3404890975
 20
11.1664301543
 30
0.0
 10
15.3290115367
 20
11.1704473444
 30
0.0
 10
15.3177361312
 20
11.1731375742
 30
0.0
 10
15.3067153886
 20
11.1744875374
 30
0.0
 10
15.2960005287
 20
11.1744800702
 30
0.0
 10
15.2856484048
 20
11.1731151113
 30
0.0
 10
15.2790040671
 20
11.1712943725
 30
0.0
 10
15.2757874668
 20
11.1701686478
 30
0.0
  0
SPLINE
  5
32F
100
AcDbEntity
  8
0
100
AcDbSpline
 62
7
  6
CONTINUOUS
 70
0
 71
3
 72
31
 73
27
 74
0
 42
0.0000001
 43
0.0000001
 44
0.0000000001
 40
0.0
 40
0.0
 40
0.0
 40
0.0
 40
0.0716391483
 40
0.1411369221
 40
0.2084233726
 40
0.2736313458
 40
0.3369616139
 40
0.3986734048
 40
0.4290286465
 40
0.4590985614
 40
0.4889303589
 40
0.5185618438
 40
0.5480357516
 40
0.5773998871
 40
0.6066943569
 40
0.6359577726
 40
0.6652317734
 40
0.6945607654
 40
0.7239857648
 40
0.7535443451
 40
0.7832819439
 40
0.8132461492
 40
0.8434762956
 40
0.8740124927
 40
0.9361560962
 40
1.0
 40
1.0
 40
1.0
 40
1.0
 10
13.7845597501
 20
11.0826996395
 30
0.0
 10
13.7845597501
 20
11.0711813437
 30
0.0
 10
13.7853988471
 20
11.0484778974
 30
0.0
 10
13.7893300613
 20
11.0151604448
 30
0.0
 10
13.795954803
 20
10.9833200405
 30
0.0
 10
13.8052947885
 20
10.9531972152
 30
0.0
 10
13.8173632989
 20
10.9250263311
 30
0.0
 10
13.82977748
 20
10.9032691635
 30
0.0
 10
13.8410511299
 20
10.887176695
 30
0.0
 10
13.8501236978
 20
10.8758372152
 30
0.0
 10
13.8598450634
 20
10.8652058416
 30
0.0
 10
13.8701920445
 20
10.8553197782
 30
0.0
 10
13.8811402678
 20
10.8462203318
 30
0.0
 10
13.8926619581
 20
10.8379508969
 30
0.0
 10
13.9047148722
 20
10.8305413001
 30
0.0
 10
13.9172554183
 20
10.8240215661
 30
0.0
 10
13.9302402483
 20
10.8184247492
 30
0.0
 10
13.9436172003
 20
10.8137650873
 30
0.0
 10
13.9573339196
 20
10.8100504118
 30
0.0
 10
13.9713410967
 20
10.8072917779
 30
0.0
 10
13.9855898046
 20
10.8054882471
 30
0.0
 10
14.0000339305
 20
10.8046282479
 30
0.0
 10
14.0146317118
 20
10.804702593
 30
0.0
 10
14.0343592043
 20
10.8060391415
 30
0.0
 10
14.0592699693
 20
10.8100155775
 30
0.0
 10
14.0788377979
 20
10.8154163767
 30
0.0
 10
14.0885838126
 20
10.8186388902
 30
0.0
  0
SPLINE
  5
330
100
AcDbEntity
  8
0
100
AcDbSpline
 62
7
  6
CONTINUOUS
 70
0
 71
3
 72
45
 73
41
 74
0
 42
0.0000001
 43
0.0000001
 44
0.0000000001
 40
0.0
 40
0.0
 40
0.0
 40
0.0
 40
0.0284442075
 40
0.0561488545
 40
0.0832338112
 40
0.0965925655
 40
0.1098504716
 40
0.1230230406
 40
0.1361279758
 40
0.1491851241
 40
0.1622111928
 40
0.1752220517
 40
0.1882346914
 40
0.2012674713
 40
0.2143377291
 40
0.2274610978
 40
0.2406549755
 40
0.2673195521
 40
0.2944838432
 40
0.3222881827
 40
0.3508471243
 40
0.380257214
 40
0.410579673
 40
0.4418446174
 40
0.4740469383
 40
0.5071507869
 40
0.5410900699
 40
0.5757746935
 40
0.6110917665
 40
0.6469127235
 40
0.6830942096
 40
0.7194848407
 40
0.7559267859
 40
0.7922621599
 40
0.8283359231
 40
0.8639977684
 40
0.8991051529
 40
0.9335435658
 40
0.9672159678
 40
1.0
 40
1.0
 40
1.0
 40
1.0
 10
14.4221541726
 20
11.4830054123
 30
0.0
 10
14.4190483169
 20
11.4924245412
 30
0.0
 10
14.412017995
 20
11.5107395747
 30
0.0
 10
14.3987815591
 20
11.5366290288
 30
0.0
 10
14.385575869
 20
11.5564590382
 30
0.0
 10
14.3737891173
 20
11.5710221007
 30
0.0
 10
14.3643859132
 20
11.5812366861
 30
0.0
 10
14.3544022405
 20
11.5907567833
 30
0.0
 10
14.3438596719
 20
11.5995460242
 30
0.0
 10
14.3327827929
 20
11.6075651666
 30
0.0
 10
14.3212090332
 20
11.6147871354
 30
0.0
 10
14.3091776019
 20
11.6211852408
 30
0.0
 10
14.2967270132
 20
11.6267295901
 30
0.0
 10
14.2839026469
 20
11.6314041133
 30
0.0
 10
14.2707521475
 20
11.6352021275
 30
0.0
 10
14.2573197142
 20
11.6381142017
 30
0.0
 10
14.2390336153
 20
11.6408193179
 30
0.0
 10
14.2156244638
 20
11.6419789324
 30
0.0
 10
14.1871722132
 20
11.6398994399
 30
0.0
 10
14.1584952253
 20
11.6344893097
 30
0.0
 10
14.1298000661
 20
11.6258834785
 30
0.0
 10
14.1012590142
 20
11.614227664
 30
0.0
 10
14.0730273576
 20
11.5996627381
 30
0.0
 10
14.0452555921
 20
11.582330811
 30
0.0
 10
14.0180932294
 20
11.5623793763
 30
0.0
 10
13.9916953529
 20
11.5399623829
 30
0.0
 10
13.9662172441
 20
11.5152486705
 30
0.0
 10
13.9418204335
 20
11.4884169323
 30
0.0
 10
13.9186607362
 20
11.4596647262
 30
0.0
 10
13.8968975323
 20
11.4291990275
 30
0.0
 10
13.8766780075
 20
11.3972446159
 30
0.0
 10
13.8581489668
 20
11.3640334291
 30
0.0
 10
13.8414407616
 20
11.3298103518
 30
0.0
 10
13.8266780476
 20
11.2948237857
 30
0.0
 10
13.8139699465
 20
11.2593279891
 30
0.0
 10
13.8034131158
 20
11.2235794277
 30
0.0
 10
13.7950889148
 20
11.1878302757
 30
0.0
 10
13.7890673818
 20
11.1523232192
 30
0.0
 10
13.7854100248
 20
11.1173098524
 30
0.0
 10
13.7845597501
 20
11.0941308378
 30
0.0
 10
13.7845597501
 20
11.0826996395
 30
0.0
  0
SPLINE
  5
331
100
AcDbEntity
  8
0
100
AcDbSpline
 62
7
  6
CONTINUOUS
 70
0
 71
3
 72
46
 73
42
 74
0
 42
0.0000001
 43
0.0000001
 44
0.0000000001
 40
0.0
 40
0.0
 40
0.0
 40
0.0
 40
0.0288000293
 40
0.0569469837
 40
0.0708188467
 40
0.0845719147
 40
0.0982204021
 40
0.1117823569
 40
0.1252750298
 40
0.1387103185
 40
0.1521019855
 40
0.1654660779
 40
0.1788156763
 40
0.1921621645
 40
0.2055174461
 40
0.2188958809
 40
0.2457634652
 40
0.2728875633
 40
0.3003994608
 40
0.3284191459
 40
0.3570706639
 40
0.3864512155
 40
0.4014451483
 40
0.4166481987
 40
0.4476912502
 40
0.4796001578
 40
0.5123541692
 40
0.5459030177
 40
0.5801690319
 40
0.6150505581
 40
0.6504275693
 40
0.686165048
 40
0.7221176164
 40
0.7581330124
 40
0.7940590289
 40
0.8297450352
 40
0.8650449848
 40
0.899822379
 40
0.9339736477
 40
0.9674064757
 40
1.0
 40
1.0
 40
1.0
 40
1.0
 10
14.7904077671
 20
11.1991488623
 30
0.0
 10
14.7880726209
 20
11.206630661
 30
0.0
 10
14.7827464436
 20
11.2212157382
 30
0.0
 10
14.7742600565
 20
11.2385652006
 30
0.0
 10
14.7664461577
 20
11.2515859828
 30
0.0
 10
14.7601073814
 20
11.260867061
 30
0.0
 10
14.7532688351
 20
11.2696800153
 30
0.0
 10
14.745937053
 20
11.2779934923
 30
0.0
 10
14.7381246316
 20
11.2857754102
 30
0.0
 10
14.7298525623
 20
11.2929969246
 30
0.0
 10
14.7211424561
 20
11.2996265988
 30
0.0
 10
14.7120176247
 20
11.3056307724
 30
0.0
 10
14.7025127231
 20
11.3109880547
 30
0.0
 10
14.6926644814
 20
11.3156787364
 30
0.0
 10
14.6825077456
 20
11.3196804775
 30
0.0
 10
14.6685916119
 20
11.3240854106
 30
0.0
 10
14.6505838306
 20
11.3278345248
 30
0.0
 10
14.6284059741
 20
11.3294834158
 30
0.0
 10
14.6058849972
 20
11.3283803607
 30
0.0
 10
14.5832376645
 20
11.3246219237
 30
0.0
 10
14.5606354837
 20
11.318341027
 30
0.0
 10
14.5420732801
 20
11.3111535866
 30
0.0
 10
14.5273783904
 20
11.3042922002
 30
0.0
 10
14.5125937554
 20
11.2965896768
 30
0.0
 10
14.4943653853
 20
11.2855812771
 30
0.0
 10
14.4731568402
 20
11.2704223875
 30
0.0
 10
14.4525686548
 20
11.2533442679
 30
0.0
 10
14.4327164073
 20
11.2344754986
 30
0.0
 10
14.4137156612
 20
11.2139551904
 30
0.0
 10
14.3956856764
 20
11.1919315981
 30
0.0
 10
14.3787429892
 20
11.1685655609
 30
0.0
 10
14.3630036086
 20
11.1440263213
 30
0.0
 10
14.3485757203
 20
11.1184943961
 30
0.0
 10
14.3355642174
 20
11.0921552633
 30
0.0
 10
14.3240620132
 20
11.0652015877
 30
0.0
 10
14.3141580026
 20
11.0378271723
 30
0.0
 10
14.3059244628
 20
11.0102302354
 30
0.0
 10
14.2994284596
 20
10.9826014854
 30
0.0
 10
14.2947254994
 20
10.9551253343
 30
0.0
 10
14.2918666124
 20
10.9279941657
 30
0.0
 10
14.2912017588
 20
10.9100200919
 30
0.0
 10
14.2912017588
 20
10.9011499734
 30
0.0
  0
SPLINE
  5
332
100
AcDbEntity
  8
0
100
AcDbSpline
 62
7
  6
CONTINUOUS
 70
0
 71
3
 72
29
 73
25
 74
0
 42
0.0000001
 43
0.0000001
 44
0.0000000001
 40
0.0
 40
0.0
 40
0.0
 40
0.0
 40
0.0703865856
 40
0.1388225515
 40
0.2052577168
 40
0.2698491991
 40
0.3328258126
 40
0.3638026062
 40
0.3944827981
 40
0.4550552732
 40
0.4850640765
 40
0.5149265381
 40
0.5446734263
 40
0.5743426077
 40
0.603969529
 40
0.6335823244
 40
0.6632096281
 40
0.6928852945
 40
0.7226456234
 40
0.7525209372
 40
0.8127188305
 40
0.8738335837
 40
0.9361626914
 40
1.0
 40
1.0
 40
1.0
 40
1.0
 10
14.2912017588
 20
10.9011499734
 30
0.0
 10
14.2912017588
 20
10.8920819363
 30
0.0
 10
14.2918781338
 20
10.8741879799
 30
0.0
 10
14.2950491757
 20
10.8479037977
 30
0.0
 10
14.3004065274
 20
10.8227322642
 30
0.0
 10
14.3079819648
 20
10.7988703495
 30
0.0
 10
14.316213975
 20
10.7801264864
 30
0.0
 10
14.3239343171
 20
10.7660373727
 30
0.0
 10
14.3323239316
 20
10.7527029551
 30
0.0
 10
14.3418717982
 20
10.740271839
 30
0.0
 10
14.3525221625
 20
10.7289738496
 30
0.0
 10
14.3610051946
 20
10.721127596
 30
0.0
 10
14.3699810544
 20
10.7139202127
 30
0.0
 10
14.3794249248
 20
10.7073903079
 30
0.0
 10
14.3893008545
 20
10.7015683551
 30
0.0
 10
14.3995659878
 20
10.6964759191
 30
0.0
 10
14.4101792425
 20
10.6921386113
 30
0.0
 10
14.4210964235
 20
10.6885753721
 30
0.0
 10
14.4322698454
 20
10.6857875201
 30
0.0
 10
14.4474835445
 20
10.6831015784
 30
0.0
 10
14.4669753233
 20
10.6817093235
 30
0.0
 10
14.4906546442
 20
10.6830798239
 30
0.0
 10
14.5144516785
 20
10.6873661509
 30
0.0
 10
14.5300663686
 20
10.6920068549
 30
0.0
 10
14.5378225301
 20
10.6947419529
 30
0.0
  0
SPLINE
  5
333
100
AcDbEntity
  8
0
100
AcDbSpline
 62
9
  6
CONTINUOUS
 70
0
 71
3
 72
15
 73
11
 74
0
 42
0.0000001
 43
0.0000001
 44
0.0000000001
 40
0.0
 40
0.0
 40
0.0
 40
0.0
 40
0.1170989985
 40
0.2369203325
 40
0.359250485
 40
0.4838571407
 40
0.6104965721
 40
0.7389118168
 40
0.8688378834
 40
1.0
 40
1.0
 40
1.0
 40
1.0
 10
15.5311105528
 20
10.7569181233
 30
0.0
 10
15.5198085149
 20
10.7529613646
 30
0.0
 10
15.4967947467
 20
10.745369868
 30
0.0
 10
15.4615285095
 20
10.7350553111
 30
0.0
 10
15.4252003868
 20
10.7257075657
 30
0.0
 10
15.3879169187
 20
10.7173521369
 30
0.0
 10
15.3497861867
 20
10.7100148845
 30
0.0
 10
15.3109193029
 20
10.703715588
 30
0.0
 10
15.2714295551
 20
10.6984743896
 30
0.0
 10
15.2448703171
 20
10.6957056393
 30
0.0
 10
15.2315119753
 20
10.6944988021
 30
0.0
  0
SPLINE
  5
334
100
AcDbEntity
  8
0
100
AcDbSpline
 62
9
  6
CONTINUOUS
 70
0
 71
3
 72
11
 73
7
 74
0
 42
0.0000001
 43
0.0000001
 44
0.0000000001
 40
0.0
 40
0.0
 40
0.0
 40
0.0
 40
0.2396689612
 40
0.486850425
 40
0.7406187824
 40
1.0
 40
1.0
 40
1.0
 40
1.0
 10
15.5311105528
 20
10.7569181233
 30
0.0
 10
15.5311105528
 20
10.7634029231
 30
0.0
 10
15.530778101
 20
10.7765775363
 30
0.0
 10
15.5293583005
 20
10.7965724742
 30
0.0
 10
15.5270266736
 20
10.8170182276
 30
0.0
 10
15.5248964087
 20
10.8307425848
 30
0.0
 10
15.5236865852
 20
10.8376556816
 30
0.0
  0
SPLINE
  5
335
100
AcDbEntity
  8
0
100
AcDbSpline
 62
9
  6
CONTINUOUS
 70
0
 71
3
 72
28
 73
24
 74
0
 42
0.0000001
 43
0.0000001
 44
0.0000000001
 40
0.0
 40
0.0
 40
0.0
 40
0.0
 40
0.0703059191
 40
0.1417618682
 40
0.1777705674
 40
0.2138820128
 40
0.2861491993
 40
0.3580455851
 40
0.4290451713
 40
0.4986286191
 40
0.532734557
 40
0.566300881
 40
0.6316136428
 40
0.6942218749
 40
0.7538017359
 40
0.7823704209
 40
0.8100803148
 40
0.836906221
 40
0.8628290931
 40
0.9119396685
 40
0.9351832147
 40
0.9575848911
 40
1.0
 40
1.0
 40
1.0
 40
1.0
 10
15.5236865852
 20
10.8376556816
 30
0.0
 10
15.5220343491
 20
10.8470967846
 30
0.0
 10
15.5182018685
 20
10.8660488818
 30
0.0
 10
15.5122070355
 20
10.8895413944
 30
0.0
 10
15.5066602482
 20
10.9083142019
 30
0.0
 10
15.5006114017
 20
10.9270474705
 30
0.0
 10
15.4922001016
 20
10.9501508427
 30
0.0
 10
15.480836587
 20
10.9772051492
 30
0.0
 10
15.4683167405
 20
11.0033393916
 30
0.0
 10
15.4569414668
 20
11.0242754985
 30
0.0
 10
15.4473410431
 20
11.0403391489
 30
0.0
 10
15.4376008925
 20
11.0556322358
 30
0.0
 10
15.4249723367
 20
11.0736825818
 30
0.0
 10
15.4090437835
 20
11.0936952656
 30
0.0
 10
15.3951826601
 20
11.1088957706
 30
0.0
 10
15.3838907012
 20
11.1199444499
 30
0.0
 10
15.3754798736
 20
11.1275395179
 30
0.0
 10
15.3670282874
 20
11.1345374926
 30
0.0
 10
15.3559317445
 20
11.1428910631
 30
0.0
 10
15.3446376313
 20
11.1501545177
 30
0.0
 10
15.3332014558
 20
11.1561773935
 30
0.0
 10
15.3222549761
 20
11.1611163953
 30
0.0
 10
15.3138534691
 20
11.1639736526
 30
0.0
 10
15.3082513442
 20
11.1654059302
 30
0.0
  0
SPLINE
  5
336
100
AcDbEntity
  8
0
100
AcDbSpline
 62
9
  6
CONTINUOUS
 70
0
 71
3
 72
10
 73
6
 74
0
 42
0.0000001
 43
0.0000001
 44
0.0000000001
 40
0.0
 40
0.0
 40
0.0
 40
0.0
 40
0.5140445944
 40
0.7599106025
 40
1.0
 40
1.0
 40
1.0
 40
1.0
 10
15.3082513442
 20
11.1654059302
 30
0.0
 10
15.3028264332
 20
11.1667929002
 30
0.0
 10
15.2946237028
 20
11.1682433269
 30
0.0
 10
15.2837275671
 20
11.1686631774
 30
0.0
 10
15.2784320991
 20
11.1683619021
 30
0.0
 10
15.2758319592
 20
11.1680811289
 30
0.0
  0
SPLINE
  5
337
100
AcDbEntity
  8
0
100
AcDbSpline
 62
9
  6
CONTINUOUS
 70
0
 71
3
 72
9
 73
5
 74
0
 42
0.0000001
 43
0.0000001
 44
0.0000000001
 40
0.0
 40
0.0
 40
0.0
 40
0.0
 40
0.4973519313
 40
1.0
 40
1.0
 40
1.0
 40
1.0
 10
15.4579223533
 20
10.5961287055
 30
0.0
 10
15.4606734444
 20
10.5970994459
 30
0.0
 10
15.4660936999
 20
10.599381423
 30
0.0
 10
15.4712114549
 20
10.6022766872
 30
0.0
 10
15.4736932345
 20
10.6038684887
 30
0.0
  0
SPLINE
  5
338
100
AcDbEntity
  8
0
100
AcDbSpline
 62
9
  6
CONTINUOUS
 70
0
 71
3
 72
10
 73
6
 74
0
 42
0.0000001
 43
0.0000001
 44
0.0000000001
 40
0.0
 40
0.0
 40
0.0
 40
0.0
 40
0.2405946883
 40
0.486769764
 40
1.0
 40
1.0
 40
1.0
 40
1.0
 10
15.4760163568
 20
10.605416113
 30
0.0
 10
15.4780175267
 20
10.6067996715
 30
0.0
 10
15.4819429726
 20
10.6097822436
 30
0.0
 10
15.4894514204
 20
10.616567776
 30
0.0
 10
15.4944983103
 20
10.6224093703
 30
0.0
 10
15.497607138
 20
10.6265649447
 30
0.0
  0
SPLINE
  5
339
100
AcDbEntity
  8
0
100
AcDbSpline
 62
9
  6
CONTINUOUS
 70
0
 71
3
 72
15
 73
11
 74
0
 42
0.0000001
 43
0.0000001
 44
0.0000000001
 40
0.0
 40
0.0
 40
0.0
 40
0.0
 40
0.1017636247
 40
0.2098136164
 40
0.3246316987
 40
0.4463642049
 40
0.5749746831
 40
0.7102980416
 40
0.8520788876
 40
1.0
 40
1.0
 40
1.0
 40
1.0
 10
15.497607138
 20
10.6265649447
 30
0.0
 10
15.5003854279
 20
10.6302786887
 30
0.0
 10
15.5056376606
 20
10.6383005395
 30
0.0
 10
15.5123377048
 20
10.6515197669
 30
0.0
 10
15.5180547551
 20
10.6661712516
 30
0.0
 10
15.5227765869
 20
10.6821480032
 30
0.0
 10
15.5264828092
 20
10.699345044
 30
0.0
 10
15.52915259
 20
10.7176550764
 30
0.0
 10
15.5307639404
 20
10.7369697239
 30
0.0
 10
15.5311105528
 20
10.7501764799
 30
0.0
 10
15.5311105528
 20
10.7569181233
 30
0.0
  0
SPLINE
  5
33A
100
AcDbEntity
  8
0
100
AcDbSpline
 62
9
  6
CONTINUOUS
 70
0
 71
3
 72
36
 73
32
 74
0
 42
0.0000001
 43
0.0000001
 44
0.0000000001
 40
0.0
 40
0.0
 40
0.0
 40
0.0
 40
0.0330423429
 40
0.0670829003
 40
0.1020044396
 40
0.1376944874
 40
0.1740364917
 40
0.2108993863
 40
0.2855952167
 40
0.3606370994
 40
0.43483677
 40
0.5070506326
 40
0.5420994471
 40
0.5762796886
 40
0.6094939357
 40
0.6416600196
 40
0.6727165354
 40
0.7026248857
 40
0.731372046
 40
0.7589763711
 40
0.7854871083
 40
0.8109921821
 40
0.8356143865
 40
0.8595164011
 40
0.8828927301
 40
0.9059665355
 40
0.9174703551
 40
0.9289887732
 40
0.9521778039
 40
0.9757777941
 40
1.0
 40
1.0
 40
1.0
 40
1.0
 10
14.3714357775
 20
10.884532964
 30
0.0
 10
14.3714409019
 20
10.8914458951
 30
0.0
 10
14.3719082701
 20
10.9054835914
 30
0.0
 10
14.3739068094
 20
10.9267424299
 30
0.0
 10
14.3772226327
 20
10.9483967851
 30
0.0
 10
14.3818293379
 20
10.9703046447
 30
0.0
 10
14.3876951445
 20
10.9923300436
 30
0.0
 10
14.3971825984
 20
11.0217942815
 30
0.0
 10
14.4119358517
 20
11.0580135167
 30
0.0
 10
14.4337724451
 20
11.0995462324
 30
0.0
 10
14.4592773887
 20
11.1383147894
 30
0.0
 10
14.4833035083
 20
11.1678098431
 30
0.0
 10
14.5038336058
 20
11.1891403444
 30
0.0
 10
14.5195680109
 20
11.2037120308
 30
0.0
 10
14.5356889268
 20
11.2169234585
 30
0.0
 10
14.5520963272
 20
11.2286907504
 30
0.0
 10
14.5686873807
 20
11.2389386047
 30
0.0
 10
14.5853575449
 20
11.2476034036
 30
0.0
 10
14.602004438
 20
11.2546261706
 30
0.0
 10
14.6185226353
 20
11.2599651025
 30
0.0
 10
14.6348110678
 20
11.2635779903
 30
0.0
 10
14.65076609
 20
11.2654445464
 30
0.0
 10
14.6662871874
 20
11.265541012
 30
0.0
 10
14.6812736526
 20
11.2638680649
 30
0.0
 10
14.6956238857
 20
11.2604264011
 30
0.0
 10
14.7069887864
 20
11.2560963514
 30
0.0
 10
14.715626774
 20
11.251794453
 30
0.0
 10
14.7239866366
 20
11.2469262752
 30
0.0
 10
14.733910114
 20
11.2397682762
 30
0.0
 10
14.7447898019
 20
11.2295990274
 30
0.0
 10
14.7512363481
 20
11.2219119745
 30
0.0
 10
14.7542701849
 20
11.217852819
 30
0.0
  0
SPLINE
  5
33B
100
AcDbEntity
  8
0
100
AcDbSpline
 62
9
  6
CONTINUOUS
 70
0
 71
3
 72
15
 73
11
 74
0
 42
0.0000001
 43
0.0000001
 44
0.0000000001
 40
0.0
 40
0.0
 40
0.0
 40
0.0
 40
0.1294277891
 40
0.2558459439
 40
0.3800508194
 40
0.5029320204
 40
0.6254272134
 40
0.7484939635
 40
0.8730604091
 40
1.0
 40
1.0
 40
1.0
 40
1.0
 10
14.5023243722
 20
10.7125966926
 30
0.0
 10
14.4979563442
 20
10.7125675477
 30
0.0
 10
14.4893121491
 20
10.7129261398
 30
0.0
 10
14.4765963378
 20
10.7147734736
 30
0.0
 10
14.4643640072
 20
10.7179214591
 30
0.0
 10
14.4526764163
 20
10.722351381
 30
0.0
 10
14.4415920702
 20
10.7280446007
 30
0.0
 10
14.4311671452
 20
10.7349736835
 30
0.0
 10
14.4214511047
 20
10.7430983904
 30
0.0
 10
14.4155447328
 20
10.7492199161
 30
0.0
 10
14.412728898
 20
10.752448695
 30
0.0
  0
SPLINE
  5
33C
100
AcDbEntity
  8
0
100
AcDbSpline
 62
9
  6
CONTINUOUS
 70
0
 71
3
 72
15
 73
11
 74
0
 42
0.0000001
 43
0.0000001
 44
0.0000000001
 40
0.0
 40
0.0
 40
0.0
 40
0.0
 40
0.1089593595
 40
0.2217436556
 40
0.3389328249
 40
0.4609261453
 40
0.5879893561
 40
0.720272354
 40
0.8577340224
 40
1.0
 40
1.0
 40
1.0
 40
1.0
 10
14.412728898
 20
10.752448695
 30
0.0
 10
14.4093562446
 20
10.7563159506
 30
0.0
 10
14.4029616711
 20
10.7646067868
 30
0.0
 10
14.39466917
 20
10.7782792854
 30
0.0
 10
14.3875715534
 20
10.7932889776
 30
0.0
 10
14.3817087895
 20
10.8095354244
 30
0.0
 10
14.3771172657
 20
10.8269195133
 30
0.0
 10
14.3738303664
 20
10.8453351536
 30
0.0
 10
14.3718718358
 20
10.8646554686
 30
0.0
 10
14.3714437361
 20
10.877833109
 30
0.0
 10
14.3714357775
 20
10.884532964
 30
0.0
  0
SPLINE
  5
33D
100
AcDbEntity
  8
0
100
AcDbSpline
 62
7
  6
CONTINUOUS
 70
0
 71
3
 72
20
 73
16
 74
0
 42
0.0000001
 43
0.0000001
 44
0.0000000001
 40
0.0
 40
0.0
 40
0.0
 40
0.0
 40
0.1482684534
 40
0.2892888456
 40
0.3569807723
 40
0.4227978792
 40
0.5489369082
 40
0.6094833382
 40
0.6684700364
 40
0.726047611
 40
0.7823981243
 40
0.8377275042
 40
0.8922677707
 40
0.9462706335
 40
1.0
 40
1.0
 40
1.0
 40
1.0
 10
14.3813352726
 20
10.8894827113
 30
0.0
 10
14.3813352726
 20
10.8806972063
 30
0.0
 10
14.3820920651
 20
10.8635438392
 30
0.0
 10
14.3851127244
 20
10.8425663741
 30
0.0
 10
14.3887773959
 20
10.8267084596
 30
0.0
 10
14.3931116322
 20
10.8119402094
 30
0.0
 10
14.398638854
 20
10.7979815507
 30
0.0
 10
14.4053909106
 20
10.7850734871
 30
0.0
 10
14.4109267897
 20
10.7761457806
 30
0.0
 10
14.4169857703
 20
10.7678704151
 30
0.0
 10
14.4235482156
 20
10.7602713543
 30
0.0
 10
14.4305958345
 20
10.7533740145
 30
0.0
 10
14.4381075983
 20
10.7472010717
 30
0.0
 10
14.4460575315
 20
10.7417708803
 30
0.0
 10
14.4516405441
 20
10.7386545003
 30
0.0
 10
14.4544880653
 20
10.7372306131
 30
0.0
  0
SPLINE
  5
33E
100
AcDbEntity
  8
0
100
AcDbSpline
 62
7
  6
CONTINUOUS
 70
0
 71
3
 72
40
 73
36
 74
0
 42
0.0000001
 43
0.0000001
 44
0.0000000001
 40
0.0
 40
0.0
 40
0.0
 40
0.0
 40
0.0325453016
 40
0.066027283
 40
0.1003363067
 40
0.1353765171
 40
0.1710508053
 40
0.2072455857
 40
0.2438384681
 40
0.2807036615
 40
0.3177128083
 40
0.3547357241
 40
0.3916412739
 40
0.4283004465
 40
0.4645867048
 40
0.5003786653
 40
0.5355608511
 40
0.5700260044
 40
0.6036769163
 40
0.636427775
 40
0.6682075736
 40
0.698960362
 40
0.7286504187
 40
0.7572614902
 40
0.7848033839
 40
0.8113103717
 40
0.8368480037
 40
0.861510411
 40
0.8854248976
 40
0.908746868
 40
0.9316589806
 40
0.943028894
 40
0.9543729002
 40
0.9770791931
 40
1.0
 40
1.0
 40
1.0
 40
1.0
 10
13.8647937688
 20
11.0660826301
 30
0.0
 10
13.8647937688
 20
11.0748282458
 30
0.0
 10
13.8653477336
 20
11.0925750226
 30
0.0
 10
13.8677413662
 20
11.1194444816
 30
0.0
 10
13.8717038459
 20
11.1468054703
 30
0.0
 10
13.8772080016
 20
11.1744981678
 30
0.0
 10
13.8842255079
 20
11.2023688526
 30
0.0
 10
13.8927132879
 20
11.2302633833
 30
0.0
 10
13.9026273513
 20
11.2580231243
 30
0.0
 10
13.9139089669
 20
11.2854922152
 30
0.0
 10
13.9264966435
 20
11.3125152798
 30
0.0
 10
13.9403177414
 20
11.33894099
 30
0.0
 10
13.9552957227
 20
11.3646199195
 30
0.0
 10
13.9713455233
 20
11.3894076721
 30
0.0
 10
13.9883769799
 20
11.4131646668
 30
0.0
 10
14.0062945553
 20
11.4357568279
 30
0.0
 10
14.0249967555
 20
11.4570576843
 30
0.0
 10
14.0443797406
 20
11.4769462303
 30
0.0
 10
14.0643331523
 20
11.4953121583
 30
0.0
 10
14.0847472015
 20
11.512050003
 30
0.0
 10
14.1055054951
 20
11.5270681831
 30
0.0
 10
14.1264947229
 20
11.5402787026
 30
0.0
 10
14.1475954926
 20
11.5516106247
 30
0.0
 10
14.1686932494
 20
11.5609947392
 30
0.0
 10
14.1896685841
 20
11.5683817722
 30
0.0
 10
14.2104073615
 20
11.5737220256
 30
0.0
 10
14.2307924413
 20
11.5769880071
 30
0.0
 10
14.2507104524
 20
11.5781504124
 30
0.0
 10
14.2700477421
 20
11.5772036252
 30
0.0
 10
14.2886900317
 20
11.5741422981
 30
0.0
 10
14.3035994612
 20
11.5698306662
 30
0.0
 10
14.3150219105
 20
11.5653566907
 30
0.0
 10
14.3260985836
 20
11.5602141614
 30
0.0
 10
14.3393662449
 20
11.5524957663
 30
0.0
 10
14.3491601551
 20
11.5450627285
 30
0.0
 10
14.3538391949
 20
11.5410572729
 30
0.0
  0
SPLINE
  5
33F
100
AcDbEntity
  8
0
100
AcDbSpline
 62
9
  6
CONTINUOUS
 70
0
 71
3
 72
40
 73
36
 74
0
 42
0.0000001
 43
0.0000001
 44
0.0000000001
 40
0.0
 40
0.0
 40
0.0
 40
0.0
 40
0.0319409607
 40
0.0647410336
 40
0.0983212497
 40
0.1325940799
 40
0.1674660642
 40
0.2028400343
 40
0.2386170521
 40
0.2746978724
 40
0.3109783072
 40
0.3473467874
 40
0.3836889367
 40
0.4198893722
 40
0.45583335
 40
0.4914084645
 40
0.5265064933
 40
0.5610299519
 40
0.5948978024
 40
0.6280329253
 40
0.6603618355
 40
0.6918170244
 40
0.7223397469
 40
0.7518834042
 40
0.7804197649
 40
0.8079587687
 40
0.834533922
 40
0.8601915641
 40
0.8849943096
 40
0.9090249485
 40
0.9323904159
 40
0.9438689685
 40
0.9552343299
 40
0.977706231
 40
1.0
 40
1.0
 40
1.0
 40
1.0
 10
14.561647511
 20
10.799326601
 30
0.0
 10
14.561647511
 20
10.8051307637
 30
0.0
 10
14.5619981846
 20
10.8168975044
 30
0.0
 10
14.5635061203
 20
10.8347080893
 30
0.0
 10
14.5659851311
 20
10.8528373907
 30
0.0
 10
14.5694171326
 20
10.8711931222
 30
0.0
 10
14.5737840426
 20
10.8896839499
 30
0.0
 10
14.5790680851
 20
10.9082180164
 30
0.0
 10
14.5852504623
 20
10.9267038336
 30
0.0
 10
14.5923158452
 20
10.9450470923
 30
0.0
 10
14.6002272249
 20
10.9631587085
 30
0.0
 10
14.6089325547
 20
10.9809550261
 30
0.0
 10
14.6183830542
 20
10.9983504952
 30
0.0
 10
14.6285290091
 20
11.0152598958
 30
0.0
 10
14.6393210533
 20
11.0315978735
 30
0.0
 10
14.6507095622
 20
11.0472792852
 30
0.0
 10
14.6626464281
 20
11.0622190731
 30
0.0
 10
14.6750819157
 20
11.0763359865
 30
0.0
 10
14.6879443493
 20
11.0895722563
 30
0.0
 10
14.7011663545
 20
11.1018715714
 30
0.0
 10
14.7146804388
 20
11.1131782691
 30
0.0
 10
14.7284193984
 20
11.1234367304
 30
0.0
 10
14.7423164441
 20
11.132590912
 30
0.0
 10
14.7563048207
 20
11.1405863936
 30
0.0
 10
14.7703236922
 20
11.1473645032
 30
0.0
 10
14.7843016242
 20
11.1528973608
 30
0.0
 10
14.7981683858
 20
11.1571741295
 30
0.0
 10
14.8118574734
 20
11.1601817932
 30
0.0
 10
14.8253024742
 20
11.161907431
 30
0.0
 10
14.8384355114
 20
11.1623375552
 30
0.0
 10
14.8491301073
 20
11.1615991969
 30
0.0
 10
14.857435732
 20
11.1603384412
 30
0.0
 10
14.8654991715
 20
11.158649587
 30
0.0
 10
14.8752909867
 20
11.1557123481
 30
0.0
 10
14.8827821195
 20
11.1524888464
 30
0.0
 10
14.8864055585
 20
11.150677145
 30
0.0
  0
SPLINE
  5
340
100
AcDbEntity
  8
0
100
AcDbSpline
 62
9
  6
CONTINUOUS
 70
0
 71
3
 72
20
 73
16
 74
0
 42
0.0000001
 43
0.0000001
 44
0.0000000001
 40
0.0
 40
0.0
 40
0.0
 40
0.0
 40
0.0537429723
 40
0.1077631639
 40
0.1623142198
 40
0.2176383393
 40
0.2739651824
 40
0.3315113621
 40
0.3904797991
 40
0.4510368391
 40
0.5132940471
 40
0.5773282387
 40
0.710842111
 40
0.8517731799
 40
1.0
 40
1.0
 40
1.0
 40
1.0
 10
14.6348238223
 20
10.6471101576
 30
0.0
 10
14.6319784593
 20
10.6485390729
 30
0.0
 10
14.6263988819
 20
10.6516629294
 30
0.0
 10
14.6184498861
 20
10.657095833
 30
0.0
 10
14.6109345089
 20
10.6632637453
 30
0.0
 10
14.6038779388
 20
10.6701479583
 30
0.0
 10
14.5973041826
 20
10.6777304824
 30
0.0
 10
14.5912368655
 20
10.6859928629
 30
0.0
 10
14.5857024503
 20
10.694916932
 30
0.0
 10
14.580718153
 20
10.7044742581
 30
0.0
 10
14.5762889885
 20
10.7146287193
 30
0.0
 10
14.5710635338
 20
10.7291163735
 30
0.0
 10
14.5660260482
 20
10.7485783601
 30
0.0
 10
14.5624198435
 20
10.7734000917
 30
0.0
 10
14.561647511
 20
10.7905448951
 30
0.0
 10
14.561647511
 20
10.7993266008
 30
0.0
  0
SPLINE
  5
341
100
AcDbEntity
  8
0
100
AcDbSpline
 62
9
  6
CONTINUOUS
 70
0
 71
3
 72
9
 73
5
 74
0
 42
0.0000001
 43
0.0000001
 44
0.0000000001
 40
0.0
 40
0.0
 40
0.0
 40
0.0
 40
0.5088526137
 40
1.0
 40
1.0
 40
1.0
 40
1.0
 10
14.6344538773
 20
10.7673137312
 30
0.0
 10
14.6218643771
 20
10.7721712693
 30
0.0
 10
14.5973282862
 20
10.7822591166
 30
0.0
 10
14.5732970726
 20
10.7935018397
 30
0.0
 10
14.561647511
 20
10.799326601
 30
0.0
  0
SPLINE
  5
342
100
AcDbEntity
  8
0
100
AcDbSpline
 62
9
  6
CONTINUOUS
 70
0
 71
3
 72
24
 73
20
 74
0
 42
0.0000001
 43
0.0000001
 44
0.0000000001
 40
0.0
 40
0.0
 40
0.0
 40
0.0
 40
0.0595096391
 40
0.12128989
 40
0.1849722599
 40
0.2501646801
 40
0.31646279
 40
0.3499018945
 40
0.3834643054
 40
0.4507382993
 40
0.5178509971
 40
0.5843579774
 40
0.6498184909
 40
0.7138043125
 40
0.7759259959
 40
0.8358729152
 40
0.8933630848
 40
0.9481419369
 40
1.0
 40
1.0
 40
1.0
 40
1.0
 10
14.6344538886
 20
10.7673137455
 30
0.0
 10
14.6344538886
 20
10.7752134769
 30
0.0
 10
14.6350184789
 20
10.791318158
 30
0.0
 10
14.6373970987
 20
10.8157706588
 30
0.0
 10
14.6412869056
 20
10.8407923652
 30
0.0
 10
14.6466497266
 20
10.8661520036
 30
0.0
 10
14.652298415
 20
10.8873158275
 30
0.0
 10
14.6575222124
 20
10.904224114
 30
0.0
 10
14.6632261575
 20
10.9211133577
 30
0.0
 10
14.6711683258
 20
10.9419565812
 30
0.0
 10
14.6819060923
 20
10.9663792373
 30
0.0
 10
14.6937531555
 20
10.9900152069
 30
0.0
 10
14.7066032548
 20
11.0126457199
 30
0.0
 10
14.720352055
 20
11.0340548487
 30
0.0
 10
14.7348995128
 20
11.054032445
 30
0.0
 10
14.7500927751
 20
11.0724188612
 30
0.0
 10
14.7657874741
 20
11.0890662764
 30
0.0
 10
14.7818385754
 20
11.1038268617
 30
0.0
 10
14.7930034062
 20
11.1125627155
 30
0.0
 10
14.798617431
 20
11.1165467182
 30
0.0
  0
SPLINE
  5
343
100
AcDbEntity
  8
0
100
AcDbSpline
 62
9
  6
CONTINUOUS
 70
0
 71
3
 72
17
 73
13
 74
0
 42
0.0000001
 43
0.0000001
 44
0.0000000001
 40
0.0
 40
0.0
 40
0.0
 40
0.0
 40
0.1496676917
 40
0.2906572986
 40
0.4234165903
 40
0.5486306265
 40
0.6672892174
 40
0.7807631476
 40
0.8361514538
 40
0.8909628985
 40
0.9454845283
 40
1.0
 40
1.0
 40
1.0
 40
1.0
 10
14.798617431
 20
11.1165467182
 30
0.0
 10
14.8035649407
 20
11.1200577274
 30
0.0
 10
14.8134640022
 20
11.1264812605
 30
0.0
 10
14.8287145316
 20
11.1344155907
 30
0.0
 10
14.8438028984
 20
11.1403290427
 30
0.0
 10
14.8586171304
 20
11.1441830091
 30
0.0
 10
14.8730421322
 20
11.1459373603
 30
0.0
 10
14.8847449403
 20
11.1456055614
 30
0.0
 10
14.8937155385
 20
11.144228216
 30
0.0
 10
14.9002142617
 20
11.1426599509
 30
0.0
 10
14.9065223917
 20
11.1405582175
 30
0.0
 10
14.910588106
 20
11.1388092165
 30
0.0
 10
14.9125798118
 20
11.137852058
 30
0.0
  0
SPLINE
  5
344
100
AcDbEntity
  8
0
100
AcDbSpline
 62
7
  6
CONTINUOUS
 70
0
 71
3
 72
33
 73
29
 74
0
 42
0.0000001
 43
0.0000001
 44
0.0000000001
 40
0.0
 40
0.0
 40
0.0
 40
0.0
 40
0.0223005947
 40
0.0447836323
 40
0.0676242302
 40
0.0909822803
 40
0.1149970218
 40
0.1397856808
 40
0.165437932
 40
0.1920209624
 40
0.219575921
 40
0.2481217113
 40
0.2776581677
 40
0.3081637413
 40
0.3396034261
 40
0.3719253856
 40
0.4389287562
 40
0.5085640735
 40
0.5800686756
 40
0.6162680014
 40
0.6526115738
 40
0.6889867715
 40
0.72528163
 40
0.7971683574
 40
0.8674169113
 40
0.9352553772
 40
0.9680648862
 40
1.0
 40
1.0
 40
1.0
 40
1.0
 10
14.7062835974
 20
11.2407853688
 30
0.0
 10
14.7026580035
 20
11.242598327
 30
0.0
 10
14.6951594863
 20
11.2458207484
 30
0.0
 10
14.6833620131
 20
11.249360837
 30
0.0
 10
14.6710534335
 20
11.2515958144
 30
0.0
 10
14.6583007416
 20
11.2525182315
 30
0.0
 10
14.6451681372
 20
11.2521269072
 30
0.0
 10
14.6317222998
 20
11.2504229392
 30
0.0
 10
14.6180289239
 20
11.2474223701
 30
0.0
 10
14.604156273
 20
11.2431372905
 30
0.0
 10
14.5901714309
 20
11.2375933946
 30
0.0
 10
14.5761424201
 20
11.2308187505
 30
0.0
 10
14.5621390508
 20
11.2228454846
 30
0.0
 10
14.5482276571
 20
11.2137168567
 30
0.0
 10
14.5344784505
 20
11.2034744682
 30
0.0
 10
14.5162340145
 20
11.1882228791
 30
0.0
 10
14.4942904652
 20
11.1666510524
 30
0.0
 10
14.4699693245
 20
11.1376018466
 30
0.0
 10
14.4515767532
 20
11.1110719875
 30
0.0
 10
14.4380926605
 20
11.0886196872
 30
0.0
 10
14.428639782
 20
11.071216637
 30
0.0
 10
14.4199398373
 20
11.0534059386
 30
0.0
 10
14.4094328809
 20
11.029314682
 30
0.0
 10
14.3984090194
 20
10.9987631949
 30
0.0
 10
14.3887031576
 20
10.9617985571
 30
0.0
 10
14.3836895316
 20
10.9310838429
 30
0.0
 10
14.3816796633
 20
10.9070588148
 30
0.0
 10
14.3813352726
 20
10.8952876003
 30
0.0
 10
14.3813352726
 20
10.8894827113
 30
0.0
  0
SPLINE
  5
345
100
AcDbEntity
  8
0
100
AcDbSpline
 62
9
  6
CONTINUOUS
 70
0
 71
3
 72
17
 73
13
 74
0
 42
0.0000001
 43
0.0000001
 44
0.0000000001
 40
0.0
 40
0.0
 40
0.0
 40
0.0
 40
0.0560594016
 40
0.1134914867
 40
0.1722056994
 40
0.2321025043
 40
0.3550007383
 40
0.4812859536
 40
0.6099728829
 40
0.7400283719
 40
0.8703926269
 40
1.0
 40
1.0
 40
1.0
 40
1.0
 10
14.6344538906
 20
10.7673137447
 30
0.0
 10
14.6450258118
 20
10.7632347592
 30
0.0
 10
14.6665819049
 20
10.755369379
 30
0.0
 10
14.699678755
 20
10.7445679849
 30
0.0
 10
14.7338583713
 20
10.7346452227
 30
0.0
 10
14.7811523316
 20
10.7225182799
 30
0.0
 10
14.8423570651
 20
10.7097837129
 30
0.0
 10
14.9179370642
 20
10.6984944929
 30
0.0
 10
14.9954584858
 20
10.6911915526
 30
0.0
 10
15.0740800456
 20
10.6879545481
 30
0.0
 10
15.1529470555
 20
10.6888185881
 30
0.0
 10
15.2054201087
 20
10.6921418138
 30
0.0
 10
15.2315119741
 20
10.6944988044
 30
0.0
  0
SPLINE
  5
346
100
AcDbEntity
  8
0
100
AcDbSpline
 62
9
  6
CONTINUOUS
 70
0
 71
3
 72
29
 73
25
 74
0
 42
0.0000001
 43
0.0000001
 44
0.0000000001
 40
0.0
 40
0.0
 40
0.0
 40
0.0
 40
0.0095707274
 40
0.0195029829
 40
0.0301699576
 40
0.0418652334
 40
0.0548041075
 40
0.0691384538
 40
0.084974736
 40
0.1023875818
 40
0.1214284061
 40
0.142132205
 40
0.1645222497
 40
0.1886128022
 40
0.2419126347
 40
0.3020413093
 40
0.3689231347
 40
0.442290013
 40
0.5218017145
 40
0.607124667
 40
0.6979543597
 40
0.7939784944
 40
0.894808172
 40
1.0
 40
1.0
 40
1.0
 40
1.0
 10
15.205537514
 20
10.5467576553
 30
0.0
 10
15.2060294941
 20
10.54678588
 30
0.0
 10
15.2070288312
 20
10.5469548864
 30
0.0
 10
15.2084807273
 20
10.5475344318
 30
0.0
 10
15.2098910656
 20
10.5484306607
 30
0.0
 10
15.2112600243
 20
10.5496352871
 30
0.0
 10
15.2125899149
 20
10.5511434351
 30
0.0
 10
15.2138819034
 20
10.5529521775
 30
0.0
 10
15.2151362496
 20
10.555059446
 30
0.0
 10
15.2163525171
 20
10.5574633728
 30
0.0
 10
15.2175299182
 20
10.5601620306
 30
0.0
 10
15.2186674037
 20
10.5631533585
 30
0.0
 10
15.219763902
 20
10.5664351312
 30
0.0
 10
15.2212188476
 20
10.5713633369
 30
0.0
 10
15.2229014313
 20
10.5782453628
 30
0.0
 10
15.2246765165
 20
10.587360709
 30
0.0
 10
15.2262562738
 20
10.597558483
 30
0.0
 10
15.2276388317
 20
10.6087904744
 30
0.0
 10
15.2288197781
 20
10.6209994806
 30
0.0
 10
15.2297946878
 20
10.634128229
 30
0.0
 10
15.2305591212
 20
10.648122319
 30
0.0
 10
15.2311090254
 20
10.6629253823
 30
0.0
 10
15.2314406165
 20
10.6784745039
 30
0.0
 10
15.2315119751
 20
10.6890825597
 30
0.0
 10
15.2315119753
 20
10.6944988021
 30
0.0
  0
SPLINE
  5
347
100
AcDbEntity
  8
0
100
AcDbSpline
 62
9
  6
CONTINUOUS
 70
0
 71
3
 72
22
 73
18
 74
0
 42
0.0000001
 43
0.0000001
 44
0.0000000001
 40
0.0
 40
0.0
 40
0.0
 40
0.0
 40
0.0496183385
 40
0.0996473606
 40
0.1505004105
 40
0.2025582973
 40
0.2561654553
 40
0.311628888
 40
0.3692193671
 40
0.4291664246
 40
0.4916104345
 40
0.5566213433
 40
0.6242255762
 40
0.6944150756
 40
0.7671547557
 40
0.8423886126
 40
1.0
 40
1.0
 40
1.0
 40
1.0
 10
14.7057679284
 20
10.6162389505
 30
0.0
 10
14.7030233727
 20
10.6172682247
 30
0.0
 10
14.6976230734
 20
10.6196473673
 30
0.0
 10
14.6899181234
 20
10.6241171877
 30
0.0
 10
14.6826203883
 20
10.6294725466
 30
0.0
 10
14.6757567944
 20
10.6356912849
 30
0.0
 10
14.6693518614
 20
10.6427521888
 30
0.0
 10
14.6634303131
 20
10.6506343448
 30
0.0
 10
14.658016383
 20
10.659316845
 30
0.0
 10
14.653137749
 20
10.6687760398
 30
0.0
 10
14.6488023683
 20
10.6789726445
 30
0.0
 10
14.645017137
 20
10.6898648224
 30
0.0
 10
14.6417906699
 20
10.7014102444
 30
0.0
 10
14.6391316893
 20
10.7135663144
 30
0.0
 10
14.6370490416
 20
10.7262909942
 30
0.0
 10
14.6350219913
 20
10.7442346358
 30
0.0
 10
14.6344538906
 20
10.7580028313
 30
0.0
 10
14.6344538906
 20
10.7673137447
 30
0.0
  0
SPLINE
  5
348
100
AcDbEntity
  8
0
100
AcDbSpline
 62
7
  6
CONTINUOUS
 70
0
 71
3
 72
23
 73
19
 74
0
 42
0.0000001
 43
0.0000001
 44
0.0000000001
 40
0.0
 40
0.0
 40
0.0
 40
0.0
 40
0.0554141142
 40
0.1103214781
 40
0.1651003893
 40
0.2201328331
 40
0.2757926826
 40
0.332429071
 40
0.3903595423
 40
0.4498593331
 40
0.511157584
 40
0.5744361945
 40
0.6398213085
 40
0.7073997034
 40
0.7772228198
 40
0.8493092618
 40
0.9236100337
 40
1.0
 40
1.0
 40
1.0
 40
1.0
 10
14.0028184496
 20
10.8390157972
 30
0.0
 10
13.9976302591
 20
10.8401725512
 30
0.0
 10
13.987409631
 20
10.8430012434
 30
0.0
 10
13.9726465752
 20
10.8488119517
 30
0.0
 10
13.9586130645
 20
10.8561377693
 30
0.0
 10
13.9453718033
 20
10.8649435981
 30
0.0
 10
13.9329830806
 20
10.8751935641
 30
0.0
 10
13.9214964021
 20
10.8868367905
 30
0.0
 10
13.9109630455
 20
10.899824669
 30
0.0
 10
13.901424238
 20
10.9140981576
 30
0.0
 10
13.8929181795
 20
10.9295958595
 30
0.0
 10
13.8854813391
 20
10.9462521399
 30
0.0
 10
13.8791385732
 20
10.9639941669
 30
0.0
 10
13.8739190852
 20
10.9827493432
 30
0.0
 10
13.8698403978
 20
11.0024405624
 30
0.0
 10
13.8669210433
 20
11.022987165
 30
0.0
 10
13.8651722596
 20
11.0442965945
 30
0.0
 10
13.8647937688
 20
11.0587549473
 30
0.0
 10
13.8647937688
 20
11.0660826301
 30
0.0
  0
SPLINE
  5
349
100
AcDbEntity
  8
0
100
AcDbSpline
 62
9
  6
CONTINUOUS
 70
0
 71
3
 72
38
 73
34
 74
0
 42
0.0000001
 43
0.0000001
 44
0.0000000001
 40
0.0
 40
0.0
 40
0.0
 40
0.0
 40
0.0773282635
 40
0.1589886156
 40
0.2435253443
 40
0.3295360013
 40
0.4155228856
 40
0.4999961329
 40
0.581536676
 40
0.6587045854
 40
0.6952032741
 40
0.7301175207
 40
0.7633133146
 40
0.7946644432
 40
0.8240506334
 40
0.8513520933
 40
0.8764447018
 40
0.8992090411
 40
0.9195699654
 40
0.9288443192
 40
0.9375137913
 40
0.9455799149
 40
0.9530463307
 40
0.959919518
 40
0.966209762
 40
0.9719326801
 40
0.9771114711
 40
0.9817798942
 40
0.985986433
 40
0.9898006458
 40
0.9933193057
 40
0.9966690252
 40
1.0
 40
1.0
 40
1.0
 40
1.0
 10
15.2315119753
 20
10.6944988021
 30
0.0
 10
15.2315119747
 20
10.7061660569
 30
0.0
 10
15.2311684946
 20
10.7301548879
 30
0.0
 10
15.2297769175
 20
10.7668743188
 30
0.0
 10
15.2275178046
 20
10.8048630473
 30
0.0
 10
15.2244225724
 20
10.8434476388
 30
0.0
 10
15.2205264122
 20
10.8819499631
 30
0.0
 10
15.2159204468
 20
10.9196945359
 30
0.0
 10
15.2106902251
 20
10.9560139446
 30
0.0
 10
15.20580024
 20
10.9850616585
 30
0.0
 10
15.2016106555
 20
11.0070852212
 30
0.0
 10
15.1984298214
 20
11.0225453596
 30
0.0
 10
15.1951670372
 20
11.0371937646
 30
0.0
 10
15.191836831
 20
11.0509704198
 30
0.0
 10
15.1884536373
 20
11.0638166929
 30
0.0
 10
15.1850322531
 20
11.075673169
 30
0.0
 10
15.1815900256
 20
11.0864798069
 30
0.0
 10
15.17814165
 20
11.0961798864
 30
0.0
 10
15.1751899692
 20
11.1035177116
 30
0.0
 10
15.1728217321
 20
11.1087903633
 30
0.0
 10
15.1711089651
 20
11.1123219647
 30
0.0
 10
15.1694057004
 20
11.1155528679
 30
0.0
 10
15.1677135664
 20
11.1184805987
 30
0.0
 10
15.1660341758
 20
11.1211027993
 30
0.0
 10
15.164368995
 20
11.1234172275
 30
0.0
 10
15.1627192752
 20
11.1254217666
 30
0.0
 10
15.1610858706
 20
11.1271143266
 30
0.0
 10
15.1594691896
 20
11.1284926785
 30
0.0
 10
15.1578690344
 20
11.1295541348
 30
0.0
 10
15.1562845048
 20
11.130294176
 30
0.0
 10
15.154715149
 20
11.1307049886
 30
0.0
 10
15.1531659523
 20
11.130776274
 30
0.0
 10
15.1521646811
 20
11.1305943071
 30
0.0
 10
15.1516824298
 20
11.1304528278
 30
0.0
  0
SPLINE
  5
34A
100
AcDbEntity
  8
0
100
AcDbSpline
 62
7
  6
CONTINUOUS
 70
0
 71
3
 72
40
 73
36
 74
0
 42
0.0000001
 43
0.0000001
 44
0.0000000001
 40
0.0
 40
0.0
 40
0.0
 40
0.0
 40
0.0334482453
 40
0.0678902361
 40
0.1031995199
 40
0.1392611795
 40
0.1759655713
 40
0.2131940772
 40
0.2886936698
 40
0.364721229
 40
0.4026067407
 40
0.4402254982
 40
0.4774474928
 40
0.5141461562
 40
0.550198912
 40
0.5854899672
 40
0.6199085942
 40
0.653354649
 40
0.6857358538
 40
0.716972783
 40
0.7469991742
 40
0.7757634206
 40
0.8032341572
 40
0.8293981306
 40
0.8542697192
 40
0.8778884872
 40
0.9003281825
 40
0.9111421432
 40
0.9217049634
 40
0.9421502816
 40
0.9618585309
 40
0.9715093271
 40
0.98106168
 40
0.9905476041
 40
1.0
 40
1.0
 40
1.0
 40
1.0
 10
17.3435491866
 20
11.2318433721
 30
0.0
 10
17.3435491866
 20
11.2430983549
 30
0.0
 10
17.3430238728
 20
11.2659453631
 30
0.0
 10
17.3407566894
 20
11.3006060865
 30
0.0
 10
17.3370024655
 20
11.3360219757
 30
0.0
 10
17.3317806686
 20
11.3720198958
 30
0.0
 10
17.3251157104
 20
11.4084354725
 30
0.0
 10
17.3142954698
 20
11.4575491015
 30
0.0
 10
17.2973794411
 20
11.5188247391
 30
0.0
 10
17.276286835
 20
11.579023419
 30
0.0
 10
17.2569964771
 20
11.6262314184
 30
0.0
 10
17.2414475026
 20
11.6608378546
 30
0.0
 10
17.2248743981
 20
11.6945209526
 30
0.0
 10
17.2073559176
 20
11.7271257334
 30
0.0
 10
17.1889701498
 20
11.7584990591
 30
0.0
 10
17.1698066447
 20
11.7884976399
 30
0.0
 10
17.1499500464
 20
11.8169799688
 30
0.0
 10
17.1294959816
 20
11.8438161898
 30
0.0
 10
17.1085368309
 20
11.8688808243
 30
0.0
 10
17.0871699195
 20
11.8920581843
 30
0.0
 10
17.0654947333
 20
11.9132424695
 30
0.0
 10
17.0436078807
 20
11.9323331836
 30
0.0
 10
17.0216128395
 20
11.9492461341
 30
0.0
 10
16.9996051862
 20
11.9638980326
 30
0.0
 10
16.9776870728
 20
11.9762252215
 30
0.0
 10
16.9559553594
 20
11.986164286
 30
0.0
 10
16.937860068
 20
11.9924940309
 30
0.0
 10
16.9236014285
 20
11.9962700703
 30
0.0
 10
16.9098180141
 20
11.9991370123
 30
0.0
 10
16.8928382379
 20
12.0012119878
 30
0.0
 10
16.876030861
 20
12.0012003763
 30
0.0
 10
16.8629939393
 20
11.9999008927
 30
0.0
 10
16.8534655089
 20
11.9983048308
 30
0.0
 10
16.8441326001
 20
11.9960826424
 30
0.0
 10
16.8380433146
 20
11.9941837536
 30
0.0
 10
16.8350413
 20
11.9931328841
 30
0.0
  0
SPLINE
  5
34B
100
AcDbEntity
  8
0
100
AcDbSpline
 62
7
  6
CONTINUOUS
 70
0
 71
3
 72
17
 73
13
 74
0
 42
0.0000001
 43
0.0000001
 44
0.0000000001
 40
0.0
 40
0.0
 40
0.0
 40
0.0
 40
0.2449867133
 40
0.3071408264
 40
0.3695571302
 40
0.4321950917
 40
0.4950166663
 40
0.5579863284
 40
0.6210688269
 40
0.7474226914
 40
0.8738212255
 40
1.0
 40
1.0
 40
1.0
 40
1.0
 10
16.0085160195
 20
11.5354665505
 30
0.0
 10
15.9657968023
 20
11.5011529555
 30
0.0
 10
15.9097495576
 20
11.4610942042
 30
0.0
 10
15.8393836367
 20
11.4177290678
 30
0.0
 10
15.8031426234
 20
11.3967450062
 30
0.0
 10
15.7662082164
 20
11.3766957308
 30
0.0
 10
15.7286256058
 20
11.3576137895
 30
0.0
 10
15.690444036
 20
11.3395265387
 30
0.0
 10
15.6387774154
 20
11.3167632186
 30
0.0
 10
15.5729784461
 20
11.2909565031
 30
0.0
 10
15.4924664114
 20
11.2643607132
 30
0.0
 10
15.4379017994
 20
11.2496024694
 30
0.0
 10
15.410467729
 20
11.242983918
 30
0.0
  0
SPLINE
  5
34C
100
AcDbEntity
  8
0
100
AcDbSpline
 62
7
  6
CONTINUOUS
 70
0
 71
3
 72
11
 73
7
 74
0
 42
0.0000001
 43
0.0000001
 44
0.0000000001
 40
0.0
 40
0.0
 40
0.0
 40
0.0
 40
0.2477413712
 40
0.4974744477
 40
0.7484392578
 40
1.0
 40
1.0
 40
1.0
 40
1.0
 10
16.0085160195
 20
11.5354665505
 30
0.0
 10
16.0696180215
 20
11.5845458522
 30
0.0
 10
16.1966337821
 20
11.6778477096
 30
0.0
 10
16.3989253167
 20
11.8014068842
 30
0.0
 10
16.612031507
 20
11.9079371603
 30
0.0
 10
16.7599308223
 20
11.9668365867
 30
0.0
 10
16.8350412489
 20
11.9931330301
 30
0.0
  0
SPLINE
  5
34D
100
AcDbEntity
  8
0
100
AcDbSpline
 62
7
  6
CONTINUOUS
 70
0
 71
3
 72
13
 73
9
 74
0
 42
0.0000001
 43
0.0000001
 44
0.0000000001
 40
0.0
 40
0.0
 40
0.0
 40
0.0
 40
0.125811369
 40
0.2515856619
 40
0.5025263723
 40
0.6276020539
 40
0.7522879952
 40
1.0
 40
1.0
 40
1.0
 40
1.0
 10
17.2067836334
 20
10.9313267391
 30
0.0
 10
17.1692149341
 20
10.9181737959
 30
0.0
 10
17.093520447
 20
10.8934577892
 30
0.0
 10
16.9404030405
 20
10.8505195122
 30
0.0
 10
16.7849097196
 20
10.8173793973
 30
0.0
 10
16.6281485596
 20
10.7942831679
 30
0.0
 10
16.4715694856
 20
10.7779700402
 30
0.0
 10
16.3536543338
 20
10.7732527409
 30
0.0
 10
16.2752827971
 20
10.773501667
 30
0.0
  0
SPLINE
  5
34E
100
AcDbEntity
  8
0
100
AcDbSpline
 62
7
  6
CONTINUOUS
 70
0
 71
3
 72
24
 73
20
 74
0
 42
0.0000001
 43
0.0000001
 44
0.0000000001
 40
0.0
 40
0.0
 40
0.0
 40
0.0
 40
0.047741204
 40
0.0959981798
 40
0.1452624942
 40
0.1959849464
 40
0.2485545014
 40
0.3032991206
 40
0.3315781909
 40
0.3604930653
 40
0.4203066138
 40
0.4828935309
 40
0.548330391
 40
0.6166472652
 40
0.687839628
 40
0.7618699567
 40
0.8386733165
 40
0.918113345
 40
1.0
 40
1.0
 40
1.0
 40
1.0
 10
17.2067835823
 20
10.9313268851
 30
0.0
 10
17.2120470192
 20
10.9331693761
 30
0.0
 10
17.2224166378
 20
10.9375206158
 30
0.0
 10
17.237200458
 20
10.9459241013
 30
0.0
 10
17.2511966324
 20
10.9561836059
 30
0.0
 10
17.2643478845
 20
10.9682582837
 30
0.0
 10
17.276613563
 20
10.9820939262
 30
0.0
 10
17.2859594909
 20
10.9949103005
 30
0.0
 10
17.2929637352
 20
11.0059551563
 30
0.0
 10
17.2997965952
 20
11.0177962529
 30
0.0
 10
17.3076962749
 20
11.0336289576
 30
0.0
 10
17.3160385775
 20
11.0539407939
 30
0.0
 10
17.3233261249
 20
11.075703025
 30
0.0
 10
17.3295332071
 20
11.0988379875
 30
0.0
 10
17.3346367165
 20
11.1232659922
 30
0.0
 10
17.3386227253
 20
11.1489033344
 30
0.0
 10
17.3414730434
 20
11.175659742
 30
0.0
 10
17.3431806081
 20
11.2034313331
 30
0.0
 10
17.3435491866
 20
11.2222782665
 30
0.0
 10
17.3435491866
 20
11.2318433721
 30
0.0
  0
SPLINE
  5
34F
100
AcDbEntity
  8
0
100
AcDbSpline
 62
7
  6
CONTINUOUS
 70
0
 71
3
 72
17
 73
13
 74
0
 42
0.0000001
 43
0.0000001
 44
0.0000000001
 40
0.0
 40
0.0
 40
0.0
 40
0.0
 40
0.1261769025
 40
0.2525745096
 40
0.3789281664
 40
0.4420107867
 40
0.504980683
 40
0.5678026146
 40
0.6304410495
 40
0.6928578351
 40
0.7550124274
 40
1.0
 40
1.0
 40
1.0
 40
1.0
 10
15.6251761237
 20
10.628974594
 30
0.0
 10
15.6507545866
 20
10.6409217321
 30
0.0
 10
15.7026240253
 20
10.6634368618
 30
0.0
 10
15.7821678093
 20
10.6928894525
 30
0.0
 10
15.8497169286
 20
10.7137755868
 30
0.0
 10
15.9043179873
 20
10.7282208835
 30
0.0
 10
15.9454578477
 20
10.7379064976
 30
0.0
 10
15.9867503208
 20
10.7464401806
 30
0.0
 10
16.0281397984
 20
10.7538124776
 30
0.0
 10
16.0695705341
 20
10.7600209358
 30
0.0
 10
16.1516491103
 20
10.7700242267
 30
0.0
 10
16.2204691185
 20
10.7736757679
 30
0.0
 10
16.2752827971
 20
10.773501667
 30
0.0
  0
SPLINE
  5
350
100
AcDbEntity
  8
0
100
AcDbSpline
 62
9
  6
CONTINUOUS
 70
0
 71
3
 72
23
 73
19
 74
0
 42
0.0000001
 43
0.0000001
 44
0.0000000001
 40
0.0
 40
0.0
 40
0.0
 40
0.0
 40
0.0846116974
 40
0.1661910924
 40
0.2444760242
 40
0.3193136888
 40
0.3906380992
 40
0.4584350093
 40
0.5227527887
 40
0.5837153161
 40
0.6415559257
 40
0.6966068374
 40
0.7493175241
 40
0.8002456662
 40
0.8500462489
 40
0.8994432119
 40
0.9491856857
 40
1.0
 40
1.0
 40
1.0
 40
1.0
 10
16.4102200447
 20
10.9982639241
 30
0.0
 10
16.4102200447
 20
10.9900508574
 30
0.0
 10
16.4098482537
 20
10.9739159903
 30
0.0
 10
16.4081171203
 20
10.9502382098
 30
0.0
 10
16.4052254628
 20
10.9276281261
 30
0.0
 10
16.4011879874
 20
10.9062049013
 30
0.0
 10
16.3960250911
 20
10.8860718085
 30
0.0
 10
16.3897585654
 20
10.8673255425
 30
0.0
 10
16.3824209626
 20
10.8500563279
 30
0.0
 10
16.3740387527
 20
10.8343525722
 30
0.0
 10
16.3646542334
 20
10.8202907381
 30
0.0
 10
16.3543040765
 20
10.8079456616
 30
0.0
 10
16.343036422
 20
10.7973839237
 30
0.0
 10
16.3309044201
 20
10.7886668267
 30
0.0
 10
16.3179689495
 20
10.781853062
 30
0.0
 10
16.3043044833
 20
10.7769805981
 30
0.0
 10
16.2899922097
 20
10.7740856347
 30
0.0
 10
16.2802151464
 20
10.7734865443
 30
0.0
 10
16.2752827394
 20
10.7735018934
 30
0.0
  0
SPLINE
  5
351
100
AcDbEntity
  8
0
100
AcDbSpline
 62
9
  6
CONTINUOUS
 70
0
 71
3
 72
37
 73
33
 74
0
 42
0.0000001
 43
0.0000001
 44
0.0000000001
 40
0.0
 40
0.0
 40
0.0
 40
0.0
 40
0.019995205
 40
0.0395625076
 40
0.0492894908
 40
0.0590277565
 40
0.0786848266
 40
0.0988529212
 40
0.1198063183
 40
0.1417722103
 40
0.1649294718
 40
0.1894057547
 40
0.2152833868
 40
0.2426046432
 40
0.2713747886
 40
0.3015718356
 40
0.3331445784
 40
0.366023684
 40
0.4001178541
 40
0.4353225937
 40
0.4715185306
 40
0.5085755607
 40
0.5463548789
 40
0.6234729785
 40
0.7016541714
 40
0.7796259168
 40
0.8181422841
 40
0.8561317828
 40
0.8934490078
 40
0.9299606113
 40
0.9655284032
 40
1.0
 40
1.0
 40
1.0
 40
1.0
 10
16.0085162277
 20
11.535466089
 30
0.0
 10
16.012524273
 20
11.5386859334
 30
0.0
 10
16.0208951983
 20
11.544533128
 30
0.0
 10
16.0322678803
 20
11.5502334186
 30
0.0
 10
16.0416927314
 20
11.5537064206
 30
0.0
 10
16.0513711838
 20
11.5564773245
 30
0.0
 10
16.0639856392
 20
11.5586077977
 30
0.0
 10
16.0796570677
 20
11.5589936523
 30
0.0
 10
16.0958259808
 20
11.5572209326
 30
0.0
 10
16.1124002097
 20
11.5533171391
 30
0.0
 10
16.1292910734
 20
11.5473075985
 30
0.0
 10
16.1464119251
 20
11.5392347987
 30
0.0
 10
16.1636744815
 20
11.5291447058
 30
0.0
 10
16.180988674
 20
11.5170929884
 30
0.0
 10
16.1982661
 20
11.5031472604
 30
0.0
 10
16.215412735
 20
11.4873796492
 30
0.0
 10
16.2323413445
 20
11.4698783679
 30
0.0
 10
16.2489574294
 20
11.4507339934
 30
0.0
 10
16.2651757572
 20
11.4300525458
 30
0.0
 10
16.2809058418
 20
11.4079430492
 30
0.0
 10
16.2960649509
 20
11.3845263612
 30
0.0
 10
16.3105705655
 20
11.3599278281
 30
0.0
 10
16.3290591515
 20
11.3254988552
 30
0.0
 10
16.3499868034
 20
11.2804235889
 30
0.0
 10
16.3711972068
 20
11.2242668643
 30
0.0
 10
16.3854465661
 20
11.1762322655
 30
0.0
 10
16.3945908077
 20
11.1375716944
 30
0.0
 10
16.4002349674
 20
11.1088469587
 30
0.0
 10
16.4046615447
 20
11.0804312022
 30
0.0
 10
16.4078473037
 20
11.0524754767
 30
0.0
 10
16.409772426
 20
11.0251382943
 30
0.0
 10
16.4102200447
 20
11.007127299
 30
0.0
 10
16.4102200447
 20
10.9982639241
 30
0.0
  0
SPLINE
  5
352
100
AcDbEntity
  8
0
100
AcDbSpline
 62
7
  6
CONTINUOUS
 70
0
 71
3
 72
11
 73
7
 74
0
 42
0.0000001
 43
0.0000001
 44
0.0000000001
 40
0.0
 40
0.0
 40
0.0
 40
0.0
 40
0.2571781445
 40
0.5094154909
 40
0.7568081431
 40
1.0
 40
1.0
 40
1.0
 40
1.0
 10
14.7345624549
 20
11.6204543465
 30
0.0
 10
14.7345624549
 20
11.6475145171
 30
0.0
 10
14.7326296922
 20
11.7011388503
 30
0.0
 10
14.7235843517
 20
11.7803393552
 30
0.0
 10
14.7082397667
 20
11.8570724156
 30
0.0
 10
14.6935818054
 20
11.906660015
 30
0.0
 10
14.6851390543
 20
11.9308156212
 30
0.0
  0
SPLINE
  5
353
100
AcDbEntity
  8
0
100
AcDbSpline
 62
7
  6
CONTINUOUS
 70
0
 71
3
 72
13
 73
9
 74
0
 42
0.0000001
 43
0.0000001
 44
0.0000000001
 40
0.0
 40
0.0
 40
0.0
 40
0.0
 40
0.2533557146
 40
0.5040200321
 40
0.6285368121
 40
0.7526043395
 40
0.876367505
 40
1.0
 40
1.0
 40
1.0
 40
1.0
 10
14.6851390543
 20
11.9308156212
 30
0.0
 10
14.6774884773
 20
11.9527047333
 30
0.0
 10
14.6603275002
 20
11.9956025316
 30
0.0
 10
14.6339281705
 20
12.0468227056
 30
0.0
 10
14.6099625006
 20
12.0857459686
 30
0.0
 10
14.5905977707
 20
12.113807424
 30
0.0
 10
14.5698098609
 20
12.1407280968
 30
0.0
 10
14.5550007736
 20
12.1578740006
 30
0.0
 10
14.5473675246
 20
12.1662265179
 30
0.0
  0
SPLINE
  5
354
100
AcDbEntity
  8
0
100
AcDbSpline
 62
7
  6
CONTINUOUS
 70
0
 71
3
 72
11
 73
7
 74
0
 42
0.0000001
 43
0.0000001
 44
0.0000000001
 40
0.0
 40
0.0
 40
0.0
 40
0.0
 40
0.2620409568
 40
0.5162839525
 40
0.762297052
 40
1.0
 40
1.0
 40
1.0
 40
1.0
 10
12.642208005
 20
10.9639066306
 30
0.0
 10
12.642208005
 20
10.9360559506
 30
0.0
 10
12.6437477234
 20
10.8811685767
 30
0.0
 10
12.6508852671
 20
10.8004126572
 30
0.0
 10
12.6628030699
 20
10.7228351316
 30
0.0
 10
12.6740868846
 20
10.6726246434
 30
0.0
 10
12.6805463012
 20
10.6482004149
 30
0.0
  0
SPLINE
  5
355
100
AcDbEntity
  8
0
100
AcDbSpline
 62
7
  6
CONTINUOUS
 70
0
 71
3
 72
20
 73
16
 74
0
 42
0.0000001
 43
0.0000001
 44
0.0000000001
 40
0.0
 40
0.0
 40
0.0
 40
0.0
 40
0.0581379059
 40
0.1164091159
 40
0.1750046702
 40
0.2340406376
 40
0.2935790975
 40
0.3536997832
 40
0.4145089152
 40
0.4760865177
 40
0.6017449018
 40
0.7310190094
 40
0.797034921
 40
0.863914305
 40
1.0
 40
1.0
 40
1.0
 40
1.0
 10
13.6188000257
 20
10.3090915202
 30
0.0
 10
13.6361583039
 20
10.3074036389
 30
0.0
 10
13.6710780545
 20
10.3055252265
 30
0.0
 10
13.7236080177
 20
10.3070897973
 30
0.0
 10
13.7761108703
 20
10.3128870212
 30
0.0
 10
13.8283854893
 20
10.3227467828
 30
0.0
 10
13.8802417591
 20
10.3365044301
 30
0.0
 10
13.9315166362
 20
10.3540005236
 30
0.0
 10
13.9820912766
 20
10.3750671607
 30
0.0
 10
14.0488986942
 20
10.4079211985
 30
0.0
 10
14.1302079096
 20
10.4573724138
 30
0.0
 10
14.206789776
 20
10.5160044895
 30
0.0
 10
14.2656102288
 20
10.5682469054
 30
0.0
 10
14.3233701674
 20
10.6246211783
 30
0.0
 10
14.3640038509
 20
10.6701027916
 30
0.0
 10
14.3898940959
 20
10.7016654248
 30
0.0
  0
SPLINE
  5
356
100
AcDbEntity
  8
0
100
AcDbSpline
 62
7
  6
CONTINUOUS
 70
0
 71
3
 72
11
 73
7
 74
0
 42
0.0000001
 43
0.0000001
 44
0.0000000001
 40
0.0
 40
0.0
 40
0.0
 40
0.0
 40
0.2558401416
 40
0.5080693875
 40
0.7563189966
 40
1.0
 40
1.0
 40
1.0
 40
1.0
 10
14.6958690297
 20
11.3134154252
 30
0.0
 10
14.7021723781
 20
11.3391041762
 30
0.0
 10
14.7132959029
 20
11.3904741592
 30
0.0
 10
14.7254545037
 20
11.4677612657
 30
0.0
 10
14.7328531856
 20
11.5443876912
 30
0.0
 10
14.7345624549
 20
11.5952606679
 30
0.0
 10
14.7345624549
 20
11.6204543465
 30
0.0
  0
SPLINE
  5
357
100
AcDbEntity
  8
0
100
AcDbSpline
 62
7
  6
CONTINUOUS
 70
0
 71
3
 72
31
 73
27
 74
0
 42
0.0000001
 43
0.0000001
 44
0.0000000001
 40
0.0
 40
0.0
 40
0.0
 40
0.0
 40
0.0722538182
 40
0.1418301049
 40
0.2088127708
 40
0.273350112
 40
0.3356789847
 40
0.3661300876
 40
0.3961598123
 40
0.4258197031
 40
0.4551679419
 40
0.4842639041
 40
0.5131678787
 40
0.5419444853
 40
0.5706595934
 40
0.5993776633
 40
0.6281632199
 40
0.6570823492
 40
0.6861994518
 40
0.7155746645
 40
0.7452673086
 40
0.7753342733
 40
0.80582567
 40
0.8682484176
 40
0.9329096464
 40
1.0
 40
1.0
 40
1.0
 40
1.0
 10
14.6748510822
 20
12.0589332255
 30
0.0
 10
14.6717438846
 20
12.0923406795
 30
0.0
 10
14.6631240131
 20
12.1577199878
 30
0.0
 10
14.6423323291
 20
12.2525521462
 30
0.0
 10
14.6139708971
 20
12.3416760988
 30
0.0
 10
14.5781292315
 20
12.4244220394
 30
0.0
 10
14.5418352804
 20
12.4880234401
 30
0.0
 10
14.5092195312
 20
12.5348403454
 30
0.0
 10
14.4832057436
 20
12.5676687424
 30
0.0
 10
14.4554995733
 20
12.5983962779
 30
0.0
 10
14.426144599
 20
12.6269365202
 30
0.0
 10
14.395204106
 20
12.6532118454
 30
0.0
 10
14.3627509568
 20
12.6771513819
 30
0.0
 10
14.3288567133
 20
12.6986762426
 30
0.0
 10
14.2936101889
 20
12.7177261862
 30
0.0
 10
14.257109547
 20
12.7342566283
 30
0.0
 10
14.2194492707
 20
12.7482154525
 30
0.0
 10
14.1807319295
 20
12.759571609
 30
0.0
 10
14.14106277
 20
12.7683149198
 30
0.0
 10
14.1005418215
 20
12.7744289081
 30
0.0
 10
14.0592696574
 20
12.7779126559
 30
0.0
 10
14.0173417978
 20
12.7787837878
 30
0.0
 10
13.960251776
 20
12.776462568
 30
0.0
 10
13.8875243563
 20
12.7669363193
 30
0.0
 10
13.7997873617
 20
12.7454948454
 30
0.0
 10
13.7420018997
 20
12.7250637867
 30
0.0
 10
13.7131281854
 20
12.7133643452
 30
0.0
  0
SPLINE
  5
358
100
AcDbEntity
  8
0
100
AcDbSpline
 62
7
  6
CONTINUOUS
 70
0
 71
3
 72
32
 73
28
 74
0
 42
0.0000001
 43
0.0000001
 44
0.0000000001
 40
0.0
 40
0.0
 40
0.0
 40
0.0
 40
0.0258933687
 40
0.0524570828
 40
0.1075629157
 40
0.1360952112
 40
0.1652493278
 40
0.1949992261
 40
0.2253136939
 40
0.2561584505
 40
0.287494558
 40
0.3514608896
 40
0.4168552958
 40
0.44996765
 40
0.4832835319
 40
0.5167490856
 40
0.5503093684
 40
0.6174836536
 40
0.684370004
 40
0.7175721311
 40
0.7505396151
 40
0.7832203189
 40
0.8155634979
 40
0.8790334848
 40
0.9406177917
 40
0.9706082965
 40
1.0
 40
1.0
 40
1.0
 40
1.0
 10
13.713128145
 20
12.7133636891
 30
0.0
 10
13.6958909124
 20
12.7063795203
 30
0.0
 10
13.6613543127
 20
12.6912621373
 30
0.0
 10
13.592250965
 20
12.6566557299
 30
0.0
 10
13.5241914715
 20
12.6159667627
 30
0.0
 10
13.4575408181
 20
12.5698822433
 30
0.0
 10
13.4074419448
 20
12.5319764041
 30
0.0
 10
13.3579542519
 20
12.4912366649
 30
0.0
 10
13.3092028902
 20
12.4477721481
 30
0.0
 10
13.2613210985
 20
12.4016931724
 30
0.0
 10
13.1983762939
 20
12.3364949696
 30
0.0
 10
13.1227284249
 20
12.2491839226
 30
0.0
 10
13.0523987493
 20
12.1559448209
 30
0.0
 10
12.9991282039
 20
12.0776510953
 30
0.0
 10
12.9606904061
 20
12.0170497494
 30
0.0
 10
12.9240443454
 20
11.9549748504
 30
0.0
 10
12.8776852984
 20
11.8704478485
 30
0.0
 10
12.8248074405
 20
11.7621900615
 30
0.0
 10
12.7789532593
 20
11.6510517398
 30
0.0
 10
12.7467986851
 20
11.5610384001
 30
0.0
 10
12.7250926407
 20
11.4934228957
 30
0.0
 10
12.7058024251
 20
11.4257196001
 30
0.0
 10
12.6835064984
 20
11.3361451986
 30
0.0
 10
12.6618327687
 20
11.2250891108
 30
0.0
 10
12.6484608252
 20
11.1144158674
 30
0.0
 10
12.6431157621
 20
11.0276753203
 30
0.0
 10
12.642208005
 20
10.9850177853
 30
0.0
 10
12.642208005
 20
10.9639066306
 30
0.0
  0
SPLINE
  5
359
100
AcDbEntity
  8
0
100
AcDbSpline
 62
7
  6
CONTINUOUS
 70
0
 71
3
 72
32
 73
28
 74
0
 42
0.0000001
 43
0.0000001
 44
0.0000000001
 40
0.0
 40
0.0
 40
0.0
 40
0.0
 40
0.067099868
 40
0.1317697543
 40
0.1942028189
 40
0.2246998586
 40
0.2547721637
 40
0.2844701198
 40
0.3138508051
 40
0.3429729117
 40
0.3718966908
 40
0.4006868282
 40
0.4294088456
 40
0.4581269675
 40
0.4869058232
 40
0.5158115224
 40
0.5449080666
 40
0.5742555216
 40
0.6039141273
 40
0.633941562
 40
0.664388933
 40
0.6953045735
 40
0.7267334438
 40
0.7912551074
 40
0.8582209625
 40
0.9277822909
 40
1.0
 40
1.0
 40
1.0
 40
1.0
 10
12.6805461604
 20
10.6482002952
 30
0.0
 10
12.6885051323
 20
10.6181032268
 30
0.0
 10
12.7068161665
 20
10.5596578084
 30
0.0
 10
12.7422708084
 20
10.4766587746
 30
0.0
 10
12.7782473392
 20
10.4127986078
 30
0.0
 10
12.8106084345
 20
10.3657566945
 30
0.0
 10
12.8364325119
 20
10.332750113
 30
0.0
 10
12.8639514333
 20
10.301832274
 30
0.0
 10
12.8931224158
 20
10.2730903743
 30
0.0
 10
12.9238827223
 20
10.2466021775
 30
0.0
 10
12.9561610157
 20
10.2224392434
 30
0.0
 10
12.9898869705
 20
10.2006809155
 30
0.0
 10
13.0249719988
 20
10.1813868583
 30
0.0
 10
13.0613194205
 20
10.1646037206
 30
0.0
 10
13.098835767
 20
10.1503855752
 30
0.0
 10
13.1374179802
 20
10.1387625524
 30
0.0
 10
13.176961105
 20
10.1297468597
 30
0.0
 10
13.2173652119
 20
10.1233569404
 30
0.0
 10
13.2585301771
 20
10.1195927626
 30
0.0
 10
13.3003599167
 20
10.1184388036
 30
0.0
 10
13.3427625487
 20
10.1198842469
 30
0.0
 10
13.3856509349
 20
10.1239091022
 30
0.0
 10
13.4438713902
 20
10.1327483177
 30
0.0
 10
13.5175532429
 20
10.1502906099
 30
0.0
 10
13.6057956876
 20
10.1809556349
 30
0.0
 10
13.6940711737
 20
10.2210925186
 30
0.0
 10
13.7515074376
 20
10.2533288121
 30
0.0
 10
13.7800758948
 20
10.270836026
 30
0.0
  0
SPLINE
  5
35A
100
AcDbEntity
  8
0
100
AcDbSpline
 62
7
  6
CONTINUOUS
 70
0
 71
3
 72
27
 73
23
 74
0
 42
0.0000001
 43
0.0000001
 44
0.0000000001
 40
0.0
 40
0.0
 40
0.0
 40
0.0
 40
0.1444708446
 40
0.2135041464
 40
0.2472408168
 40
0.2804680806
 40
0.3454405281
 40
0.4085888866
 40
0.470118683
 40
0.5302797359
 40
0.5599437047
 40
0.5893756464
 40
0.6476757068
 40
0.6766484388
 40
0.705552908
 40
0.7344315101
 40
0.7633262864
 40
0.7922793714
 40
0.821334023
 40
0.8798929069
 40
0.9393441445
 40
1.0
 40
1.0
 40
1.0
 40
1.0
 10
14.6986203085
 20
11.8930271515
 30
0.0
 10
14.6953003828
 20
11.9420355247
 30
0.0
 10
14.6859808152
 20
12.0143196234
 30
0.0
 10
14.6662120857
 20
12.0960933575
 30
0.0
 10
14.6527490585
 20
12.140342813
 30
0.0
 10
14.6379887441
 20
12.1827138357
 30
0.0
 10
14.6167633742
 20
12.2333783933
 30
0.0
 10
14.5866321598
 20
12.2904889639
 30
0.0
 10
14.5521178845
 20
12.3431268329
 30
0.0
 10
14.5196393452
 20
12.3831744621
 30
0.0
 10
14.4916467296
 20
12.4125344938
 30
0.0
 10
14.4625593518
 20
12.4398906417
 30
0.0
 10
14.4314222128
 20
12.4646484557
 30
0.0
 10
14.3984950613
 20
12.4864990264
 30
0.0
 10
14.3730025535
 20
12.5013734959
 30
0.0
 10
14.3467187198
 20
12.5147392215
 30
0.0
 10
14.319692214
 20
12.5265727703
 30
0.0
 10
14.2919709127
 20
12.5368477662
 30
0.0
 10
14.2540637033
 20
12.5484768476
 30
0.0
 10
14.2050759189
 20
12.5590577956
 30
0.0
 10
14.144542897
 20
12.5653151054
 30
0.0
 10
14.1036229292
 20
12.5652579472
 30
0.0
 10
14.0830256695
 20
12.5642229819
 30
0.0
  0
SPLINE
  5
35B
100
AcDbEntity
  8
0
100
AcDbSpline
 62
7
  6
CONTINUOUS
 70
0
 71
3
 72
23
 73
19
 74
0
 42
0.0000001
 43
0.0000001
 44
0.0000000001
 40
0.0
 40
0.0
 40
0.0
 40
0.0
 40
0.0608654574
 40
0.1208968063
 40
0.180333813
 40
0.2394105427
 40
0.2688928479
 40
0.2983716571
 40
0.3574238705
 40
0.4168198894
 40
0.4767888914
 40
0.5375575618
 40
0.5993284834
 40
0.6622950858
 40
0.7266260629
 40
0.7924640104
 40
0.8599287698
 40
1.0
 40
1.0
 40
1.0
 40
1.0
 10
12.9473097232
 20
10.3683963215
 30
0.0
 10
12.9584658255
 20
10.3549348448
 30
0.0
 10
12.9817713219
 20
10.3291200381
 30
0.0
 10
13.0197974736
 20
10.2938453302
 30
0.0
 10
13.0604890189
 20
10.2625091924
 30
0.0
 10
13.0965008897
 20
10.2397904805
 30
0.0
 10
13.1263952836
 20
10.2237689279
 30
0.0
 10
13.157009194
 20
10.2091854523
 30
0.0
 10
13.1966339596
 20
10.1936543781
 30
0.0
 10
13.2459559961
 20
10.1794677968
 30
0.0
 10
13.2968557451
 20
10.1697774838
 30
0.0
 10
13.3490884941
 20
10.1645723108
 30
0.0
 10
13.4024320608
 20
10.1638455006
 30
0.0
 10
13.456672849
 20
10.1675481462
 30
0.0
 10
13.5116131177
 20
10.1756188288
 30
0.0
 10
13.5670703346
 20
10.1879916574
 30
0.0
 10
13.6423848832
 20
10.2103796649
 30
0.0
 10
13.6977464448
 20
10.2330361523
 30
0.0
 10
13.7340600668
 20
10.2503618369
 30
0.0
  0
SPLINE
  5
35C
100
AcDbEntity
  8
0
100
AcDbSpline
 62
7
  6
CONTINUOUS
 70
0
 71
3
 72
25
 73
21
 74
0
 42
0.0000001
 43
0.0000001
 44
0.0000000001
 40
0.0
 40
0.0
 40
0.0
 40
0.0
 40
0.0709840655
 40
0.1401905281
 40
0.2076781194
 40
0.2735334843
 40
0.3378727221
 40
0.4008435987
 40
0.4626126645
 40
0.5233722049
 40
0.5833303139
 40
0.6130847109
 40
0.6427235901
 40
0.701754993
 40
0.73122242
 40
0.7606922137
 40
0.8197429633
 40
0.8791559961
 40
0.9391618154
 40
1.0
 40
1.0
 40
1.0
 40
1.0
 10
14.6639221247
 20
12.1071845094
 30
0.0
 10
14.6599344984
 20
12.1272334224
 30
0.0
 10
14.6509149272
 20
12.1666136016
 30
0.0
 10
14.633973226
 20
12.2240102337
 30
0.0
 10
14.6138177394
 20
12.278794074
 30
0.0
 10
14.5904738985
 20
12.3307683405
 30
0.0
 10
14.5639885385
 20
12.3797457937
 30
0.0
 10
14.5344092093
 20
12.4255296359
 30
0.0
 10
14.5018127866
 20
12.4679303287
 30
0.0
 10
14.4662874187
 20
12.5067439726
 30
0.0
 10
14.4342546972
 20
12.5360214756
 30
0.0
 10
14.4073381196
 20
12.5574122913
 30
0.0
 10
14.3796736309
 20
12.5773716398
 30
0.0
 10
14.3507042118
 20
12.5953231707
 30
0.0
 10
14.3206209119
 20
12.6111277876
 30
0.0
 10
14.2898154778
 20
12.6254899148
 30
0.0
 10
14.249958672
 20
12.64072532
 30
0.0
 10
14.2003770947
 20
12.6545306947
 30
0.0
 10
14.1492364667
 20
12.6638213365
 30
0.0
 10
14.1145287494
 20
12.6669861155
 30
0.0
 10
14.097029502
 20
12.6678358791
 30
0.0
  0
SPLINE
  5
35D
100
AcDbEntity
  8
0
100
AcDbSpline
 62
7
  6
CONTINUOUS
 70
0
 71
3
 72
28
 73
24
 74
0
 42
0.0000001
 43
0.0000001
 44
0.0000000001
 40
0.0
 40
0.0
 40
0.0
 40
0.0
 40
0.0605792337
 40
0.1199509879
 40
0.1784295182
 40
0.2074449934
 40
0.2363604545
 40
0.265219333
 40
0.294064084
 40
0.3229372373
 40
0.3518819982
 40
0.4101370537
 40
0.4395521596
 40
0.4692043597
 40
0.5293568647
 40
0.5908978937
 40
0.6540788457
 40
0.7191023234
 40
0.7523628754
 40
0.7861384249
 40
0.8552651449
 40
0.926549996
 40
1.0
 40
1.0
 40
1.0
 40
1.0
 10
13.0217977415
 20
10.4417671258
 30
0.0
 10
13.0333952001
 20
10.424568871
 30
0.0
 10
13.0580529299
 20
10.3916152319
 30
0.0
 10
13.0996597761
 20
10.346724248
 30
0.0
 10
13.1377886437
 20
10.3137553847
 30
0.0
 10
13.1700712191
 20
10.2903433756
 30
0.0
 10
13.1951092684
 20
10.2743029974
 30
0.0
 10
13.220984158
 20
10.2597714284
 30
0.0
 10
13.2476457233
 20
10.2467724889
 30
0.0
 10
13.2750456509
 20
10.235332462
 30
0.0
 10
13.3125647718
 20
10.2221661997
 30
0.0
 10
13.3513402622
 20
10.2122133942
 30
0.0
 10
13.390964042
 20
10.205500494
 30
0.0
 10
13.4315438928
 20
10.2008898773
 30
0.0
 10
13.4834415174
 20
10.199190893
 30
0.0
 10
13.5466951847
 20
10.2035409529
 30
0.0
 10
13.610887753
 20
10.2141438855
 30
0.0
 10
13.664491565
 20
10.2279790965
 30
0.0
 10
13.7075074045
 20
10.2419542845
 30
0.0
 10
13.7512502275
 20
10.2581222179
 30
0.0
 10
13.8059533179
 20
10.282044637
 30
0.0
 10
13.8708231379
 20
10.3161382919
 30
0.0
 10
13.9130862114
 20
10.3421005168
 30
0.0
 10
13.9340994639
 20
10.3559201997
 30
0.0
  0
SPLINE
  5
35E
100
AcDbEntity
  8
0
100
AcDbSpline
 62
9
  6
CONTINUOUS
 70
0
 71
3
 72
47
 73
43
 74
0
 42
0.0000001
 43
0.0000001
 44
0.0000000001
 40
0.0
 40
0.0
 40
0.0
 40
0.0
 40
0.0329286126
 40
0.0668304925
 40
0.1015992207
 40
0.1371323713
 40
0.173313895
 40
0.2100150532
 40
0.2471010465
 40
0.2844325367
 40
0.32186609
 40
0.3592572166
 40
0.3964618068
 40
0.4333385712
 40
0.4697501634
 40
0.505566256
 40
0.5406643738
 40
0.5749332612
 40
0.6082743006
 40
0.6406042148
 40
0.6718584594
 40
0.7019926582
 40
0.7309878021
 40
0.7588511886
 40
0.7856216725
 40
0.8113712509
 40
0.8238999053
 40
0.836216641
 40
0.8483407578
 40
0.8602933829
 40
0.8720975901
 40
0.8837785825
 40
0.8953629786
 40
0.9068785604
 40
0.9183541955
 40
0.9298192624
 40
0.9413032129
 40
0.952835363
 40
0.9644442819
 40
0.9761574416
 40
0.9880011466
 40
1.0
 40
1.0
 40
1.0
 40
1.0
 10
12.8652983336
 20
10.9446370404
 30
0.0
 10
12.865311234
 20
10.9740405908
 30
0.0
 10
12.8672564166
 20
11.0337300774
 30
0.0
 10
12.8756502904
 20
11.1241131509
 30
0.0
 10
12.8895630762
 20
11.2161656435
 30
0.0
 10
12.9088781982
 20
11.309312983
 30
0.0
 10
12.9334723174
 20
11.4029908901
 30
0.0
 10
12.9632045901
 20
11.4966208264
 30
0.0
 10
12.9978855321
 20
11.5896281493
 30
0.0
 10
13.0373066238
 20
11.6814389079
 30
0.0
 10
13.0812199636
 20
11.7714906081
 30
0.0
 10
13.1293592618
 20
11.8592268286
 30
0.0
 10
13.1814268995
 20
11.9441081225
 30
0.0
 10
13.2371008205
 20
12.0256131927
 30
0.0
 10
13.296042799
 20
12.1032377861
 30
0.0
 10
13.3578852012
 20
12.1765083954
 30
0.0
 10
13.4222539866
 20
12.244970103
 30
0.0
 10
13.4887501412
 20
12.3082057879
 30
0.0
 10
13.5569689598
 20
12.3658245907
 30
0.0
 10
13.6264938473
 20
12.41747158
 30
0.0
 10
13.6968987353
 20
12.4628317077
 30
0.0
 10
13.7677598708
 20
12.5016184507
 30
0.0
 10
13.8386429157
 20
12.5335973018
 30
0.0
 10
13.9091247264
 20
12.5585580236
 30
0.0
 10
13.9787701362
 20
12.5763431227
 30
0.0
 10
14.0362950374
 20
12.5851581927
 30
0.0
 10
14.0813751252
 20
12.5884154002
 30
0.0
 10
14.1143996272
 20
12.5889884019
 30
0.0
 10
14.1468898683
 20
12.587715271
 30
0.0
 10
14.1787964077
 20
12.5845969477
 30
0.0
 10
14.2100685713
 20
12.5796338284
 30
0.0
 10
14.2406576662
 20
12.5728361339
 30
0.0
 10
14.2705162093
 20
12.5642154309
 30
0.0
 10
14.2995963348
 20
12.5537819111
 30
0.0
 10
14.3278516182
 20
12.5415512597
 30
0.0
 10
14.3552388828
 20
12.5275459154
 30
0.0
 10
14.3817148336
 20
12.5117870559
 30
0.0
 10
14.4072357296
 20
12.4942965321
 30
0.0
 10
14.4317633131
 20
12.4751053052
 30
0.0
 10
14.4552604488
 20
12.4542442882
 30
0.0
 10
14.477687665
 20
12.4317451165
 30
0.0
 10
14.4918041696
 20
12.4157886732
 30
0.0
 10
14.4986706692
 20
12.407563794
 30
0.0
  0
SPLINE
  5
35F
100
AcDbEntity
  8
0
100
AcDbSpline
 62
9
  6
CONTINUOUS
 70
0
 71
3
 72
30
 73
26
 74
0
 42
0.0000001
 43
0.0000001
 44
0.0000000001
 40
0.0
 40
0.0
 40
0.0
 40
0.0
 40
0.057977035
 40
0.1146375656
 40
0.1426184819
 40
0.1704347082
 40
0.1981458533
 40
0.2258128561
 40
0.2534969247
 40
0.281259211
 40
0.3091600706
 40
0.3372578992
 40
0.3656089397
 40
0.3942670603
 40
0.4232823817
 40
0.4527009801
 40
0.5128954579
 40
0.5751612432
 40
0.60715049
 40
0.6397348907
 40
0.7067334626
 40
0.7762548816
 40
0.8483376581
 40
0.9229670709
 40
1.0
 40
1.0
 40
1.0
 40
1.0
 10
13.4135628056
 20
10.2026151019
 30
0.0
 10
13.3936557692
 20
10.2030540394
 30
0.0
 10
13.3543039552
 20
10.205973486
 30
0.0
 10
13.3060551686
 20
10.2150399084
 30
0.0
 10
13.2688433132
 20
10.2254550466
 30
0.0
 10
13.2417087053
 20
10.2347968649
 30
0.0
 10
13.2152761164
 20
10.2456903502
 30
0.0
 10
13.1895792713
 20
10.258117758
 30
0.0
 10
13.1646528539
 20
10.27206203
 30
0.0
 10
13.1405318243
 20
10.2875065833
 30
0.0
 10
13.1172490523
 20
10.3044303683
 30
0.0
 10
13.0948342356
 20
10.3228079693
 30
0.0
 10
13.073317388
 20
10.3426147926
 30
0.0
 10
13.0527295008
 20
10.363826027
 30
0.0
 10
13.033096533
 20
10.3864121473
 30
0.0
 10
13.0080371425
 20
10.4185570408
 30
0.0
 10
12.9792412703
 20
10.4621654708
 30
0.0
 10
12.9544202712
 20
10.5091365012
 30
0.0
 10
12.9367043882
 20
10.5489466822
 30
0.0
 10
12.920154298
 20
10.5910083461
 30
0.0
 10
12.9023514794
 20
10.6463642693
 30
0.0
 10
12.8857949667
 20
10.716135437
 30
0.0
 10
12.8739298081
 20
10.7895088287
 30
0.0
 10
12.8668416247
 20
10.8660779159
 30
0.0
 10
12.8653091207
 20
10.9181805317
 30
0.0
 10
12.8652983336
 20
10.9446370404
 30
0.0
  0
SPLINE
  5
360
100
AcDbEntity
  8
0
100
AcDbSpline
 62
9
  6
CONTINUOUS
 70
0
 71
3
 72
15
 73
11
 74
0
 42
0.0000001
 43
0.0000001
 44
0.0000000001
 40
0.0
 40
0.0
 40
0.0
 40
0.0
 40
0.1401598276
 40
0.2761165829
 40
0.4076132122
 40
0.5346135403
 40
0.6571746018
 40
0.7754221545
 40
0.8895811282
 40
1.0
 40
1.0
 40
1.0
 40
1.0
 10
12.8730218924
 20
10.9484988198
 30
0.0
 10
12.8730332528
 20
10.9231832443
 30
0.0
 10
12.8744507695
 20
10.8732980592
 30
0.0
 10
12.8809912051
 20
10.7999195065
 30
0.0
 10
12.8919427397
 20
10.7294651297
 30
0.0
 10
12.9072314005
 20
10.6622972776
 30
0.0
 10
12.9267831598
 20
10.5987373679
 30
0.0
 10
12.9505053864
 20
10.5390924332
 30
0.0
 10
12.9782974794
 20
10.4836724115
 30
0.0
 10
12.9997851778
 20
10.4491816755
 30
0.0
 10
13.0111649393
 20
10.4328031646
 30
0.0
  0
SPLINE
  5
361
100
AcDbEntity
  8
0
100
AcDbSpline
 62
9
  6
CONTINUOUS
 70
0
 71
3
 72
15
 73
11
 74
0
 42
0.0000001
 43
0.0000001
 44
0.0000000001
 40
0.0
 40
0.0
 40
0.0
 40
0.0
 40
0.1307551343
 40
0.2589359666
 40
0.3849572418
 40
0.5092837681
 40
0.6324162768
 40
0.7548828666
 40
0.8772285201
 40
1.0
 40
1.0
 40
1.0
 40
1.0
 10
13.0111649393
 20
10.4328031646
 30
0.0
 10
13.0193334778
 20
10.42104646
 30
0.0
 10
13.0363533447
 20
10.3983357615
 30
0.0
 10
13.0641332722
 20
10.3665855566
 30
0.0
 10
13.0938232559
 20
10.3376063921
 30
0.0
 10
13.1253389098
 20
10.3114800226
 30
0.0
 10
13.1585933942
 20
10.2882772151
 30
0.0
 10
13.1934999858
 20
10.2680698039
 30
0.0
 10
13.2299539257
 20
10.2509086761
 30
0.0
 10
13.2551499082
 20
10.2415598225
 30
0.0
 10
13.2679362669
 20
10.2374136066
 30
0.0
  0
SPLINE
  5
362
100
AcDbEntity
  8
0
100
AcDbSpline
 62
9
  6
CONTINUOUS
 70
0
 71
3
 72
43
 73
39
 74
0
 42
0.0000001
 43
0.0000001
 44
0.0000000001
 40
0.0
 40
0.0
 40
0.0
 40
0.0
 40
0.0113198126
 40
0.0226006211
 40
0.0338675735
 40
0.0451458878
 40
0.056460719
 40
0.0678368197
 40
0.0792980793
 40
0.0908674657
 40
0.1144078874
 40
0.1386238423
 40
0.1636459136
 40
0.1895750052
 40
0.216484449
 40
0.2444188718
 40
0.2733982586
 40
0.3034184399
 40
0.3344549097
 40
0.3664644134
 40
0.3993874373
 40
0.4331506411
 40
0.467668167
 40
0.5028445296
 40
0.538575047
 40
0.5747488045
 40
0.611248927
 40
0.6479552175
 40
0.6847447055
 40
0.7214937313
 40
0.7580787105
 40
0.7943784921
 40
0.8302752329
 40
0.8656553602
 40
0.900410538
 40
0.9344452115
 40
0.9676724969
 40
1.0
 40
1.0
 40
1.0
 40
1.0
 10
14.3949919695
 20
12.4893592408
 30
0.0
 10
14.3872216106
 20
12.4948568263
 30
0.0
 10
14.3713797386
 20
12.5053781521
 30
0.0
 10
14.34674439
 20
12.5196971812
 30
0.0
 10
14.3213261772
 20
12.5325003359
 30
0.0
 10
14.2951609165
 20
12.5437696774
 30
0.0
 10
14.2682829808
 20
12.553487346
 30
0.0
 10
14.2407299426
 20
12.5616404357
 30
0.0
 10
14.2125393025
 20
12.568220565
 30
0.0
 10
14.1739385648
 20
12.5749230247
 30
0.0
 10
14.1241309611
 20
12.5792601131
 30
0.0
 10
14.0628394178
 20
12.5780264481
 30
0.0
 10
13.9999943006
 20
12.5703990482
 30
0.0
 10
13.9359373914
 20
12.5564426924
 30
0.0
 10
13.8710101825
 20
12.5362341338
 30
0.0
 10
13.8055542346
 20
12.5098975117
 30
0.0
 10
13.7399175394
 20
12.4775741405
 30
0.0
 10
13.674445644
 20
12.4394439877
 30
0.0
 10
13.6094859982
 20
12.3957122348
 30
0.0
 10
13.5453841738
 20
12.3466136062
 30
0.0
 10
13.4824793427
 20
12.2924139752
 30
0.0
 10
13.4211102418
 20
12.2334005809
 30
0.0
 10
13.3616001167
 20
12.1698940726
 30
0.0
 10
13.3042727258
 20
12.1022300796
 30
0.0
 10
13.2494286849
 20
12.0307763241
 30
0.0
 10
13.1973684755
 20
11.9559111984
 30
0.0
 10
13.1483645968
 20
11.8780406685
 30
0.0
 10
13.1026859532
 20
11.7975788212
 30
0.0
 10
13.0605724865
 20
11.7149602287
 30
0.0
 10
13.0222543022
 20
11.6306263135
 30
0.0
 10
12.9879339068
 20
11.5450310218
 30
0.0
 10
12.9577967068
 20
11.4586326672
 30
0.0
 10
12.9320068282
 20
11.3718938862
 30
0.0
 10
12.9106987338
 20
11.2852821559
 30
0.0
 10
12.8939854682
 20
11.199260585
 30
0.0
 10
12.8819595328
 20
11.1142837297
 30
0.0
 10
12.8747112379
 20
11.0308160139
 30
0.0
 10
12.8730332148
 20
10.9756820836
 30
0.0
 10
12.8730218924
 20
10.9484988198
 30
0.0
  0
SPLINE
  5
363
100
AcDbEntity
  8
0
100
AcDbSpline
 62
9
  6
CONTINUOUS
 70
0
 71
3
 72
24
 73
20
 74
0
 42
0.0000001
 43
0.0000001
 44
0.0000000001
 40
0.0
 40
0.0
 40
0.0
 40
0.0
 40
0.056874564
 40
0.1127553318
 40
0.1680579525
 40
0.1956407517
 40
0.2232449192
 40
0.2787177915
 40
0.3349313823
 40
0.3922885607
 40
0.4511451558
 40
0.5118053378
 40
0.5745117186
 40
0.639448426
 40
0.7067325348
 40
0.7764334175
 40
0.8485801052
 40
0.9231460396
 40
1.0
 40
1.0
 40
1.0
 40
1.0
 10
13.6188001478
 20
10.309091888
 30
0.0
 10
13.603204286
 20
10.3106089379
 30
0.0
 10
13.5724127936
 20
10.3152259995
 30
0.0
 10
13.5275618813
 20
10.3270802488
 30
0.0
 10
13.491851579
 20
10.3409850388
 30
0.0
 10
13.4645207817
 20
10.3544215479
 30
0.0
 10
13.4379592664
 20
10.3694174084
 30
0.0
 10
13.4062020637
 20
10.3911202267
 30
0.0
 10
13.3708503896
 20
10.4215812249
 30
0.0
 10
13.3383561833
 20
10.456356811
 30
0.0
 10
13.3088716086
 20
10.4952573706
 30
0.0
 10
13.2825421331
 20
10.5380907267
 30
0.0
 10
13.2594803513
 20
10.5846373882
 30
0.0
 10
13.2398011237
 20
10.6346710732
 30
0.0
 10
13.2235819165
 20
10.6879421979
 30
0.0
 10
13.2109056729
 20
10.744198123
 30
0.0
 10
13.201822541
 20
10.8031710841
 30
0.0
 10
13.1963837082
 20
10.8645635033
 30
0.0
 10
13.1952099538
 20
10.9062925661
 30
0.0
 10
13.1952099538
 20
10.9274665476
 30
0.0
  0
SPLINE
  5
364
100
AcDbEntity
  8
0
100
AcDbSpline
 62
7
  6
CONTINUOUS
 70
0
 71
3
 72
51
 73
47
 74
0
 42
0.0000001
 43
0.0000001
 44
0.0000000001
 40
0.0
 40
0.0
 40
0.0
 40
0.0
 40
0.0167181621
 40
0.0337492755
 40
0.0686580521
 40
0.1045714831
 40
0.1413368537
 40
0.1787729182
 40
0.2166842971
 40
0.2548684199
 40
0.2931168654
 40
0.3312201094
 40
0.3689711677
 40
0.4061700782
 40
0.4245049484
 40
0.4426320364
 40
0.4781734391
 40
0.512644522
 40
0.5294396571
 40
0.5459209475
 40
0.5778903525
 40
0.6084947285
 40
0.6232802599
 40
0.6377203524
 40
0.6655762084
 40
0.6921535214
 40
0.7175943158
 40
0.7299574177
 40
0.7421181318
 40
0.7541112599
 40
0.765974201
 40
0.777746929
 40
0.7894712064
 40
0.8011895735
 40
0.8129448563
 40
0.824779014
 40
0.8367325331
 40
0.8488438714
 40
0.861148256
 40
0.8736778267
 40
0.8864614038
 40
0.912873067
 40
0.9265513188
 40
0.9405586288
 40
0.9695843721
 40
1.0
 40
1.0
 40
1.0
 40
1.0
 10
12.9782511756
 20
10.9339383172
 30
0.0
 10
12.9782511756
 20
10.9504619098
 30
0.0
 10
12.978896703
 20
10.9838218052
 30
0.0
 10
12.9827039731
 20
11.0515858296
 30
0.0
 10
12.9922301523
 20
11.1379693968
 30
0.0
 10
13.0109231106
 20
11.2427221764
 30
0.0
 10
13.036803016
 20
11.3485061129
 30
0.0
 10
13.0696408658
 20
11.4544054733
 30
0.0
 10
13.1091535036
 20
11.5594967998
 30
0.0
 10
13.1549971327
 20
11.662862251
 30
0.0
 10
13.2067681254
 20
11.7636026431
 30
0.0
 10
13.2640173236
 20
11.8608391387
 30
0.0
 10
13.3262461154
 20
11.9537198218
 30
0.0
 10
13.3820688276
 20
12.0271767523
 30
0.0
 10
13.4287755033
 20
12.0830371861
 30
0.0
 10
13.47612976
 20
12.1361740943
 30
0.0
 10
13.5371996346
 20
12.1983904765
 30
0.0
 10
13.6013912183
 20
12.2554331068
 30
0.0
 10
13.6538349874
 20
12.2970875384
 30
0.0
 10
13.7058236982
 20
12.3352629502
 30
0.0
 10
13.7714738933
 20
12.377798159
 30
0.0
 10
13.8390533549
 20
12.4137983996
 30
0.0
 10
13.8931076503
 20
12.4378296346
 30
0.0
 10
13.9457390662
 20
12.4581979962
 30
0.0
 10
14.0110497684
 20
12.4778896396
 30
0.0
 10
14.08889793
 20
12.4920225696
 30
0.0
 10
14.1526320446
 20
12.4955359796
 30
0.0
 10
14.201994099
 20
12.4932068245
 30
0.0
 10
14.2378697839
 20
12.4889843184
 30
0.0
 10
14.2728628949
 20
12.4822830615
 30
0.0
 10
14.3068963668
 20
12.4731136562
 30
0.0
 10
14.3398916859
 20
12.4614927372
 30
0.0
 10
14.371776462
 20
12.4474518641
 30
0.0
 10
14.4024779163
 20
12.4310195998
 30
0.0
 10
14.4319245642
 20
12.4122302044
 30
0.0
 10
14.4600537282
 20
12.391132026
 30
0.0
 10
14.4868016805
 20
12.3677709304
 30
0.0
 10
14.5121063207
 20
12.3421973574
 30
0.0
 10
14.5359164718
 20
12.3144744537
 30
0.0
 10
14.5581801423
 20
12.2846614211
 30
0.0
 10
14.5860302955
 20
12.2417558314
 30
0.0
 10
14.610252847
 20
12.1952797373
 30
0.0
 10
14.6308413508
 20
12.1459146638
 30
0.0
 10
14.6495650599
 20
12.0930549531
 30
0.0
 10
14.668346739
 20
12.02280055
 30
0.0
 10
14.6780915165
 20
11.9647729987
 30
0.0
 10
14.6818109385
 20
11.9349423372
 30
0.0
  0
SPLINE
  5
365
100
AcDbEntity
  8
0
100
AcDbSpline
 62
7
  6
CONTINUOUS
 70
0
 71
3
 72
37
 73
33
 74
0
 42
0.0000001
 43
0.0000001
 44
0.0000000001
 40
0.0
 40
0.0
 40
0.0
 40
0.0
 40
0.0703193007
 40
0.1041830573
 40
0.1371870324
 40
0.16935184
 40
0.2007100257
 40
0.2313034951
 40
0.2611863049
 40
0.2904244976
 40
0.3190940101
 40
0.3472824427
 40
0.3750867546
 40
0.4026113906
 40
0.429967625
 40
0.457270028
 40
0.4846346266
 40
0.5121759459
 40
0.5400044103
 40
0.5682247986
 40
0.5969327096
 40
0.6262146919
 40
0.6561471507
 40
0.6867941638
 40
0.7182097478
 40
0.7504355799
 40
0.7835004095
 40
0.8174243848
 40
0.8522199661
 40
0.9244170938
 40
0.9618068458
 40
1.0
 40
1.0
 40
1.0
 40
1.0
 10
13.8738540663
 20
10.3343059063
 30
0.0
 10
13.8457528866
 20
10.3186664431
 30
0.0
 10
13.8030016029
 20
10.2973910181
 30
0.0
 10
13.7447739784
 20
10.2739625396
 30
0.0
 10
13.7018662836
 20
10.2593820822
 30
0.0
 10
13.6592900352
 20
10.2476181403
 30
0.0
 10
13.6171529521
 20
10.2386946237
 30
0.0
 10
13.5755611324
 20
10.2326404127
 30
0.0
 10
13.5346206562
 20
10.2294743175
 30
0.0
 10
13.4944365605
 20
10.229200262
 30
0.0
 10
13.455111858
 20
10.2318277633
 30
0.0
 10
13.4167489775
 20
10.2373505593
 30
0.0
 10
13.3794467904
 20
10.2457516509
 30
0.0
 10
13.3433049724
 20
10.2570185219
 30
0.0
 10
13.3084180679
 20
10.2711179578
 30
0.0
 10
13.2748767
 20
10.2880116047
 30
0.0
 10
13.2427731594
 20
10.3076616822
 30
0.0
 10
13.2121883084
 20
10.3300094534
 30
0.0
 10
13.1832015855
 20
10.354996367
 30
0.0
 10
13.1558919463
 20
10.3825598514
 30
0.0
 10
13.1303233566
 20
10.412621024
 30
0.0
 10
13.1065625421
 20
10.445103428
 30
0.0
 10
13.0846715938
 20
10.4799236298
 30
0.0
 10
13.064698845
 20
10.5169881652
 30
0.0
 10
13.0466984604
 20
10.5562044845
 30
0.0
 10
13.0307148317
 20
10.5974709485
 30
0.0
 10
13.0167820671
 20
10.6406788898
 30
0.0
 10
13.0049395156
 20
10.6857215523
 30
0.0
 10
12.9918129368
 20
10.7488412285
 30
0.0
 10
12.9832405359
 20
10.8144342457
 30
0.0
 10
12.9789585073
 20
10.8818974485
 30
0.0
 10
12.9782511756
 20
10.9164709375
 30
0.0
 10
12.9782511756
 20
10.9339383172
 30
0.0
  0
SPLINE
  5
366
100
AcDbEntity
  8
0
100
AcDbSpline
 62
9
  6
CONTINUOUS
 70
0
 71
3
 72
35
 73
31
 74
0
 42
0.0000001
 43
0.0000001
 44
0.0000000001
 40
0.0
 40
0.0
 40
0.0
 40
0.0
 40
0.0234231305
 40
0.047521597
 40
0.0723500667
 40
0.0979482955
 40
0.1515174365
 40
0.1795266051
 40
0.208333253
 40
0.23791557
 40
0.268243844
 40
0.2992793049
 40
0.3309762096
 40
0.3632825442
 40
0.3961400893
 40
0.4294865509
 40
0.463254537
 40
0.4973739604
 40
0.5317713078
 40
0.566371133
 40
0.6010964518
 40
0.6705990316
 40
0.7396650019
 40
0.8076837598
 40
0.8411239911
 40
0.8740873547
 40
0.9065124834
 40
0.9383454949
 40
0.9695296396
 40
1.0
 40
1.0
 40
1.0
 40
1.0
 10
14.0830256187
 20
12.5642229
 30
0.0
 10
14.0661132256
 20
12.5633733825
 30
0.0
 10
14.0318595402
 20
12.5601970025
 30
0.0
 10
13.9802724109
 20
12.551274656
 30
0.0
 10
13.9279642254
 20
12.5381603947
 30
0.0
 10
13.8564480067
 20
12.5148084648
 30
0.0
 10
13.7853424242
 20
12.4834284615
 30
0.0
 10
13.7153467257
 20
12.4450465972
 30
0.0
 10
13.6622879802
 20
12.4120257803
 30
0.0
 10
13.6096498248
 20
12.3753336867
 30
0.0
 10
13.5576196305
 20
12.3350939872
 30
0.0
 10
13.5063819964
 20
12.2914564307
 30
0.0
 10
13.4561215695
 20
12.2445759935
 30
0.0
 10
13.4070194663
 20
12.1946210846
 30
0.0
 10
13.3592492035
 20
12.1417735825
 30
0.0
 10
13.3129869061
 20
12.0862200163
 30
0.0
 10
13.268393186
 20
12.0281646259
 30
0.0
 10
13.225634498
 20
11.9678118008
 30
0.0
 10
13.18485919
 20
11.9053830067
 30
0.0
 10
13.14621763
 20
11.8410988858
 30
0.0
 10
13.0977155561
 20
11.7532100927
 30
0.0
 10
13.0432650493
 20
11.6402411943
 30
0.0
 10
12.9884417176
 20
11.5011757463
 30
0.0
 10
12.9519367662
 20
11.3832833323
 30
0.0
 10
12.9287190885
 20
11.2888949921
 30
0.0
 10
12.9144576187
 20
11.2188635548
 30
0.0
 10
12.903302539
 20
11.1494473993
 30
0.0
 10
12.8952937841
 20
11.0808911514
 30
0.0
 10
12.8904643517
 20
11.013455076
 30
0.0
 10
12.8893560802
 20
10.9688755731
 30
0.0
 10
12.8893560802
 20
10.9468470737
 30
0.0
  0
SPLINE
  5
367
100
AcDbEntity
  8
0
100
AcDbSpline
 62
9
  6
CONTINUOUS
 70
0
 71
3
 72
44
 73
40
 74
0
 42
0.0000001
 43
0.0000001
 44
0.0000000001
 40
0.0
 40
0.0
 40
0.0
 40
0.0
 40
0.0328284575
 40
0.0666236337
 40
0.1012725802
 40
0.1366765536
 40
0.1727264455
 40
0.2092964868
 40
0.2462552636
 40
0.2834673034
 40
0.3207936919
 40
0.358093516
 40
0.3952266184
 40
0.4320546772
 40
0.4684437877
 40
0.5042654083
 40
0.5393993561
 40
0.5737349242
 40
0.607173711
 40
0.6396317559
 40
0.6710416683
 40
0.7013564238
 40
0.7305505223
 40
0.7586254409
 40
0.7856099062
 40
0.8115657646
 40
0.8365872851
 40
0.8608045358
 40
0.8843803897
 40
0.8959926113
 40
0.9075187697
 40
0.9189864732
 40
0.9304239677
 40
0.9418598662
 40
0.9533229328
 40
0.9648414696
 40
0.9764429896
 40
0.988154106
 40
1.0
 40
1.0
 40
1.0
 40
1.0
 10
13.1952099538
 20
10.9274665476
 30
0.0
 10
13.1952099538
 20
10.9517509751
 30
0.0
 10
13.1967987256
 20
11.0010463092
 30
0.0
 10
13.2036626756
 20
11.0756858658
 30
0.0
 10
13.2150177036
 20
11.1517024643
 30
0.0
 10
13.2307854968
 20
11.2286275114
 30
0.0
 10
13.2508731386
 20
11.3060065571
 30
0.0
 10
13.2751594187
 20
11.3833769329
 30
0.0
 10
13.3034990182
 20
11.4602721479
 30
0.0
 10
13.33572246
 20
11.5362297409
 30
0.0
 10
13.3716326832
 20
11.610795269
 30
0.0
 10
13.4110190854
 20
11.6835181488
 30
0.0
 10
13.4536388734
 20
11.753964537
 30
0.0
 10
13.4992426917
 20
11.8217072526
 30
0.0
 10
13.5475499948
 20
11.8863436942
 30
0.0
 10
13.5982771855
 20
11.9474812198
 30
0.0
 10
13.651114871
 20
12.0047568338
 30
0.0
 10
13.7057506075
 20
12.0578233896
 30
0.0
 10
13.7618553827
 20
12.1063645372
 30
0.0
 10
13.8190951395
 20
12.1500881458
 30
0.0
 10
13.8771299836
 20
12.188730087
 30
0.0
 10
13.9356130802
 20
12.2220605467
 30
0.0
 10
13.994201361
 20
12.2498715763
 30
0.0
 10
14.0525447423
 20
12.2719995611
 30
0.0
 10
14.1103025092
 20
12.2882953576
 30
0.0
 10
14.1671288178
 20
12.2986615042
 30
0.0
 10
14.2226880755
 20
12.3030106017
 30
0.0
 10
14.2766368654
 20
12.3013123951
 30
0.0
 10
14.3202130889
 20
12.2948047527
 30
0.0
 10
14.3537952909
 20
12.2865797982
 30
0.0
 10
14.3782503596
 20
12.2789530401
 30
0.0
 10
14.4020568555
 20
12.2698518776
 30
0.0
 10
14.4251799346
 20
12.2592914495
 30
0.0
 10
14.4475831117
 20
12.2472863069
 30
0.0
 10
14.4692307253
 20
12.2338530616
 30
0.0
 10
14.4900912174
 20
12.2190156294
 30
0.0
 10
14.5101333622
 20
12.2027969322
 30
0.0
 10
14.5293241151
 20
12.1852206575
 30
0.0
 10
14.5414554973
 20
12.1726942098
 30
0.0
 10
14.5473668814
 20
12.1662255912
 30
0.0
  0
SPLINE
  5
368
100
AcDbEntity
  8
0
100
AcDbSpline
 62
9
  6
CONTINUOUS
 70
0
 71
3
 72
57
 73
53
 74
0
 42
0.0000001
 43
0.0000001
 44
0.0000000001
 40
0.0
 40
0.0
 40
0.0
 40
0.0
 40
0.0337265433
 40
0.0510583705
 40
0.0686703053
 40
0.0865414734
 40
0.1046510633
 40
0.1414908914
 40
0.1789944622
 40
0.2169454324
 40
0.2551201685
 40
0.2932897691
 40
0.3312241677
 40
0.3686992445
 40
0.3871993915
 40
0.4055055244
 40
0.4414331055
 40
0.4763075263
 40
0.4933031881
 40
0.5099804721
 40
0.5423172781
 40
0.5579632604
 40
0.5732493604
 40
0.5881720024
 40
0.6027320057
 40
0.6307724552
 40
0.6442834799
 40
0.6574719678
 40
0.6703581804
 40
0.6829675019
 40
0.6953298437
 40
0.7074788116
 40
0.7194522684
 40
0.7312916484
 40
0.7430407344
 40
0.7547454072
 40
0.7664525338
 40
0.7782087746
 40
0.7900600023
 40
0.802049782
 40
0.8142187816
 40
0.8266046803
 40
0.8392409392
 40
0.8521567001
 40
0.8789102995
 40
0.8927955989
 40
0.9070318586
 40
0.9365777692
 40
0.9519051251
 40
0.967596235
 40
0.9836347619
 40
1.0
 40
1.0
 40
1.0
 40
1.0
 10
13.4985124561
 20
10.9494100112
 30
0.0
 10
13.4985240186
 20
10.9731209578
 30
0.0
 10
13.4999887944
 20
11.0090329022
 30
0.0
 10
13.5045987071
 20
11.0570963138
 30
0.0
 10
13.5094770884
 20
11.093913959
 30
0.0
 10
13.5157290579
 20
11.1310767388
 30
0.0
 10
13.5259289516
 20
11.1812541468
 30
0.0
 10
13.5420420561
 20
11.2442741886
 30
0.0
 10
13.5663998039
 20
11.3194214311
 30
0.0
 10
13.5956701193
 20
11.3938047154
 30
0.0
 10
13.6295673755
 20
11.4667115345
 30
0.0
 10
13.6677653133
 20
11.5374476138
 30
0.0
 10
13.7099034923
 20
11.6053303185
 30
0.0
 10
13.7481276171
 20
11.6592189442
 30
0.0
 10
13.7803467761
 20
11.7003277886
 30
0.0
 10
13.8131787622
 20
11.7395397847
 30
0.0
 10
13.8557507678
 20
11.7855663457
 30
0.0
 10
13.9007558501
 20
11.8278937646
 30
0.0
 10
13.9376744808
 20
11.8588854875
 30
0.0
 10
13.974350089
 20
11.8873334057
 30
0.0
 10
14.011918995
 20
11.9130405901
 30
0.0
 10
14.0502218828
 20
11.9356785641
 30
0.0
 10
14.078706768
 20
11.9507993665
 30
0.0
 10
14.1071975623
 20
11.9642071934
 30
0.0
 10
14.1446206278
 20
11.9795658201
 30
0.0
 10
14.1822704497
 20
11.9916673565
 30
0.0
 10
14.2198291175
 20
12.0001442363
 30
0.0
 10
14.2473204891
 20
12.0045949984
 30
0.0
 10
14.2744114834
 20
12.0071994779
 30
0.0
 10
14.3010374561
 20
12.0079510512
 30
0.0
 10
14.3271337682
 20
12.0068505448
 30
0.0
 10
14.3526369959
 20
12.0038957754
 30
0.0
 10
14.3774838722
 20
11.999091101
 30
0.0
 10
14.4016141022
 20
11.9924522981
 30
0.0
 10
14.4249676918
 20
11.9839926132
 30
0.0
 10
14.4474847916
 20
11.9737291159
 30
0.0
 10
14.4691115247
 20
11.9616922655
 30
0.0
 10
14.489794426
 20
11.9479110995
 30
0.0
 10
14.509479312
 20
11.9324161476
 30
0.0
 10
14.5281210451
 20
11.9152509476
 30
0.0
 10
14.5456755443
 20
11.8964588536
 30
0.0
 10
14.5620968215
 20
11.8760836022
 30
0.0
 10
14.5773486074
 20
11.8541764231
 30
0.0
 10
14.5962973235
 20
11.8226358311
 30
0.0
 10
14.6124937423
 20
11.7885215028
 30
0.0
 10
14.625982925
 20
11.7523625988
 30
0.0
 10
14.6380348334
 20
11.7136338832
 30
0.0
 10
14.6471908062
 20
11.6730132432
 30
0.0
 10
14.6535769273
 20
11.630905671
 30
0.0
 10
14.6570303839
 20
11.5979913806
 30
0.0
 10
14.6591043225
 20
11.5642334638
 30
0.0
 10
14.6595694121
 20
11.5414500114
 30
0.0
 10
14.6595817908
 20
11.5299446786
 30
0.0
  0
SPLINE
  5
369
100
AcDbEntity
  8
0
100
AcDbSpline
 62
9
  6
CONTINUOUS
 70
0
 71
3
 72
10
 73
6
 74
0
 42
0.0000001
 43
0.0000001
 44
0.0000000001
 40
0.0
 40
0.0
 40
0.0
 40
0.0
 40
0.241174171
 40
0.4886674629
 40
1.0
 40
1.0
 40
1.0
 40
1.0
 10
14.6595817908
 20
11.5299446786
 30
0.0
 10
14.6595738159
 20
11.5135906518
 30
0.0
 10
14.6586344578
 20
11.4804473642
 30
0.0
 10
14.6531788113
 20
11.4128367599
 30
0.0
 10
14.6451308929
 20
11.361905102
 30
0.0
 10
14.6381747234
 20
11.3279365623
 30
0.0
  0
SPLINE
  5
36A
100
AcDbEntity
  8
0
100
AcDbSpline
 62
9
  6
CONTINUOUS
 70
0
 71
3
 72
39
 73
35
 74
0
 42
0.0000001
 43
0.0000001
 44
0.0000000001
 40
0.0
 40
0.0
 40
0.0
 40
0.0
 40
0.0397626013
 40
0.0787875223
 40
0.1169971818
 40
0.1543236271
 40
0.2260795784
 40
0.2604549247
 40
0.2937880068
 40
0.3260754382
 40
0.3573312754
 40
0.3875872223
 40
0.4023595109
 40
0.4169038617
 40
0.4453426228
 40
0.4730067713
 40
0.5000142448
 40
0.526502507
 40
0.5526267843
 40
0.5785538866
 40
0.6044584469
 40
0.6305153954
 40
0.6568947509
 40
0.6837540374
 40
0.7112361655
 40
0.7394643283
 40
0.7685415569
 40
0.7985485384
 40
0.8295407143
 40
0.8615561071
 40
0.8946185824
 40
0.9287388361
 40
0.9638896448
 40
1.0
 40
1.0
 40
1.0
 40
1.0
 10
14.3437129269
 20
10.7391927129
 30
0.0
 10
14.3328052905
 20
10.7268958445
 30
0.0
 10
14.3106628829
 20
10.7029931951
 30
0.0
 10
14.2762234448
 20
10.6690131007
 30
0.0
 10
14.2409767019
 20
10.6373523138
 30
0.0
 10
14.1937295835
 20
10.5989194076
 30
0.0
 10
14.1449050651
 20
10.5650110433
 30
0.0
 10
14.0948475755
 20
10.5363513584
 30
0.0
 10
14.0577637925
 20
10.5180239696
 30
0.0
 10
14.0207583844
 20
10.502635276
 30
0.0
 10
13.9839817936
 20
10.4902449167
 30
0.0
 10
13.95340167
 20
10.4824062625
 30
0.0
 10
13.9292187366
 20
10.4777204929
 30
0.0
 10
13.9056085993
 20
10.4741341898
 30
0.0
 10
13.8764781609
 20
10.4715591116
 30
0.0
 10
13.8420742881
 20
10.4715879981
 30
0.0
 10
13.8086219136
 20
10.47476097
 30
0.0
 10
13.7762639795
 20
10.4810776547
 30
0.0
 10
13.7451355407
 20
10.4905045779
 30
0.0
 10
13.7153730098
 20
10.5030144647
 30
0.0
 10
13.687102857
 20
10.5185483443
 30
0.0
 10
13.6604456264
 20
10.5370399766
 30
0.0
 10
13.6355180805
 20
10.5584123286
 30
0.0
 10
13.6124162146
 20
10.5825639492
 30
0.0
 10
13.5912411808
 20
10.6093977108
 30
0.0
 10
13.5720711341
 20
10.6387947062
 30
0.0
 10
13.5549843314
 20
10.6706349456
 30
0.0
 10
13.5400486315
 20
10.704785649
 30
0.0
 10
13.527311002
 20
10.7411015698
 30
0.0
 10
13.5168260176
 20
10.7794386866
 30
0.0
 10
13.50863496
 20
10.8196484154
 30
0.0
 10
13.502789996
 20
10.8615726018
 30
0.0
 10
13.4992993357
 20
10.9050180983
 30
0.0
 10
13.4985285169
 20
10.9344823779
 30
0.0
 10
13.4985124561
 20
10.9494100112
 30
0.0
  0
SPLINE
  5
36B
100
AcDbEntity
  8
0
100
AcDbSpline
 62
9
  6
CONTINUOUS
 70
0
 71
3
 72
50
 73
46
 74
0
 42
0.0000001
 43
0.0000001
 44
0.0000000001
 40
0.0
 40
0.0
 40
0.0
 40
0.0
 40
0.0333184111
 40
0.0503748454
 40
0.0676738751
 40
0.0852011413
 40
0.1029425742
 40
0.1390041257
 40
0.1757277386
 40
0.2129663555
 40
0.2505660981
 40
0.2883679841
 40
0.3262093083
 40
0.3639271563
 40
0.4013603377
 40
0.4383519149
 40
0.4747518741
 40
0.5104190731
 40
0.5452250024
 40
0.5622705794
 40
0.579059613
 40
0.6118183015
 40
0.6434308269
 40
0.6738469421
 40
0.7030463042
 40
0.7171955131
 40
0.731048253
 40
0.7578868405
 40
0.7836595355
 40
0.79619087
 40
0.8085090114
 40
0.8206371318
 40
0.8326006373
 40
0.8444274847
 40
0.8561474908
 40
0.867791871
 40
0.8793931384
 40
0.8909844326
 40
0.9025989746
 40
0.9142697648
 40
0.926028814
 40
0.9379068095
 40
0.9499329547
 40
0.9745236691
 40
1.0
 40
1.0
 40
1.0
 40
1.0
 10
12.7422617537
 20
10.9474654676
 30
0.0
 10
12.7422759643
 20
10.9805742854
 30
0.0
 10
12.744000454
 20
11.0306490258
 30
0.0
 10
12.7494723828
 20
11.097680854
 30
0.0
 10
12.7552586231
 20
11.1489204229
 30
0.0
 10
12.7626830791
 20
11.2006349696
 30
0.0
 10
12.7748082657
 20
11.2704803217
 30
0.0
 10
12.7940114699
 20
11.3584167483
 30
0.0
 10
12.8231630515
 20
11.4638436803
 30
0.0
 10
12.8583627584
 20
11.5690214085
 30
0.0
 10
12.899360181
 20
11.673227615
 30
0.0
 10
12.9458752058
 20
11.7757480954
 30
0.0
 10
12.9975913052
 20
11.8758776367
 30
0.0
 10
13.0541486703
 20
11.9729312642
 30
0.0
 10
13.1151642898
 20
12.0662399659
 30
0.0
 10
13.1802161896
 20
12.1551653203
 30
0.0
 10
13.2488591516
 20
12.239098039
 30
0.0
 10
13.3206246769
 20
12.3174576311
 30
0.0
 10
13.3830510901
 20
12.3780910289
 30
0.0
 10
13.4341508995
 20
12.4232865837
 30
0.0
 10
13.4850944665
 20
12.4655361719
 30
0.0
 10
13.5496639868
 20
12.5139697217
 30
0.0
 10
13.6288565559
 20
12.5651170607
 30
0.0
 10
13.7085852233
 20
12.6084516658
 30
0.0
 10
13.7757218843
 20
12.6381179427
 30
0.0
 10
13.8291624931
 20
12.6575378788
 30
0.0
 10
13.8812052467
 20
12.6737589376
 30
0.0
 10
13.9456222158
 20
12.6888541432
 30
0.0
 10
14.0099923169
 20
12.6969307423
 30
0.0
 10
14.0602836905
 20
12.698865891
 30
0.0
 10
14.0970435972
 20
12.6981089715
 30
0.0
 10
14.1331269082
 20
12.6951585556
 30
0.0
 10
14.1684712987
 20
12.6900144097
 30
0.0
 10
14.2030145109
 20
12.6826864162
 30
0.0
 10
14.236696849
 20
12.6731896827
 30
0.0
 10
14.2694581528
 20
12.6615368926
 30
0.0
 10
14.3012397791
 20
12.6477471702
 30
0.0
 10
14.3319874358
 20
12.6318488308
 30
0.0
 10
14.3616464582
 20
12.613868257
 30
0.0
 10
14.3901624842
 20
12.593834229
 30
0.0
 10
14.4174880364
 20
12.5717867597
 30
0.0
 10
14.4435766503
 20
12.5477638608
 30
0.0
 10
14.4768876007
 20
12.5129018531
 30
0.0
 10
14.515240996
 20
12.4643639975
 30
0.0
 10
14.5413909565
 20
12.4218993443
 30
0.0
 10
14.5535080078
 20
12.3996714216
 30
0.0
  0
SPLINE
  5
36C
100
AcDbEntity
  8
0
100
AcDbSpline
 62
9
  6
CONTINUOUS
 70
0
 71
3
 72
32
 73
28
 74
0
 42
0.0000001
 43
0.0000001
 44
0.0000000001
 40
0.0
 40
0.0
 40
0.0
 40
0.0
 40
0.0617767783
 40
0.1213287827
 40
0.150407972
 40
0.1790912871
 40
0.2074437629
 40
0.2355349707
 40
0.2634377583
 40
0.2912280579
 40
0.3189835219
 40
0.3467820811
 40
0.3747013285
 40
0.4028168492
 40
0.4312011899
 40
0.4599236081
 40
0.489048388
 40
0.5186340225
 40
0.5487339734
 40
0.5793958372
 40
0.6425406527
 40
0.7083468783
 40
0.776963583
 40
0.8123584187
 40
0.8484780035
 40
0.9228677598
 40
1.0
 40
1.0
 40
1.0
 40
1.0
 10
13.4603474486
 20
10.1681256104
 30
0.0
 10
13.4353780338
 20
10.163620483
 30
0.0
 10
13.3858422711
 20
10.1572655422
 30
0.0
 10
13.3239247421
 20
10.1563512927
 30
0.0
 10
13.2758557116
 20
10.1600260254
 30
0.0
 10
13.2408015018
 20
10.1649089834
 30
0.0
 10
13.2065269642
 20
10.1719327072
 30
0.0
 10
13.1730890419
 20
10.1810822684
 30
0.0
 10
13.1405461571
 20
10.192345155
 30
0.0
 10
13.1089556642
 20
10.2057045747
 30
0.0
 10
13.0783704537
 20
10.2211332567
 30
0.0
 10
13.0488432467
 20
10.2386053397
 30
0.0
 10
13.0204274388
 20
10.258094262
 30
0.0
 10
12.9931696757
 20
10.2795624693
 30
0.0
 10
12.9671154033
 20
10.302971865
 30
0.0
 10
12.9423117785
 20
10.3282850453
 30
0.0
 10
12.918799741
 20
10.3554568039
 30
0.0
 10
12.8966163552
 20
10.3844379225
 30
0.0
 10
12.8758002166
 20
10.4151814191
 30
0.0
 10
12.8496647126
 20
10.4588736455
 30
0.0
 10
12.8206545706
 20
10.5178065957
 30
0.0
 10
12.7921959867
 20
10.5939206792
 30
0.0
 10
12.7738006994
 20
10.6612977745
 30
0.0
 10
12.7621370218
 20
10.7176701659
 30
0.0
 10
12.7523751504
 20
10.7768099549
 30
0.0
 10
12.744327455
 20
10.8535324818
 30
0.0
 10
12.7422745044
 20
10.9157861881
 30
0.0
 10
12.7422617537
 20
10.9474654676
 30
0.0
  0
SPLINE
  5
36D
100
AcDbEntity
  8
0
100
AcDbSpline
 62
9
  6
CONTINUOUS
 70
0
 71
3
 72
16
 73
12
 74
0
 42
0.0000001
 43
0.0000001
 44
0.0000000001
 40
0.0
 40
0.0
 40
0.0
 40
0.0
 40
0.142101635
 40
0.2793715678
 40
0.3461083793
 40
0.411563665
 40
0.5386268775
 40
0.6606941807
 40
0.7779893735
 40
0.8909064522
 40
1.0
 40
1.0
 40
1.0
 40
1.0
 10
12.7547076972
 20
10.9536884393
 30
0.0
 10
12.7547201777
 20
10.9236464254
 30
0.0
 10
12.756593769
 20
10.8645652915
 30
0.0
 10
12.763916253
 20
10.7916945266
 30
0.0
 10
12.7727981314
 20
10.7354103988
 30
0.0
 10
12.7834228739
 20
10.6816290993
 30
0.0
 10
12.8001872151
 20
10.6171843902
 30
0.0
 10
12.8261274747
 20
10.5440808613
 30
0.0
 10
12.857564367
 20
10.4764311192
 30
0.0
 10
12.8942995261
 20
10.4146719498
 30
0.0
 10
12.9226345196
 20
10.37710438
 30
0.0
 10
12.9375868569
 20
10.3595441383
 30
0.0
  0
SPLINE
  5
36E
100
AcDbEntity
  8
0
100
AcDbSpline
 62
9
  6
CONTINUOUS
 70
0
 71
3
 72
15
 73
11
 74
0
 42
0.0000001
 43
0.0000001
 44
0.0000000001
 40
0.0
 40
0.0
 40
0.0
 40
0.0
 40
0.1286152443
 40
0.2552690984
 40
0.3803976692
 40
0.5044652067
 40
0.6279593381
 40
0.7513804017
 40
0.8752295636
 40
1.0
 40
1.0
 40
1.0
 40
1.0
 10
12.9375868569
 20
10.3595441383
 30
0.0
 10
12.9467356665
 20
10.3487996436
 30
0.0
 10
12.9656739648
 20
10.3281229521
 30
0.0
 10
12.996142012
 20
10.2995393415
 30
0.0
 10
13.0283506105
 20
10.2737170867
 30
0.0
 10
13.0622194488
 20
10.2507248441
 30
0.0
 10
13.0976665658
 20
10.2306255414
 30
0.0
 10
13.1345994503
 20
10.2134633375
 30
0.0
 10
13.1729242768
 20
10.1992865233
 30
0.0
 10
13.1992145814
 20
10.1918845036
 30
0.0
 10
13.2125265119
 20
10.188689362
 30
0.0
  0
SPLINE
  5
36F
100
AcDbEntity
  8
0
100
AcDbSpline
 62
9
  6
CONTINUOUS
 70
0
 71
3
 72
44
 73
40
 74
0
 42
0.0000001
 43
0.0000001
 44
0.0000000001
 40
0.0
 40
0.0
 40
0.0
 40
0.0
 40
0.0114131995
 40
0.0227655491
 40
0.0340825926
 40
0.0453902756
 40
0.0567145849
 40
0.0680814054
 40
0.0795160745
 40
0.0910429972
 40
0.1026856074
 40
0.1144661536
 40
0.1385125482
 40
0.1633358027
 40
0.1890503795
 40
0.2157413062
 40
0.2434633142
 40
0.2722449065
 40
0.302088119
 40
0.3329737765
 40
0.3648615622
 40
0.3976945636
 40
0.4313999517
 40
0.4658922045
 40
0.5010746207
 40
0.536841136
 40
0.5730784545
 40
0.6096670464
 40
0.6464834781
 40
0.6834013305
 40
0.7202931866
 40
0.7570316059
 40
0.7934913595
 40
0.8295507204
 40
0.8650922406
 40
0.9000038092
 40
0.9341863252
 40
0.9675502193
 40
1.0
 40
1.0
 40
1.0
 40
1.0
 10
14.3894073337
 20
12.5719729232
 30
0.0
 10
14.381327908
 20
12.5783215712
 30
0.0
 10
14.3648342996
 20
12.5905129671
 30
0.0
 10
14.3390934837
 20
12.6072476361
 30
0.0
 10
14.3124681498
 20
12.6223467027
 30
0.0
 10
14.284998462
 20
12.6357907926
 30
0.0
 10
14.2567224245
 20
12.6475610953
 30
0.0
 10
14.2276786824
 20
12.6576376946
 30
0.0
 10
14.1979090151
 20
12.6660085775
 30
0.0
 10
14.1674560361
 20
12.6726642772
 30
0.0
 10
14.1363609195
 20
12.6775944963
 30
0.0
 10
14.0938205849
 20
12.6818842966
 30
0.0
 10
14.0391089245
 20
12.6828189157
 30
0.0
 10
13.972106486
 20
12.6769549857
 30
0.0
 10
13.9036569339
 20
12.6641755497
 30
0.0
 10
13.8341433747
 20
12.6445536177
 30
0.0
 10
13.7639387905
 20
12.6182184202
 30
0.0
 10
13.6934287614
 20
12.5853116479
 30
0.0
 10
13.622990971
 20
12.5460283457
 30
0.0
 10
13.5530129207
 20
12.5005795854
 30
0.0
 10
13.4838718212
 20
12.4492226511
 30
0.0
 10
13.415948035
 20
12.3922371792
 30
0.0
 10
13.3496119077
 20
12.3299386365
 30
0.0
 10
13.2852266856
 20
12.2626702524
 30
0.0
 10
13.2231479586
 20
12.1908004031
 30
0.0
 10
13.1637129424
 20
12.1147278224
 30
0.0
 10
13.1072539562
 20
12.0348673956
 30
0.0
 10
13.0540752281
 20
11.9516633555
 30
0.0
 10
13.0044766383
 20
11.8655696909
 30
0.0
 10
12.9587244872
 20
11.7770646073
 30
0.0
 10
12.9170772948
 20
11.686632586
 30
0.0
 10
12.879758948
 20
11.5947745329
 30
0.0
 10
12.8469786028
 20
11.5019945779
 30
0.0
 10
12.8189171698
 20
11.4088036786
 30
0.0
 10
12.7957275216
 20
11.3157167075
 30
0.0
 10
12.7775344128
 20
11.2232454176
 30
0.0
 10
12.7644410709
 20
11.1318914089
 30
0.0
 10
12.7565466611
 20
11.0421672314
 30
0.0
 10
12.7547190184
 20
10.9829030564
 30
0.0
 10
12.7547076972
 20
10.9536884393
 30
0.0
  0
SPLINE
  5
370
100
AcDbEntity
  8
0
100
AcDbSpline
 62
9
  6
CONTINUOUS
 70
0
 71
3
 72
16
 73
12
 74
0
 42
0.0000001
 43
0.0000001
 44
0.0000000001
 40
0.0
 40
0.0
 40
0.0
 40
0.0
 40
0.1092511584
 40
0.222326108
 40
0.3397473287
 40
0.4002253129
 40
0.4619131974
 40
0.5889730644
 40
0.7210553557
 40
0.8581470108
 40
1.0
 40
1.0
 40
1.0
 40
1.0
 10
12.9473104209
 20
10.368397326
 30
0.0
 10
12.9328573687
 20
10.3858373989
 30
0.0
 10
12.9054822338
 20
10.4230618713
 30
0.0
 10
12.8700084691
 20
10.4840494671
 30
0.0
 10
12.8449624697
 20
10.5390413739
 30
0.0
 10
12.8275105643
 20
10.5855610797
 30
0.0
 10
12.8115118461
 20
10.6347086779
 30
0.0
 10
12.7950161008
 20
10.6992311746
 30
0.0
 10
12.780963037
 20
10.780247039
 30
0.0
 10
12.7725436672
 20
10.8651145805
 30
0.0
 10
12.7707353264
 20
10.9229669179
 30
0.0
 10
12.7707353264
 20
10.9523766426
 30
0.0
  0
SPLINE
  5
371
100
AcDbEntity
  8
0
100
AcDbSpline
 62
9
  6
CONTINUOUS
 70
0
 71
3
 72
34
 73
30
 74
0
 42
0.0000001
 43
0.0000001
 44
0.0000000001
 40
0.0
 40
0.0
 40
0.0
 40
0.0
 40
0.0229584254
 40
0.0465414273
 40
0.0708255571
 40
0.0958709062
 40
0.1217209997
 40
0.1484032284
 40
0.1759309099
 40
0.2043026447
 40
0.2335059265
 40
0.2635155543
 40
0.2942976982
 40
0.3258081995
 40
0.357995992
 40
0.3908023292
 40
0.4241627527
 40
0.4580075807
 40
0.5268364316
 40
0.5966708497
 40
0.6668443267
 40
0.7366785805
 40
0.805507861
 40
0.839353075
 40
0.8727123053
 40
0.9055172307
 40
0.9377088506
 40
0.9692264615
 40
1.0
 40
1.0
 40
1.0
 40
1.0
 10
14.0970291438
 20
12.6678348049
 30
0.0
 10
14.0789857235
 20
12.6687107694
 30
0.0
 10
14.0423072609
 20
12.6687966988
 30
0.0
 10
13.986715868
 20
12.6640800581
 30
0.0
 10
13.9300792266
 20
12.6545535848
 30
0.0
 10
13.8726221591
 20
12.6402551028
 30
0.0
 10
13.8145632743
 20
12.6212458695
 30
0.0
 10
13.756123938
 20
12.5976045117
 30
0.0
 10
13.6975295575
 20
12.5694206445
 30
0.0
 10
13.6390005567
 20
12.5368108233
 30
0.0
 10
13.5807655735
 20
12.4998946953
 30
0.0
 10
13.5230421459
 20
12.4588231589
 30
0.0
 10
13.4660576978
 20
12.4137474358
 30
0.0
 10
13.4100252943
 20
12.3648485913
 30
0.0
 10
13.3551656053
 20
12.3123096851
 30
0.0
 10
13.3016859705
 20
12.2563380212
 30
0.0
 10
13.2497940891
 20
12.1971459741
 30
0.0
 10
13.1826201372
 20
12.1137787653
 30
0.0
 10
13.1039560603
 20
12.0029689651
 30
0.0
 10
13.0194264219
 20
11.8618746205
 30
0.0
 10
12.9455139649
 20
11.7140486011
 30
0.0
 10
12.8833562832
 20
11.5617680704
 30
0.0
 10
12.8419074423
 20
11.4323501638
 30
0.0
 10
12.8155192539
 20
11.3285907049
 30
0.0
 10
12.7993002855
 20
11.2515638353
 30
0.0
 10
12.7866102523
 20
11.1751963342
 30
0.0
 10
12.7774956283
 20
11.0997771312
 30
0.0
 10
12.7719982536
 20
11.025611508
 30
0.0
 10
12.7707353264
 20
10.9765905785
 30
0.0
 10
12.7707353264
 20
10.9523766426
 30
0.0
  0
SPLINE
  5
372
100
AcDbEntity
  8
0
100
AcDbSpline
 62
9
  6
CONTINUOUS
 70
0
 71
3
 72
15
 73
11
 74
0
 42
0.0000001
 43
0.0000001
 44
0.0000000001
 40
0.0
 40
0.0
 40
0.0
 40
0.0
 40
0.1106357122
 40
0.2249848022
 40
0.3433700074
 40
0.4659967892
 40
0.5929813569
 40
0.7243705043
 40
0.860119817
 40
1.0
 40
1.0
 40
1.0
 40
1.0
 10
13.0217977603
 20
10.4417671953
 30
0.0
 10
13.0108777207
 20
10.4579603527
 30
0.0
 10
12.9902668029
 20
10.4919915137
 30
0.0
 10
12.963615556
 20
10.5465153825
 30
0.0
 10
12.9408735998
 20
10.6050571342
 30
0.0
 10
12.9221342376
 20
10.6673243239
 30
0.0
 10
12.9074888274
 20
10.7330276346
 30
0.0
 10
12.8969956484
 20
10.8018598537
 30
0.0
 10
12.8907120232
 20
10.8734816849
 30
0.0
 10
12.8893560802
 20
10.9221532381
 30
0.0
 10
12.8893560802
 20
10.9468470737
 30
0.0
  0
ENDSEC
  0
SECTION
  2
OBJECTS
  0
DICTIONARY
  5
C
100
AcDbDictionary
280
0
281
1
  3
ACAD_GROUP
350
D
  3
ACAD_MLINESTYLE
350
17
  3
ACAD_LAYOUT
350
1A
  3
ACAD_PLOTSETTINGS
350
19
  3
ACAD_PLOTSTYLENAME
350
E
  0
DICTIONARY
  5
D
102
{ACAD_REACTORS
330
C
102
}
100
AcDbDictionary
280
0
281
1
  0
ACDBDICTIONARYWDFLT
  5
E
102
{ACAD_REACTORS
330
C
102
}
100
AcDbDictionary
281
1
  3
Normal
350
F
100
AcDbDictionaryWithDefault
340
F
  0
DICTIONARY
  5
17
102
{ACAD_REACTORS
330
C
102
}
100
AcDbDictionary
280
0
281
1
  3
Standard
350
18
  0
DICTIONARY
  5
19
102
{ACAD_REACTORS
330
C
102
}
100
AcDbDictionary
281
1
  0
DICTIONARY
  5
1A
102
{ACAD_REACTORS
330
C
102
}
100
AcDbDictionary
281
1
  3
Model
350
373
  3
Layout1
350
374
  0
ACDBPLACEHOLDER
  5
F
102
{ACAD_REACTORS
330
E
102
}
  0
MLINESTYLE
  5
18
102
{ACAD_REACTORS
330
17
102
}
100
AcDbMlineStyle
  2
STANDARD
 70
0
  3

 62
256
 51
90.0
 52
90.0
 71
2
 49
0.5
 62
256
  6
BYLAYER
 49
-0.5
 62
256
  6
BYLAYER
  0
LAYOUT
  5
373
102
{ACAD_REACTORS
330
1A
102
}
100
AcDbPlotSettings
  1

  2
none_device
  4
ANSI_C_(22.00_x_17.00_Inches)
  6

 40
0.0
 41
0.0
 42
0.0
 43
0.0
 44
558.8
 45
431.8
 46
0.0
 47
0.0
 48
0.0
 49
0.0
140
0.0
141
0.0
142
1.0
143
1.0
 70
1024
 72
0
 73
0
 74
0
  7

 75
0
147
1.0
148
0.0
149
0.0
100
AcDbLayout
  1
Model
 70
0
 71
0
 10
0.0
 20
0.0
 11
22.0
 21
17.0
 12
0.0
 22
0.0
 32
0.0
 14
0.0
 24
0.0
 34
0.0
 15
0.0
 25
0.0
 35
0.0
146
0.0
 13
0.0
 23
0.0
 33
0.0
 16
1.0
 26
0.0
 36
0.0
 17
0.0
 27
1.0
 37
0.0
 76
0
330
20D
345
0
346
0
  0
LAYOUT
  5
374
102
{ACAD_REACTORS
330
1A
102
}
100
AcDbPlotSettings
  1

  2
none_device
  4
ANSI_C_(22.00_x_17.00_Inches)
  6

 40
0.0
 41
0.0
 42
0.0
 43
0.0
 44
558.8
 45
431.8
 46
0.0
 47
0.0
 48
0.0
 49
0.0
140
0.0
141
0.0
142
1.0
143
1.0
 70
0
 72
0
 73
0
 74
0
  7

 75
0
147
1.0
148
0.0
149
0.0
100
AcDbLayout
  1
Layout1
 70
0
 71
1
 10
0.0
 20
0.0
 11
22.0
 21
17.0
 12
0.0
 22
0.0
 32
0.0
 14
0.0
 24
0.0
 34
0.0
 15
0.0
 25
0.0
 35
0.0
146
0.0
 13
0.0
 23
0.0
 33
0.0
 16
1.0
 26
0.0
 36
0.0
 17
0.0
 27
1.0
 37
0.0
 76
0
330
20E
345
0
346
0
  0
ENDSEC
  0
EOF
