999
DXF file: 001bsn101-xx.dxf
999
Pro/ENGINEER 2015070 by Parametric Technology Corporation
  0
SECTION
  2
HEADER
  9
$ACADVER
  1
AC1021
  9
$DWGCODEPAGE
  3
ANSI_936
  9
$EXTMAX
 10
22.0
 20
17.0
 30
0.0
  9
$EXTMIN
 10
0.0
 20
0.0
 30
0.0
  9
$LIMMIN
 10
0.0
 20
0.0
  9
$LIMMAX
 10
22.0
 20
17.0
  9
$VIEWCTR
 10
11.0
 20
8.5
  9
$VIEWSIZE
 40
17.0
  9
$CLAYER
  8
0
  9
$LTSCALE
 40
1.21
  9
$CELTYPE
  6
BYLAYER
  9
$DIMSCALE
 40
1.0
  9
$DIMASZ
 40
0.125
  9
$DIMEXO
 40
0.0625
  9
$DIMDLI
 40
0.836
  9
$DIMEXE
 40
0.125
  9
$DIMCEN
 40
0.198
  9
$DIMLFAC
 40
1.0
  9
$DIMBLK
  1
_FILLED
  9
$DIMTXT
 40
0.12
  9
$DIMTOL
 70
1
  9
$DIMLIM
 70
0
  9
$DIMTFAC
 40
1.0
  9
$DIMTP
 40
0.001
  9
$DIMTM
 40
0.001
  9
$DIMGAP
 40
0.09
  9
$DIMDSEP
 70
46
  9
$PDMODE
 70
3
  9
$PDSIZE
 40
0.125
  9
$HANDSEED
  5
43C
  9
$TILEMODE
 70
1
  9
$MEASUREMENT
 70
0
  9
$INSUNITS
 70
1
  0
ENDSEC
  0
SECTION
  2
CLASSES
  0
CLASS
  1
ACDBDICTIONARYWDFLT
  2
AcDbDictionaryWithDefault
  3
AutoCAD 2000
 90
0
 91
1
280
0
281
0
  0
CLASS
  1
ACDBPLACEHOLDER
  2
AcDbPlaceHolder
  3
AutoCAD 2000
 90
0
 91
1
280
0
281
0
  0
CLASS
  1
LAYOUT
  2
AcDbLayout
  3
AutoCAD 2000
 90
0
 91
0
280
0
281
0
  0
ENDSEC
  0
SECTION
  2
TABLES
  0
TABLE
  2
VPORT
  5
8
100
AcDbSymbolTable
 70
2
  0
VPORT
  5
1F4
100
AcDbSymbolTableRecord
100
AcDbViewportTableRecord
  2
*ACTIVE
 70
0
 10
0.0
 20
0.0
 11
1.0
 21
1.0
 12
11.0
 22
8.5
 13
0.0
 23
0.0
 14
1.0
 24
1.0
 15
0.0
 25
0.0
 16
0.0
 26
0.0
 36
1.0
 17
0.0
 27
0.0
 37
0.0
 40
17.0
 41
1.2941176471
 42
50.0
 43
0.0
 44
0.0
 50
0.0
 51
0.0
 71
0
 72
100
 73
1
 74
1
 75
0
 76
0
 77
0
 78
0
  0
ENDTAB
  0
TABLE
  2
LTYPE
  5
5
100
AcDbSymbolTable
 70
6
  0
LTYPE
  5
14
100
AcDbSymbolTableRecord
100
AcDbLinetypeTableRecord
  2
BYBLOCK
 70
0
  3

 72
65
 73
0
 40
0.0
  0
LTYPE
  5
15
100
AcDbSymbolTableRecord
100
AcDbLinetypeTableRecord
  2
BYLAYER
 70
0
  3

 72
65
 73
0
 40
0.0
  0
LTYPE
  5
16
100
AcDbSymbolTableRecord
100
AcDbLinetypeTableRecord
  2
CONTINUOUS
 70
64
  3
Solid line
 72
65
 73
0
 40
0.0
  0
LTYPE
  5
1F5
100
AcDbSymbolTableRecord
100
AcDbLinetypeTableRecord
  2
CENTER
 70
64
  3
____ _ ____ _ ____ _ ____ _ ____ _ ____ _ ____
 72
65
 73
4
 40
0.6
 49
0.375
 74
0
 49
-0.075
 74
0
 49
0.075
 74
0
 49
-0.075
 74
0
  0
LTYPE
  5
1F6
100
AcDbSymbolTableRecord
100
AcDbLinetypeTableRecord
  2
HIDDEN
 70
64
  3
- - - - - - - - - - - - - - - - - - - -
 72
65
 73
2
 40
0.2
 49
0.1
 74
0
 49
-0.1
 74
0
  0
LTYPE
  5
1F7
100
AcDbSymbolTableRecord
100
AcDbLinetypeTableRecord
  2
PHANTOM
 70
64
  3
_____ _ _ _____ _ _ _____ _ _ _____
 72
65
 73
6
 40
0.8
 49
0.45
 74
0
 49
-0.05
 74
0
 49
0.1
 74
0
 49
-0.05
 74
0
 49
0.1
 74
0
 49
-0.05
 74
0
  0
LTYPE
  5
1F8
100
AcDbSymbolTableRecord
100
AcDbLinetypeTableRecord
  2
DOT
 70
64
  3
. . . . . . . . . . . . . . . . . . . .
 72
65
 73
2
 40
0.2
 49
0.1
 74
0
 49
-0.1
 74
0
  0
LTYPE
  5
1F9
100
AcDbSymbolTableRecord
100
AcDbLinetypeTableRecord
  2
DASHED
 70
64
  3
- - - - - - - - - - - - - - - - - - - -
 72
65
 73
2
 40
0.2
 49
0.1
 74
0
 49
-0.1
 74
0
  0
ENDTAB
  0
TABLE
  2
LAYER
  5
2
100
AcDbSymbolTable
 70
36
  0
LAYER
  5
10
100
AcDbSymbolTableRecord
100
AcDbLayerTableRecord
  2
0
 70
0
 62
7
  6
CONTINUOUS
370
-3
390
F
  0
LAYER
  5
1FA
100
AcDbSymbolTableRecord
100
AcDbLayerTableRecord
  2
DEFAULT_1
 70
0
 62
7
  6
CENTER
370
-3
390
F
  0
LAYER
  5
1FB
100
AcDbSymbolTableRecord
100
AcDbLayerTableRecord
  2
DEFAULT_2
 70
0
 62
8
  6
HIDDEN
370
-3
390
F
  0
LAYER
  5
1FC
100
AcDbSymbolTableRecord
100
AcDbLayerTableRecord
  2
DEFAULT_3
 70
0
 62
7
  6
PHANTOM
370
-3
390
F
  0
LAYER
  5
1FD
100
AcDbSymbolTableRecord
100
AcDbLayerTableRecord
  2
06_ALL_SURFS_1
 70
0
 62
7
  6
CONTINUOUS
370
-3
390
F
  0
LAYER
  5
1FE
100
AcDbSymbolTableRecord
100
AcDbLayerTableRecord
  2
06___PRT_ALL_SURFS_5
 70
0
 62
7
  6
CONTINUOUS
370
-3
390
F
  0
LAYER
  5
1FF
100
AcDbSymbolTableRecord
100
AcDbLayerTableRecord
  2
10000
 70
0
 62
7
  6
CONTINUOUS
370
-3
390
F
  0
LAYER
  5
200
100
AcDbSymbolTableRecord
100
AcDbLayerTableRecord
  2
10002
 70
0
 62
7
  6
CONTINUOUS
370
-3
390
F
  0
LAYER
  5
201
100
AcDbSymbolTableRecord
100
AcDbLayerTableRecord
  2
10002_1
 70
0
 62
7
  6
CONTINUOUS
370
-3
390
F
  0
LAYER
  5
202
100
AcDbSymbolTableRecord
100
AcDbLayerTableRecord
  2
10028
 70
0
 62
7
  6
CONTINUOUS
370
-3
390
F
  0
LAYER
  5
203
100
AcDbSymbolTableRecord
100
AcDbLayerTableRecord
  2
10029
 70
0
 62
7
  6
CONTINUOUS
370
-3
390
F
  0
LAYER
  5
204
100
AcDbSymbolTableRecord
100
AcDbLayerTableRecord
  2
10132
 70
0
 62
7
  6
CONTINUOUS
370
-3
390
F
  0
LAYER
  5
205
100
AcDbSymbolTableRecord
100
AcDbLayerTableRecord
  2
10132_1
 70
0
 62
7
  6
CONTINUOUS
370
-3
390
F
  0
LAYER
  5
206
100
AcDbSymbolTableRecord
100
AcDbLayerTableRecord
  2
10576
 70
0
 62
7
  6
CONTINUOUS
370
-3
390
F
  0
LAYER
  5
207
100
AcDbSymbolTableRecord
100
AcDbLayerTableRecord
  2
10576_1
 70
0
 62
7
  6
CONTINUOUS
370
-3
390
F
  0
LAYER
  5
208
100
AcDbSymbolTableRecord
100
AcDbLayerTableRecord
  2
COLOR1
 70
0
 62
7
  6
CONTINUOUS
370
-3
390
F
  0
LAYER
  5
209
100
AcDbSymbolTableRecord
100
AcDbLayerTableRecord
  2
INTF_10000
 70
0
 62
7
  6
CONTINUOUS
370
-3
390
F
  0
LAYER
  5
20A
100
AcDbSymbolTableRecord
100
AcDbLayerTableRecord
  2
INTF_10002
 70
0
 62
7
  6
CONTINUOUS
370
-3
390
F
  0
LAYER
  5
20B
100
AcDbSymbolTableRecord
100
AcDbLayerTableRecord
  2
INTF_10028
 70
0
 62
7
  6
CONTINUOUS
370
-3
390
F
  0
LAYER
  5
20C
100
AcDbSymbolTableRecord
100
AcDbLayerTableRecord
  2
INTF_10029
 70
0
 62
7
  6
CONTINUOUS
370
-3
390
F
  0
LAYER
  5
20D
100
AcDbSymbolTableRecord
100
AcDbLayerTableRecord
  2
INTF_10132
 70
0
 62
7
  6
CONTINUOUS
370
-3
390
F
  0
ENDTAB
  0
TABLE
  2
STYLE
  5
3
100
AcDbSymbolTable
 70
1
  0
STYLE
  5
11
100
AcDbSymbolTableRecord
100
AcDbTextStyleTableRecord
  2
STANDARD
 70
0
 40
0.0
 41
1.0
 50
0.0
 71
0
 42
0.2
  3
txt
  4

  0
STYLE
  5
20E
100
AcDbSymbolTableRecord
100
AcDbTextStyleTableRecord
  2
TEXTSTYLE_1
 70
0
 40
0.0
 41
0.8
 50
0.0
 71
0
 42
0.2
  3
gdt
  4

  0
ENDTAB
  0
TABLE
  2
VIEW
  5
6
100
AcDbSymbolTable
 70
0
  0
ENDTAB
  0
TABLE
  2
UCS
  5
7
100
AcDbSymbolTable
 70
0
  0
ENDTAB
  0
TABLE
  2
APPID
  5
9
100
AcDbSymbolTable
 70
1
  0
APPID
  5
20F
100
AcDbSymbolTableRecord
100
AcDbRegAppTableRecord
  2
ACAD
 70
0
  0
ENDTAB
  0
TABLE
  2
BLOCK_RECORD
  5
1
100
AcDbSymbolTable
 70
0
  0
BLOCK_RECORD
  5
210
100
AcDbSymbolTableRecord
100
AcDbBlockTableRecord
  2
*Model_Space
  0
BLOCK_RECORD
  5
211
100
AcDbSymbolTableRecord
100
AcDbBlockTableRecord
  2
*Paper_Space
  0
ENDTAB
  0
TABLE
  2
DIMSTYLE
  5
A
100
AcDbSymbolTable
 70
1
100
AcDbDimStyleTable
 71
0
  0
DIMSTYLE
105
212
100
AcDbSymbolTableRecord
100
AcDbDimStyleTableRecord
  2
STANDARD
 70
0
  3

  4

 40
1.0
 41
0.125
 42
0.0625
 43
0.38
 44
0.125
 45
0.0
 46
0.0
 47
0.001
 48
0.001
140
0.12
141
0.09
142
0.0
143
25.4
144
1.0
145
0.0
146
1.0
147
0.09
 71
1.0
 72
0.0
 73
1
 74
1
 75
0
 76
0
 77
0
 78
4
170
0
171
2
172
0
173
0
174
0
175
0
176
0
177
0
178
0
270
2
271
3
272
3
273
2
274
2
275
0
280
0
281
0
282
0
283
1
284
4
285
0
286
0
287
3
288
0
340
11
278
46
  0
ENDTAB
  0
ENDSEC
  0
SECTION
  2
BLOCKS
  0
BLOCK
  5
20
100
AcDbEntity
  8
0
100
AcDbBlockBegin
  2
*Model_Space
 70
0
 10
0.0
 20
0.0
 30
0.0
  3
*Model_Space
  1

  0
ENDBLK
  5
21
100
AcDbEntity
  8
0
100
AcDbBlockEnd
  0
BLOCK
  5
1C
100
AcDbEntity
  8
0
100
AcDbBlockBegin
  2
*Paper_Space
 70
0
 10
0.0
 20
0.0
 30
0.0
  3
*Paper_Space
  1

  0
ENDBLK
  5
1D
100
AcDbEntity
  8
0
100
AcDbBlockEnd
  0
ENDSEC
  0
SECTION
  2
ENTITIES
  0
LINE
  5
213
100
AcDbEntity
  8
0
100
AcDbLine
 62
7
  6
CONTINUOUS
 10
0.0
 20
0.0
 11
0.0
 21
17.0
  0
LINE
  5
214
100
AcDbEntity
  8
0
100
AcDbLine
 62
7
  6
CONTINUOUS
 10
0.0
 20
0.0
 11
22.0
 21
0.0
  0
LINE
  5
215
100
AcDbEntity
  8
0
100
AcDbLine
 62
7
  6
CONTINUOUS
 10
0.0
 20
17.0
 11
22.0
 21
17.0
  0
LINE
  5
216
100
AcDbEntity
  8
0
100
AcDbLine
 62
7
  6
CONTINUOUS
 10
22.0
 20
0.0
 11
22.0
 21
17.0
  0
LINE
  5
217
100
AcDbEntity
  8
0
100
AcDbLine
 62
7
  6
CONTINUOUS
 10
3.2741330411
 20
3.1603852227
 11
3.2741330411
 21
2.5553852227
  0
LINE
  5
218
100
AcDbEntity
  8
0
100
AcDbLine
 62
7
  6
CONTINUOUS
 10
3.2741330411
 20
2.5353852227
 11
3.2741330411
 21
2.3453852227
  0
LINE
  5
219
100
AcDbEntity
  8
0
100
AcDbLine
 62
9
  6
CONTINUOUS
 10
3.2841330411
 20
3.1703852227
 11
3.2841330411
 21
2.3453852227
  0
LINE
  5
21A
100
AcDbEntity
  8
0
100
AcDbLine
 62
7
  6
CONTINUOUS
 10
3.2741330411
 20
2.3453852227
 11
4.7741330411
 21
2.3453852227
  0
LINE
  5
21B
100
AcDbEntity
  8
0
100
AcDbLine
 62
7
  6
CONTINUOUS
 10
5.3991330411
 20
2.3453852227
 11
6.6491330411
 21
2.3453852227
  0
LINE
  5
21C
100
AcDbEntity
  8
0
100
AcDbLine
 62
7
  6
CONTINUOUS
 10
7.2741330411
 20
2.3453852227
 11
8.7741330411
 21
2.3453852227
  0
LINE
  5
21D
100
AcDbEntity
  8
0
100
AcDbLine
 62
9
  6
CONTINUOUS
 10
8.7741330411
 20
2.5353852227
 11
7.2741330411
 21
2.5353852227
  0
LINE
  5
21E
100
AcDbEntity
  8
0
100
AcDbLine
 62
9
  6
CONTINUOUS
 10
6.6491330411
 20
2.5353852227
 11
5.3991330411
 21
2.5353852227
  0
LINE
  5
21F
100
AcDbEntity
  8
0
100
AcDbLine
 62
9
  6
CONTINUOUS
 10
4.7741330411
 20
2.5353852227
 11
3.2741330411
 21
2.5353852227
  0
LINE
  5
220
100
AcDbEntity
  8
0
100
AcDbLine
 62
7
  6
CONTINUOUS
 10
3.2841330411
 20
2.5453852227
 11
4.7641330411
 21
2.5453852227
  0
LINE
  5
221
100
AcDbEntity
  8
0
100
AcDbLine
 62
7
  6
CONTINUOUS
 10
5.4091330411
 20
2.5453852227
 11
6.6391330411
 21
2.5453852227
  0
LINE
  5
222
100
AcDbEntity
  8
0
100
AcDbLine
 62
7
  6
CONTINUOUS
 10
7.2841330411
 20
2.5453852227
 11
8.7641330411
 21
2.5453852227
  0
LINE
  5
223
100
AcDbEntity
  8
0
100
AcDbLine
 62
9
  6
CONTINUOUS
 10
3.2741330411
 20
2.5553852227
 11
4.7741330411
 21
2.5553852227
  0
LINE
  5
224
100
AcDbEntity
  8
0
100
AcDbLine
 62
9
  6
CONTINUOUS
 10
7.2741330411
 20
2.5553852227
 11
8.7741330411
 21
2.5553852227
  0
LINE
  5
225
100
AcDbEntity
  8
0
100
AcDbLine
 62
7
  6
CONTINUOUS
 10
5.9903783783
 20
2.6703852227
 11
5.9978783089
 21
2.6703852227
  0
LINE
  5
226
100
AcDbEntity
  8
0
100
AcDbLine
 62
7
  6
CONTINUOUS
 10
6.0478947315
 20
2.6703852227
 11
6.0554082309
 21
2.6703852227
  0
LINE
  5
227
100
AcDbEntity
  8
0
100
AcDbLine
 62
7
  6
CONTINUOUS
 10
6.0913854638
 20
2.8072315916
 11
6.1033196797
 21
2.8098833883
  0
LINE
  5
228
100
AcDbEntity
  8
0
100
AcDbLine
 62
7
  6
CONTINUOUS
 10
6.1033196797
 20
2.8154144853
 11
6.0696400977
 21
2.8154144853
  0
LINE
  5
229
100
AcDbEntity
  8
0
100
AcDbLine
 62
7
  6
CONTINUOUS
 10
5.9880825366
 20
2.8154144853
 11
5.9449464025
 21
2.8154144853
  0
LINE
  5
22A
100
AcDbEntity
  8
0
100
AcDbLine
 62
7
  6
CONTINUOUS
 10
6.0694790812
 20
2.8100561644
 11
6.0827737959
 21
2.8072315916
  0
LINE
  5
22B
100
AcDbEntity
  8
0
100
AcDbLine
 62
7
  6
CONTINUOUS
 10
5.9449464025
 20
2.8100172671
 11
5.9541596207
 21
2.8071483696
  0
LINE
  5
22C
100
AcDbEntity
  8
0
100
AcDbLine
 62
9
  6
CONTINUOUS
 10
8.7741330411
 20
3.1603852227
 11
7.2741330411
 21
3.1603852227
  0
LINE
  5
22D
100
AcDbEntity
  8
0
100
AcDbLine
 62
9
  6
CONTINUOUS
 10
4.7741330411
 20
3.1603852227
 11
3.2741330411
 21
3.1603852227
  0
LINE
  5
22E
100
AcDbEntity
  8
0
100
AcDbLine
 62
7
  6
CONTINUOUS
 10
3.2841330411
 20
3.1703852227
 11
4.7641330411
 21
3.1703852227
  0
LINE
  5
22F
100
AcDbEntity
  8
0
100
AcDbLine
 62
7
  6
CONTINUOUS
 10
7.2841330411
 20
3.1703852227
 11
8.7641330411
 21
3.1703852227
  0
LINE
  5
230
100
AcDbEntity
  8
0
100
AcDbLine
 62
9
  6
CONTINUOUS
 10
4.7641330411
 20
2.3453852227
 11
4.7641330411
 21
3.1703852227
  0
LINE
  5
231
100
AcDbEntity
  8
0
100
AcDbLine
 62
7
  6
CONTINUOUS
 10
4.7741330411
 20
3.1603852227
 11
4.7741330411
 21
2.5553852227
  0
LINE
  5
232
100
AcDbEntity
  8
0
100
AcDbLine
 62
7
  6
CONTINUOUS
 10
4.7741330411
 20
2.5353852227
 11
4.7741330411
 21
2.3453852227
  0
LINE
  5
233
100
AcDbEntity
  8
0
100
AcDbLine
 62
7
  6
CONTINUOUS
 10
5.3991330411
 20
2.5353852227
 11
5.3991330411
 21
2.3453852227
  0
LINE
  5
234
100
AcDbEntity
  8
0
100
AcDbLine
 62
9
  6
CONTINUOUS
 10
5.4091330411
 20
2.5453852227
 11
5.4091330411
 21
2.3453852227
  0
LINE
  5
235
100
AcDbEntity
  8
0
100
AcDbLine
 62
7
  6
CONTINUOUS
 10
5.9782017332
 20
2.7876884424
 11
5.9730862939
 21
2.8060289432
  0
LINE
  5
236
100
AcDbEntity
  8
0
100
AcDbLine
 62
7
  6
CONTINUOUS
 10
6.0222610845
 20
2.7639192726
 11
6.0478947315
 21
2.6703852227
  0
LINE
  5
237
100
AcDbEntity
  8
0
100
AcDbLine
 62
7
  6
CONTINUOUS
 10
6.0503660631
 20
2.6818680497
 11
6.0270268148
 21
2.767599375
  0
LINE
  5
238
100
AcDbEntity
  8
0
100
AcDbLine
 62
7
  6
CONTINUOUS
 10
6.0568570529
 20
2.7060446417
 11
6.0396132378
 21
2.7710747982
  0
LINE
  5
239
100
AcDbEntity
  8
0
100
AcDbLine
 62
7
  6
CONTINUOUS
 10
5.9564174698
 20
2.7987452089
 11
5.9903783783
 21
2.6703852227
  0
LINE
  5
23A
100
AcDbEntity
  8
0
100
AcDbLine
 62
7
  6
CONTINUOUS
 10
5.9541596207
 20
2.8071483696
 11
5.9559687947
 21
2.8002911481
  0
LINE
  5
23B
100
AcDbEntity
  8
0
100
AcDbLine
 62
7
  6
CONTINUOUS
 10
5.9997535343
 20
2.7060433664
 11
5.9782017332
 21
2.7876884424
  0
LINE
  5
23C
100
AcDbEntity
  8
0
100
AcDbLine
 62
7
  6
CONTINUOUS
 10
5.6491330411
 20
2.5453852227
 11
5.6491330411
 21
7.6478852227
  0
LINE
  5
23D
100
AcDbEntity
  8
0
100
AcDbLine
 62
9
  6
CONTINUOUS
 10
5.6591330411
 20
7.6578852227
 11
5.6591330411
 21
2.5453852227
  0
LINE
  5
23E
100
AcDbEntity
  8
0
100
AcDbLine
 62
7
  6
CONTINUOUS
 10
5.9449464025
 20
2.8154144853
 11
5.9449464025
 21
2.8100172671
  0
LINE
  5
23F
100
AcDbEntity
  8
0
100
AcDbLine
 62
7
  6
CONTINUOUS
 10
6.1033196797
 20
2.8098833883
 11
6.1033196797
 21
2.8154144853
  0
LINE
  5
240
100
AcDbEntity
  8
0
100
AcDbLine
 62
9
  6
CONTINUOUS
 10
6.3891330411
 20
2.5453852227
 11
6.3891330411
 21
7.6578852227
  0
LINE
  5
241
100
AcDbEntity
  8
0
100
AcDbLine
 62
7
  6
CONTINUOUS
 10
6.3991330411
 20
7.6478537004
 11
6.3991330411
 21
2.5453852227
  0
LINE
  5
242
100
AcDbEntity
  8
0
100
AcDbLine
 62
7
  6
CONTINUOUS
 10
5.6491330411
 20
5.4203852227
 11
6.3991330411
 21
5.4203852227
  0
LINE
  5
243
100
AcDbEntity
  8
0
100
AcDbLine
 62
9
  6
CONTINUOUS
 10
6.6391330411
 20
2.3453852227
 11
6.6391330411
 21
2.5453852227
  0
LINE
  5
244
100
AcDbEntity
  8
0
100
AcDbLine
 62
7
  6
CONTINUOUS
 10
6.6491330411
 20
2.5353852227
 11
6.6491330411
 21
2.3453852227
  0
LINE
  5
245
100
AcDbEntity
  8
0
100
AcDbLine
 62
7
  6
CONTINUOUS
 10
6.0827737959
 20
2.8072315916
 11
6.0782445289
 21
2.7880918882
  0
LINE
  5
246
100
AcDbEntity
  8
0
100
AcDbLine
 62
7
  6
CONTINUOUS
 10
5.9978783089
 20
2.6703852227
 11
6.0222610845
 21
2.7639192726
  0
LINE
  5
247
100
AcDbEntity
  8
0
100
AcDbLine
 62
7
  6
CONTINUOUS
 10
6.0882212186
 20
2.7951621399
 11
6.0913854638
 21
2.8072315916
  0
LINE
  5
248
100
AcDbEntity
  8
0
100
AcDbLine
 62
7
  6
CONTINUOUS
 10
6.0554082309
 20
2.6703852227
 11
6.0872714023
 21
2.7918662773
  0
LINE
  5
249
100
AcDbEntity
  8
0
100
AcDbLine
 62
7
  6
CONTINUOUS
 10
6.0758211404
 20
2.7781133894
 11
6.0568570529
 21
2.7060446417
  0
LINE
  5
24A
100
AcDbEntity
  8
0
100
AcDbLine
 62
7
  6
CONTINUOUS
 10
6.0525687324
 20
2.6901359746
 11
6.0503660631
 21
2.6818680497
  0
LINE
  5
24B
100
AcDbEntity
  8
0
100
AcDbLine
 62
7
  6
CONTINUOUS
 10
5.9955173369
 20
2.6898664077
 11
5.9931853117
 21
2.6811190517
  0
LINE
  5
24C
100
AcDbEntity
  8
0
100
AcDbLine
 62
7
  6
CONTINUOUS
 10
6.0161500611
 20
2.7674184576
 11
5.9997535343
 21
2.7060433664
  0
LINE
  5
24D
100
AcDbEntity
  8
0
100
AcDbLine
 62
9
  6
CONTINUOUS
 10
6.3991330411
 20
5.8453852227
 11
5.6491330411
 21
5.8453852227
  0
LINE
  5
24E
100
AcDbEntity
  8
0
100
AcDbLine
 62
7
  6
CONTINUOUS
 10
7.2741330411
 20
3.1603852227
 11
7.2741330411
 21
2.5553852227
  0
LINE
  5
24F
100
AcDbEntity
  8
0
100
AcDbLine
 62
7
  6
CONTINUOUS
 10
7.2741330411
 20
2.5353852227
 11
7.2741330411
 21
2.3453852227
  0
LINE
  5
250
100
AcDbEntity
  8
0
100
AcDbLine
 62
9
  6
CONTINUOUS
 10
7.2841330411
 20
3.1703852227
 11
7.2841330411
 21
2.3453852227
  0
LINE
  5
251
100
AcDbEntity
  8
0
100
AcDbLine
 62
7
  6
CONTINUOUS
 10
6.0455916531
 20
2.8927914977
 11
6.0582187826
 21
2.9004230456
  0
LINE
  5
252
100
AcDbEntity
  8
0
100
AcDbLine
 62
9
  6
CONTINUOUS
 10
8.7641330411
 20
2.3453852227
 11
8.7641330411
 21
3.1703852227
  0
LINE
  5
253
100
AcDbEntity
  8
0
100
AcDbLine
 62
7
  6
CONTINUOUS
 10
8.7741330411
 20
3.1603852227
 11
8.7741330411
 21
2.5553852227
  0
LINE
  5
254
100
AcDbEntity
  8
0
100
AcDbLine
 62
7
  6
CONTINUOUS
 10
8.7741330411
 20
2.5353852227
 11
8.7741330411
 21
2.3453852227
  0
LINE
  5
255
100
AcDbEntity
  8
0
100
AcDbLine
 62
7
  6
CONTINUOUS
 10
5.6591330411
 20
7.6578852227
 11
6.3891330411
 21
7.6578852227
  0
LINE
  5
256
100
AcDbEntity
  8
0
100
AcDbLine
 62
7
  6
CONTINUOUS
 10
16.6975528798
 20
2.3453852227
 11
17.6975528798
 21
2.3453852227
  0
LINE
  5
257
100
AcDbEntity
  8
0
100
AcDbLine
 62
9
  6
CONTINUOUS
 10
17.6975528798
 20
2.5353852227
 11
16.6975528798
 21
2.5353852227
  0
LINE
  5
258
100
AcDbEntity
  8
0
100
AcDbLine
 62
7
  6
CONTINUOUS
 10
16.7075528798
 20
2.5453852227
 11
17.6875528798
 21
2.5453852227
  0
LINE
  5
259
100
AcDbEntity
  8
0
100
AcDbLine
 62
9
  6
CONTINUOUS
 10
17.0975528798
 20
2.5553852227
 11
17.2975528798
 21
2.5553852227
  0
LINE
  5
25A
100
AcDbEntity
  8
0
100
AcDbLine
 62
7
  6
CONTINUOUS
 10
13.6975528798
 20
5.4203852227
 11
13.6975528798
 21
5.8453852227
  0
LINE
  5
25B
100
AcDbEntity
  8
0
100
AcDbLine
 62
9
  6
CONTINUOUS
 10
13.7075528798
 20
5.8453852227
 11
13.7075528798
 21
5.4203852227
  0
LINE
  5
25C
100
AcDbEntity
  8
0
100
AcDbLine
 62
9
  6
CONTINUOUS
 10
13.9375528798
 20
5.4203852227
 11
13.9375528798
 21
5.8453852227
  0
LINE
  5
25D
100
AcDbEntity
  8
0
100
AcDbLine
 62
7
  6
CONTINUOUS
 10
13.9475528798
 20
5.8453852227
 11
13.9475528798
 21
5.4203852227
  0
LINE
  5
25E
100
AcDbEntity
  8
0
100
AcDbLine
 62
9
  6
CONTINUOUS
 10
17.2975528798
 20
3.1603852227
 11
17.0975528798
 21
3.1603852227
  0
LINE
  5
25F
100
AcDbEntity
  8
0
100
AcDbLine
 62
7
  6
CONTINUOUS
 10
17.1075528798
 20
3.1703852227
 11
17.2875528798
 21
3.1703852227
  0
LINE
  5
260
100
AcDbEntity
  8
0
100
AcDbLine
 62
7
  6
CONTINUOUS
 10
13.9475528798
 20
5.4203852227
 11
13.6975528798
 21
5.4203852227
  0
LINE
  5
261
100
AcDbEntity
  8
0
100
AcDbLine
 62
9
  6
CONTINUOUS
 10
17.3225528798
 20
5.8453852227
 11
17.3125528798
 21
5.8453852227
  0
LINE
  5
262
100
AcDbEntity
  8
0
100
AcDbLine
 62
9
  6
CONTINUOUS
 10
17.0825528798
 20
5.8453852227
 11
17.0725528798
 21
5.8453852227
  0
LINE
  5
263
100
AcDbEntity
  8
0
100
AcDbLine
 62
9
  6
CONTINUOUS
 10
13.9475528798
 20
5.8453852227
 11
13.9375528798
 21
5.8453852227
  0
LINE
  5
264
100
AcDbEntity
  8
0
100
AcDbLine
 62
9
  6
CONTINUOUS
 10
13.7075528798
 20
5.8453852227
 11
13.6975528798
 21
5.8453852227
  0
LINE
  5
265
100
AcDbEntity
  8
0
100
AcDbLine
 62
7
  6
CONTINUOUS
 10
16.6975528798
 20
2.5353852227
 11
16.6975528798
 21
2.3453852227
  0
LINE
  5
266
100
AcDbEntity
  8
0
100
AcDbLine
 62
9
  6
CONTINUOUS
 10
16.7075528798
 20
2.5453852227
 11
16.7075528798
 21
2.3453852227
  0
LINE
  5
267
100
AcDbEntity
  8
0
100
AcDbLine
 62
7
  6
CONTINUOUS
 10
17.0725528798
 20
5.8453852227
 11
17.0725528798
 21
2.5453852227
  0
LINE
  5
268
100
AcDbEntity
  8
0
100
AcDbLine
 62
9
  6
CONTINUOUS
 10
17.0825528798
 20
5.8453852227
 11
17.0825528798
 21
2.5453852227
  0
LINE
  5
269
100
AcDbEntity
  8
0
100
AcDbLine
 62
7
  6
CONTINUOUS
 10
17.0975528798
 20
3.1603852227
 11
17.0975528798
 21
2.5553852227
  0
LINE
  5
26A
100
AcDbEntity
  8
0
100
AcDbLine
 62
9
  6
CONTINUOUS
 10
17.1075528798
 20
3.1703852227
 11
17.1075528798
 21
2.5453852227
  0
LINE
  5
26B
100
AcDbEntity
  8
0
100
AcDbLine
 62
9
  6
CONTINUOUS
 10
17.2875528798
 20
2.5453852227
 11
17.2875528798
 21
3.1703852227
  0
LINE
  5
26C
100
AcDbEntity
  8
0
100
AcDbLine
 62
7
  6
CONTINUOUS
 10
17.2975528798
 20
3.1603852227
 11
17.2975528798
 21
2.5553852227
  0
LINE
  5
26D
100
AcDbEntity
  8
0
100
AcDbLine
 62
9
  6
CONTINUOUS
 10
17.3125528798
 20
2.5453852227
 11
17.3125528798
 21
5.8453852227
  0
LINE
  5
26E
100
AcDbEntity
  8
0
100
AcDbLine
 62
7
  6
CONTINUOUS
 10
17.3225528798
 20
5.8453852227
 11
17.3225528798
 21
2.5453852227
  0
LINE
  5
26F
100
AcDbEntity
  8
0
100
AcDbLine
 62
9
  6
CONTINUOUS
 10
17.6875528798
 20
2.3453852227
 11
17.6875528798
 21
2.5453852227
  0
LINE
  5
270
100
AcDbEntity
  8
0
100
AcDbLine
 62
7
  6
CONTINUOUS
 10
17.6975528798
 20
2.5353852227
 11
17.6975528798
 21
2.3453852227
  0
LINE
  5
271
100
AcDbEntity
  8
0
100
AcDbLine
 62
7
  6
CONTINUOUS
 10
3.2741330411
 20
15.0076669506
 11
3.2741330411
 21
14.0276669506
  0
LINE
  5
272
100
AcDbEntity
  8
0
100
AcDbLine
 62
9
  6
CONTINUOUS
 10
3.2841330411
 20
15.0176669506
 11
3.2841330411
 21
14.0176669506
  0
LINE
  5
273
100
AcDbEntity
  8
0
100
AcDbLine
 62
7
  6
CONTINUOUS
 10
6.3891330411
 20
11.0176669506
 11
5.6591330411
 21
11.0176669506
  0
LINE
  5
274
100
AcDbEntity
  8
0
100
AcDbLine
 62
9
  6
CONTINUOUS
 10
4.7641330411
 20
14.0176669506
 11
4.7641330411
 21
15.0176669506
  0
LINE
  5
275
100
AcDbEntity
  8
0
100
AcDbLine
 62
7
  6
CONTINUOUS
 10
4.7741330411
 20
15.0076669506
 11
4.7741330411
 21
14.0276669506
  0
LINE
  5
276
100
AcDbEntity
  8
0
100
AcDbLine
 62
7
  6
CONTINUOUS
 10
5.3991330411
 20
15.0076669506
 11
5.3991330411
 21
14.0276669506
  0
LINE
  5
277
100
AcDbEntity
  8
0
100
AcDbLine
 62
9
  6
CONTINUOUS
 10
5.4091330411
 20
15.0176669506
 11
5.4091330411
 21
14.0176669506
  0
LINE
  5
278
100
AcDbEntity
  8
0
100
AcDbLine
 62
7
  6
CONTINUOUS
 10
5.6491330411
 20
11.0276669506
 11
5.6491330411
 21
14.6326669506
  0
LINE
  5
279
100
AcDbEntity
  8
0
100
AcDbLine
 62
9
  6
CONTINUOUS
 10
5.6591330411
 20
14.6426669506
 11
5.6591330411
 21
11.0176669506
  0
LINE
  5
27A
100
AcDbEntity
  8
0
100
AcDbLine
 62
9
  6
CONTINUOUS
 10
6.3891330411
 20
11.0176669506
 11
6.3891330411
 21
14.6426669506
  0
LINE
  5
27B
100
AcDbEntity
  8
0
100
AcDbLine
 62
7
  6
CONTINUOUS
 10
6.3991330411
 20
14.6326669506
 11
6.3991330411
 21
11.0276669506
  0
LINE
  5
27C
100
AcDbEntity
  8
0
100
AcDbLine
 62
9
  6
CONTINUOUS
 10
6.6391330411
 20
14.0176669506
 11
6.6391330411
 21
15.0176669506
  0
LINE
  5
27D
100
AcDbEntity
  8
0
100
AcDbLine
 62
7
  6
CONTINUOUS
 10
6.6491330411
 20
15.0076669506
 11
6.6491330411
 21
14.0276669506
  0
LINE
  5
27E
100
AcDbEntity
  8
0
100
AcDbLine
 62
7
  6
CONTINUOUS
 10
8.7641330411
 20
14.0176669506
 11
7.2841330411
 21
14.0176669506
  0
LINE
  5
27F
100
AcDbEntity
  8
0
100
AcDbLine
 62
7
  6
CONTINUOUS
 10
6.6391330411
 20
14.0176669506
 11
6.3991330411
 21
14.0176669506
  0
LINE
  5
280
100
AcDbEntity
  8
0
100
AcDbLine
 62
7
  6
CONTINUOUS
 10
5.6491330411
 20
14.0176669506
 11
5.4091330411
 21
14.0176669506
  0
LINE
  5
281
100
AcDbEntity
  8
0
100
AcDbLine
 62
7
  6
CONTINUOUS
 10
4.7641330411
 20
14.0176669506
 11
3.2841330411
 21
14.0176669506
  0
LINE
  5
282
100
AcDbEntity
  8
0
100
AcDbLine
 62
9
  6
CONTINUOUS
 10
3.2741330411
 20
14.0276669506
 11
4.7741330411
 21
14.0276669506
  0
LINE
  5
283
100
AcDbEntity
  8
0
100
AcDbLine
 62
9
  6
CONTINUOUS
 10
5.3991330411
 20
14.0276669506
 11
5.6491330411
 21
14.0276669506
  0
LINE
  5
284
100
AcDbEntity
  8
0
100
AcDbLine
 62
9
  6
CONTINUOUS
 10
6.3991330411
 20
14.0276669506
 11
6.6491330411
 21
14.0276669506
  0
LINE
  5
285
100
AcDbEntity
  8
0
100
AcDbLine
 62
9
  6
CONTINUOUS
 10
7.2741330411
 20
14.0276669506
 11
8.7741330411
 21
14.0276669506
  0
LINE
  5
286
100
AcDbEntity
  8
0
100
AcDbLine
 62
7
  6
CONTINUOUS
 10
7.2741330411
 20
15.0076669506
 11
7.2741330411
 21
14.0276669506
  0
LINE
  5
287
100
AcDbEntity
  8
0
100
AcDbLine
 62
9
  6
CONTINUOUS
 10
7.2841330411
 20
15.0176669506
 11
7.2841330411
 21
14.0176669506
  0
LINE
  5
288
100
AcDbEntity
  8
0
100
AcDbLine
 62
7
  6
CONTINUOUS
 10
6.1033196797
 20
14.3926669506
 11
5.9449464025
 21
14.3926669506
  0
LINE
  5
289
100
AcDbEntity
  8
0
100
AcDbLine
 62
7
  6
CONTINUOUS
 10
8.7641330411
 20
14.4176669506
 11
7.2841330411
 21
14.4176669506
  0
LINE
  5
28A
100
AcDbEntity
  8
0
100
AcDbLine
 62
7
  6
CONTINUOUS
 10
4.7641330411
 20
14.4176669506
 11
3.2841330411
 21
14.4176669506
  0
LINE
  5
28B
100
AcDbEntity
  8
0
100
AcDbLine
 62
9
  6
CONTINUOUS
 10
3.2741330411
 20
14.4276669506
 11
4.7741330411
 21
14.4276669506
  0
LINE
  5
28C
100
AcDbEntity
  8
0
100
AcDbLine
 62
9
  6
CONTINUOUS
 10
7.2741330411
 20
14.4276669506
 11
8.7741330411
 21
14.4276669506
  0
LINE
  5
28D
100
AcDbEntity
  8
0
100
AcDbLine
 62
9
  6
CONTINUOUS
 10
8.7741330411
 20
14.6076669506
 11
7.2741330411
 21
14.6076669506
  0
LINE
  5
28E
100
AcDbEntity
  8
0
100
AcDbLine
 62
9
  6
CONTINUOUS
 10
4.7741330411
 20
14.6076669506
 11
3.2741330411
 21
14.6076669506
  0
LINE
  5
28F
100
AcDbEntity
  8
0
100
AcDbLine
 62
7
  6
CONTINUOUS
 10
8.7641330411
 20
14.6176669506
 11
7.2841330411
 21
14.6176669506
  0
LINE
  5
290
100
AcDbEntity
  8
0
100
AcDbLine
 62
7
  6
CONTINUOUS
 10
4.7641330411
 20
14.6176669506
 11
3.2841330411
 21
14.6176669506
  0
LINE
  5
291
100
AcDbEntity
  8
0
100
AcDbLine
 62
7
  6
CONTINUOUS
 10
5.6591330411
 20
14.6426669506
 11
6.3891330411
 21
14.6426669506
  0
LINE
  5
292
100
AcDbEntity
  8
0
100
AcDbLine
 62
9
  6
CONTINUOUS
 10
8.7741330411
 20
15.0076669506
 11
7.2741330411
 21
15.0076669506
  0
LINE
  5
293
100
AcDbEntity
  8
0
100
AcDbLine
 62
9
  6
CONTINUOUS
 10
6.6491330411
 20
15.0076669506
 11
5.3991330411
 21
15.0076669506
  0
LINE
  5
294
100
AcDbEntity
  8
0
100
AcDbLine
 62
9
  6
CONTINUOUS
 10
4.7741330411
 20
15.0076669506
 11
3.2741330411
 21
15.0076669506
  0
LINE
  5
295
100
AcDbEntity
  8
0
100
AcDbLine
 62
7
  6
CONTINUOUS
 10
8.7641330411
 20
15.0176669506
 11
7.2841330411
 21
15.0176669506
  0
LINE
  5
296
100
AcDbEntity
  8
0
100
AcDbLine
 62
7
  6
CONTINUOUS
 10
6.6391330411
 20
15.0176669506
 11
5.4091330411
 21
15.0176669506
  0
LINE
  5
297
100
AcDbEntity
  8
0
100
AcDbLine
 62
7
  6
CONTINUOUS
 10
4.7641330411
 20
15.0176669506
 11
3.2841330411
 21
15.0176669506
  0
LINE
  5
298
100
AcDbEntity
  8
0
100
AcDbLine
 62
9
  6
CONTINUOUS
 10
8.7641330411
 20
14.0176669506
 11
8.7641330411
 21
15.0176669506
  0
LINE
  5
299
100
AcDbEntity
  8
0
100
AcDbLine
 62
7
  6
CONTINUOUS
 10
8.7741330411
 20
15.0076669506
 11
8.7741330411
 21
14.0276669506
  0
LINE
  5
29A
100
AcDbEntity
  8
0
100
AcDbLine
 62
7
  6
CONTINUOUS
 10
12.3405977234
 20
10.2453506793
 11
13.0335623689
 21
9.8988683565
  0
LINE
  5
29B
100
AcDbEntity
  8
0
100
AcDbLine
 62
9
  6
CONTINUOUS
 10
13.0335623689
 20
10.0634131832
 11
12.3405977234
 21
10.409895506
  0
LINE
  5
29C
100
AcDbEntity
  8
0
100
AcDbLine
 62
7
  6
CONTINUOUS
 10
12.7533185883
 20
10.2167463095
 11
12.6260393677
 21
10.2803859198
  0
LINE
  5
29D
100
AcDbEntity
  8
0
100
AcDbLine
 62
7
  6
CONTINUOUS
 10
12.6305115037
 20
10.2806699377
 11
12.750083982
 21
10.2208836986
  0
LINE
  5
29E
100
AcDbEntity
  8
0
100
AcDbLine
 62
9
  6
CONTINUOUS
 10
12.3476687912
 20
10.422091294
 11
12.621853925
 21
10.284998727
  0
LINE
  5
29F
100
AcDbEntity
  8
0
100
AcDbLine
 62
9
  6
CONTINUOUS
 10
12.7597887327
 20
10.2160313232
 11
13.0406334367
 21
10.0756089712
  0
LINE
  5
2A0
100
AcDbEntity
  8
0
100
AcDbLine
 62
9
  6
CONTINUOUS
 10
12.6234404358
 20
10.2857946578
 11
12.7507196565
 21
10.2221550475
  0
LINE
  5
2A1
100
AcDbEntity
  8
0
100
AcDbLine
 62
7
  6
CONTINUOUS
 10
12.3376687912
 20
10.4134310399
 11
12.3376687912
 21
10.2488862132
  0
LINE
  5
2A2
100
AcDbEntity
  8
0
100
AcDbLine
 62
9
  6
CONTINUOUS
 10
12.3405977234
 20
10.409895506
 11
12.3405977234
 21
10.2453506793
  0
LINE
  5
2A3
100
AcDbEntity
  8
0
100
AcDbLine
 62
9
  6
CONTINUOUS
 10
12.7507196565
 20
10.7461004168
 11
12.6234404358
 21
10.8097400271
  0
LINE
  5
2A4
100
AcDbEntity
  8
0
100
AcDbLine
 62
9
  6
CONTINUOUS
 10
12.6305115037
 20
10.8219358151
 11
12.7577907243
 21
10.7582962048
  0
LINE
  5
2A5
100
AcDbEntity
  8
0
100
AcDbLine
 62
7
  6
CONTINUOUS
 10
12.6205115059
 20
10.2893335531
 11
12.6205116954
 21
10.2892992281
  0
LINE
  5
2A6
100
AcDbEntity
  8
0
100
AcDbLine
 62
7
  6
CONTINUOUS
 10
12.6205115037
 20
10.813275561
 11
12.6205115037
 21
10.2893301918
  0
LINE
  5
2A7
100
AcDbEntity
  8
0
100
AcDbLine
 62
9
  6
CONTINUOUS
 10
12.6234404358
 20
10.8097400271
 11
12.6234404358
 21
10.2857946578
  0
LINE
  5
2A8
100
AcDbEntity
  8
0
100
AcDbLine
 62
9
  6
CONTINUOUS
 10
12.7507196565
 20
10.2221550475
 11
12.7507196565
 21
10.7461004168
  0
LINE
  5
2A9
100
AcDbEntity
  8
0
100
AcDbLine
 62
9
  6
CONTINUOUS
 10
12.7648617921
 20
10.7461004168
 11
12.7648617921
 21
10.2221550475
  0
LINE
  5
2AA
100
AcDbEntity
  8
0
100
AcDbLine
 62
7
  6
CONTINUOUS
 10
14.7561977707
 20
14.9709512048
 11
15.272385721
 21
15.2290451799
  0
LINE
  5
2AB
100
AcDbEntity
  8
0
100
AcDbLine
 62
9
  6
CONTINUOUS
 10
14.0871514729
 20
10.5988679893
 11
13.8080126806
 21
10.7384373854
  0
LINE
  5
2AC
100
AcDbEntity
  8
0
100
AcDbLine
 62
7
  6
CONTINUOUS
 10
14.0916236089
 20
10.5991520071
 11
13.8090207149
 21
10.7404534541
  0
LINE
  5
2AD
100
AcDbEntity
  8
0
100
AcDbLine
 62
9
  6
CONTINUOUS
 10
13.0335623689
 20
9.8988683565
 11
13.0335623689
 21
10.0634131832
  0
LINE
  5
2AE
100
AcDbEntity
  8
0
100
AcDbLine
 62
9
  6
CONTINUOUS
 10
13.0477045046
 20
10.0634131832
 11
13.0477045046
 21
9.8988683565
  0
LINE
  5
2AF
100
AcDbEntity
  8
0
100
AcDbLine
 62
7
  6
CONTINUOUS
 10
13.8431996334
 20
10.9966516343
 11
14.536164279
 21
10.6501693115
  0
LINE
  5
2B0
100
AcDbEntity
  8
0
100
AcDbLine
 62
9
  6
CONTINUOUS
 10
14.536164279
 20
10.8147141382
 11
13.8431996334
 21
11.161196461
  0
LINE
  5
2B1
100
AcDbEntity
  8
0
100
AcDbLine
 62
9
  6
CONTINUOUS
 10
13.8502707012
 20
11.173392249
 11
14.5432353468
 21
10.8269099262
  0
LINE
  5
2B2
100
AcDbEntity
  8
0
100
AcDbLine
 62
9
  6
CONTINUOUS
 10
13.8043087604
 20
11.2815552229
 11
13.6770295398
 21
11.3451948332
  0
LINE
  5
2B3
100
AcDbEntity
  8
0
100
AcDbLine
 62
7
  6
CONTINUOUS
 10
13.8087808964
 20
11.2818392407
 11
13.6815016758
 21
11.345478851
  0
LINE
  5
2B4
100
AcDbEntity
  8
0
100
AcDbLine
 62
7
  6
CONTINUOUS
 10
14.2851413716
 20
11.1256625412
 11
14.4477759313
 21
11.0443452614
  0
LINE
  5
2B5
100
AcDbEntity
  8
0
100
AcDbLine
 62
9
  6
CONTINUOUS
 10
14.4619180669
 20
13.9022290939
 11
14.9781060172
 21
14.160323069
  0
LINE
  5
2B6
100
AcDbEntity
  8
0
100
AcDbLine
 62
9
  6
CONTINUOUS
 10
13.8113798282
 20
10.7454140656
 11
13.8113798282
 21
11.2693594349
  0
LINE
  5
2B7
100
AcDbEntity
  8
0
100
AcDbLine
 62
7
  6
CONTINUOUS
 10
13.8143087604
 20
11.2728949688
 11
13.8143087604
 21
10.7489495995
  0
LINE
  5
2B8
100
AcDbEntity
  8
0
100
AcDbLine
 62
7
  6
CONTINUOUS
 10
13.8402707012
 20
11.1647319949
 11
13.8402707012
 21
11.0001871682
  0
LINE
  5
2B9
100
AcDbEntity
  8
0
100
AcDbLine
 62
9
  6
CONTINUOUS
 10
13.8431996334
 20
11.161196461
 11
13.8431996334
 21
10.9966516343
  0
LINE
  5
2BA
100
AcDbEntity
  8
0
100
AcDbLine
 62
7
  6
CONTINUOUS
 10
13.8402707035
 20
11.1647286336
 11
13.840270893
 21
11.1647629586
  0
LINE
  5
2BB
100
AcDbEntity
  8
0
100
AcDbLine
 62
7
  6
CONTINUOUS
 10
14.7520765345
 20
11.4186362543
 11
14.7614773174
 21
11.4208904939
  0
LINE
  5
2BC
100
AcDbEntity
  8
0
100
AcDbLine
 62
7
  6
CONTINUOUS
 10
14.6640186329
 20
11.3745736175
 11
14.670533362
 21
11.3753464439
  0
LINE
  5
2BD
100
AcDbEntity
  8
0
100
AcDbLine
 62
9
  6
CONTINUOUS
 10
14.0942225407
 20
10.4221273746
 11
14.0942225407
 21
10.5866722013
  0
LINE
  5
2BE
100
AcDbEntity
  8
0
100
AcDbLine
 62
7
  6
CONTINUOUS
 10
14.0971514729
 20
10.5902077352
 11
14.0971514729
 21
10.4256629085
  0
LINE
  5
2BF
100
AcDbEntity
  8
0
100
AcDbLine
 62
9
  6
CONTINUOUS
 10
15.4129766876
 20
11.2617805966
 11
14.9810349494
 21
11.4777514657
  0
LINE
  5
2C0
100
AcDbEntity
  8
0
100
AcDbLine
 62
7
  6
CONTINUOUS
 10
15.4174488236
 20
11.2620646145
 11
14.9810349494
 21
11.4802715516
  0
LINE
  5
2C1
100
AcDbEntity
  8
0
100
AcDbLine
 62
7
  6
CONTINUOUS
 10
14.2822124394
 20
13.9870819076
 11
14.2822124394
 21
11.1291980751
  0
LINE
  5
2C2
100
AcDbEntity
  8
0
100
AcDbLine
 62
9
  6
CONTINUOUS
 10
14.2851413716
 20
13.9835463737
 11
14.2851413716
 21
11.1256625412
  0
LINE
  5
2C3
100
AcDbEntity
  8
0
100
AcDbLine
 62
7
  6
CONTINUOUS
 10
15.1690248481
 20
11.6595642417
 11
15.8619894937
 21
11.3130819189
  0
LINE
  5
2C4
100
AcDbEntity
  8
0
100
AcDbLine
 62
9
  6
CONTINUOUS
 10
15.8619894937
 20
11.4776267456
 11
15.1690248481
 21
11.8241090684
  0
LINE
  5
2C5
100
AcDbEntity
  8
0
100
AcDbLine
 62
7
  6
CONTINUOUS
 10
15.5817457131
 20
11.6309598719
 11
15.4544664924
 21
11.6945994822
  0
LINE
  5
2C6
100
AcDbEntity
  8
0
100
AcDbLine
 62
7
  6
CONTINUOUS
 10
15.4589386284
 20
11.6948835001
 11
15.5785111067
 21
11.6350972609
  0
LINE
  5
2C7
100
AcDbEntity
  8
0
100
AcDbLine
 62
9
  6
CONTINUOUS
 10
15.1760959159
 20
11.8363048563
 11
15.4502810498
 21
11.6992122894
  0
LINE
  5
2C8
100
AcDbEntity
  8
0
100
AcDbLine
 62
9
  6
CONTINUOUS
 10
15.5882158575
 20
11.6302448856
 11
15.8690605615
 21
11.4898225335
  0
LINE
  5
2C9
100
AcDbEntity
  8
0
100
AcDbLine
 62
9
  6
CONTINUOUS
 10
15.4518675606
 20
11.7000082202
 11
15.5791467812
 21
11.6363686099
  0
LINE
  5
2CA
100
AcDbEntity
  8
0
100
AcDbLine
 62
7
  6
CONTINUOUS
 10
14.6875337028
 20
11.366993823
 11
14.683916541
 21
11.3810685817
  0
LINE
  5
2CB
100
AcDbEntity
  8
0
100
AcDbLine
 62
7
  6
CONTINUOUS
 10
14.6721299024
 20
11.3688673635
 11
14.6961438912
 21
11.269711349
  0
LINE
  5
2CC
100
AcDbEntity
  8
0
100
AcDbLine
 62
7
  6
CONTINUOUS
 10
14.670533362
 20
11.3753464439
 11
14.6718126412
 21
11.3700475554
  0
LINE
  5
2CD
100
AcDbEntity
  8
0
100
AcDbLine
 62
9
  6
CONTINUOUS
 10
14.4477759313
 20
11.0443452614
 11
14.4477759313
 21
13.9022290939
  0
LINE
  5
2CE
100
AcDbEntity
  8
0
100
AcDbLine
 62
9
  6
CONTINUOUS
 10
14.4619180669
 20
13.9022290939
 11
14.4619180669
 21
11.0443452614
  0
LINE
  5
2CF
100
AcDbEntity
  8
0
100
AcDbLine
 62
9
  6
CONTINUOUS
 10
14.536164279
 20
10.6501693115
 11
14.536164279
 21
10.8147141382
  0
LINE
  5
2D0
100
AcDbEntity
  8
0
100
AcDbLine
 62
9
  6
CONTINUOUS
 10
14.5503064146
 20
10.8147141382
 11
14.5503064146
 21
10.6501693115
  0
LINE
  5
2D1
100
AcDbEntity
  8
0
100
AcDbLine
 62
7
  6
CONTINUOUS
 10
14.7186883689
 20
11.3619864512
 11
14.7368140945
 21
11.2900464507
  0
LINE
  5
2D2
100
AcDbEntity
  8
0
100
AcDbLine
 62
7
  6
CONTINUOUS
 10
14.7385615899
 20
11.3008646182
 11
14.7220582491
 21
11.3668584534
  0
LINE
  5
2D3
100
AcDbEntity
  8
0
100
AcDbLine
 62
7
  6
CONTINUOUS
 10
14.7431514127
 20
11.3240970725
 11
14.7309581942
 21
11.3743182307
  0
LINE
  5
2D4
100
AcDbEntity
  8
0
100
AcDbLine
 62
7
  6
CONTINUOUS
 10
14.7027731275
 20
11.3039068254
 11
14.6875337028
 21
11.366993823
  0
LINE
  5
2D5
100
AcDbEntity
  8
0
100
AcDbLine
 62
7
  6
CONTINUOUS
 10
14.6640186329
 20
11.3792477455
 11
14.6640186329
 21
11.3745736175
  0
LINE
  5
2D6
100
AcDbEntity
  8
0
100
AcDbLine
 62
7
  6
CONTINUOUS
 10
14.7760054512
 20
11.4304510841
 11
14.7760054512
 21
11.4352411547
  0
LINE
  5
2D7
100
AcDbEntity
  8
0
100
AcDbLine
 62
9
  6
CONTINUOUS
 10
15.5791467812
 20
12.1603139792
 11
15.4518675606
 21
12.2239535895
  0
LINE
  5
2D8
100
AcDbEntity
  8
0
100
AcDbLine
 62
9
  6
CONTINUOUS
 10
15.4589386284
 20
12.2361493775
 11
15.586217849
 21
12.1725097671
  0
LINE
  5
2D9
100
AcDbEntity
  8
0
100
AcDbLine
 62
9
  6
CONTINUOUS
 10
14.9781060172
 20
11.3024392365
 11
14.9781060172
 21
14.160323069
  0
LINE
  5
2DA
100
AcDbEntity
  8
0
100
AcDbLine
 62
7
  6
CONTINUOUS
 10
14.9810349494
 20
14.1638586029
 11
14.9810349494
 21
11.3059747704
  0
LINE
  5
2DB
100
AcDbEntity
  8
0
100
AcDbLine
 62
7
  6
CONTINUOUS
 10
14.7614773174
 20
11.4208904939
 11
14.7582746421
 21
11.4027136869
  0
LINE
  5
2DC
100
AcDbEntity
  8
0
100
AcDbLine
 62
7
  6
CONTINUOUS
 10
14.7014471429
 20
11.2723629749
 11
14.7186883689
 21
11.3619864512
  0
LINE
  5
2DD
100
AcDbEntity
  8
0
100
AcDbLine
 62
7
  6
CONTINUOUS
 10
14.765329227
 20
11.412363997
 11
14.7675666862
 21
11.4239351783
  0
LINE
  5
2DE
100
AcDbEntity
  8
0
100
AcDbLine
 62
7
  6
CONTINUOUS
 10
14.7421269409
 20
11.2927028738
 11
14.7646576054
 21
11.4091738855
  0
LINE
  5
2DF
100
AcDbEntity
  8
0
100
AcDbLine
 62
7
  6
CONTINUOUS
 10
14.7565610476
 20
11.3932152562
 11
14.7431514127
 21
11.3240970725
  0
LINE
  5
2E0
100
AcDbEntity
  8
0
100
AcDbLine
 62
7
  6
CONTINUOUS
 10
14.7401191122
 20
11.3088036124
 11
14.7385615899
 21
11.3008646182
  0
LINE
  5
2E1
100
AcDbEntity
  8
0
100
AcDbLine
 62
7
  6
CONTINUOUS
 10
14.6997776836
 20
11.2883994463
 11
14.6981286928
 21
11.2799995184
  0
LINE
  5
2E2
100
AcDbEntity
  8
0
100
AcDbLine
 62
7
  6
CONTINUOUS
 10
14.7143672228
 20
11.3628562612
 11
14.7027731275
 21
11.3039068254
  0
LINE
  5
2E3
100
AcDbEntity
  8
0
100
AcDbLine
 62
7
  6
CONTINUOUS
 10
15.1660959159
 20
11.8276446023
 11
15.1660959159
 21
11.6630997756
  0
LINE
  5
2E4
100
AcDbEntity
  8
0
100
AcDbLine
 62
9
  6
CONTINUOUS
 10
15.1690248481
 20
11.8241090684
 11
15.1690248481
 21
11.6595642417
  0
LINE
  5
2E5
100
AcDbEntity
  8
0
100
AcDbLine
 62
9
  6
CONTINUOUS
 10
16.9155785976
 20
12.0130815516
 11
16.6364398053
 21
12.1526509478
  0
LINE
  5
2E6
100
AcDbEntity
  8
0
100
AcDbLine
 62
7
  6
CONTINUOUS
 10
16.9200507336
 20
12.0133655695
 11
16.6374478396
 21
12.1546670165
  0
LINE
  5
2E7
100
AcDbEntity
  8
0
100
AcDbLine
 62
7
  6
CONTINUOUS
 10
15.4489386307
 20
11.7035471154
 11
15.4489388202
 21
11.7035127905
  0
LINE
  5
2E8
100
AcDbEntity
  8
0
100
AcDbLine
 62
9
  6
CONTINUOUS
 10
15.4200477554
 20
11.085039982
 11
15.4200477554
 21
11.2495848087
  0
LINE
  5
2E9
100
AcDbEntity
  8
0
100
AcDbLine
 62
7
  6
CONTINUOUS
 10
15.4229766876
 20
11.2531203426
 11
15.4229766876
 21
11.0885755159
  0
LINE
  5
2EA
100
AcDbEntity
  8
0
100
AcDbLine
 62
7
  6
CONTINUOUS
 10
15.4489386284
 20
12.2274891234
 11
15.4489386284
 21
11.7035437541
  0
LINE
  5
2EB
100
AcDbEntity
  8
0
100
AcDbLine
 62
9
  6
CONTINUOUS
 10
15.4518675606
 20
12.2239535895
 11
15.4518675606
 21
11.7000082202
  0
LINE
  5
2EC
100
AcDbEntity
  8
0
100
AcDbLine
 62
9
  6
CONTINUOUS
 10
15.5791467812
 20
11.6363686099
 11
15.5791467812
 21
12.1603139792
  0
LINE
  5
2ED
100
AcDbEntity
  8
0
100
AcDbLine
 62
9
  6
CONTINUOUS
 10
15.5932889168
 20
12.1603139792
 11
15.5932889168
 21
11.6363686099
  0
LINE
  5
2EE
100
AcDbEntity
  8
0
100
AcDbLine
 62
7
  6
CONTINUOUS
 10
14.7351855722
 20
11.4818416735
 11
14.7441143011
 21
11.4929151524
  0
LINE
  5
2EF
100
AcDbEntity
  8
0
100
AcDbLine
 62
7
  6
CONTINUOUS
 10
16.5009845286
 20
12.7596924134
 11
15.4544664924
 21
12.2364333953
  0
LINE
  5
2F0
100
AcDbEntity
  8
0
100
AcDbLine
 62
7
  6
CONTINUOUS
 10
13.6725574039
 20
11.345478851
 11
12.6260393677
 21
10.822219833
  0
LINE
  5
2F1
100
AcDbEntity
  8
0
100
AcDbLine
 62
9
  6
CONTINUOUS
 10
16.5054566646
 20
12.7594083955
 11
15.4589386284
 21
12.2361493775
  0
LINE
  5
2F2
100
AcDbEntity
  8
0
100
AcDbLine
 62
9
  6
CONTINUOUS
 10
13.6770295398
 20
11.3451948332
 11
12.6305115037
 21
10.8219358151
  0
LINE
  5
2F3
100
AcDbEntity
  8
0
100
AcDbLine
 62
9
  6
CONTINUOUS
 10
12.7577907243
 20
10.7582962048
 11
13.8043087604
 21
11.2815552229
  0
LINE
  5
2F4
100
AcDbEntity
  8
0
100
AcDbLine
 62
9
  6
CONTINUOUS
 10
15.586217849
 20
12.1725097671
 11
16.6327358852
 21
12.6957687852
  0
LINE
  5
2F5
100
AcDbEntity
  8
0
100
AcDbLine
 62
9
  6
CONTINUOUS
 10
16.639806953
 20
12.6835729973
 11
15.5932889168
 21
12.1603139792
  0
LINE
  5
2F6
100
AcDbEntity
  8
0
100
AcDbLine
 62
9
  6
CONTINUOUS
 10
13.8113798282
 20
11.2693594349
 11
12.7648617921
 21
10.7461004168
  0
LINE
  5
2F7
100
AcDbEntity
  8
0
100
AcDbLine
 62
9
  6
CONTINUOUS
 10
15.4544645993
 20
12.2364324481
 11
15.4544726881
 21
12.236436486
  0
LINE
  5
2F8
100
AcDbEntity
  8
0
100
AcDbLine
 62
9
  6
CONTINUOUS
 10
12.6260374746
 20
10.8222188857
 11
12.6260455634
 21
10.8222229237
  0
LINE
  5
2F9
100
AcDbEntity
  8
0
100
AcDbLine
 62
7
  6
CONTINUOUS
 10
16.8342613178
 20
12.340925604
 11
16.6716267581
 21
12.4222428839
  0
LINE
  5
2FA
100
AcDbEntity
  8
0
100
AcDbLine
 62
9
  6
CONTINUOUS
 10
15.8619894937
 20
11.3130819189
 11
15.8619894937
 21
11.4776267456
  0
LINE
  5
2FB
100
AcDbEntity
  8
0
100
AcDbLine
 62
7
  6
CONTINUOUS
 10
14.7675666862
 20
11.4239351783
 11
14.7760054512
 21
11.4304510841
  0
LINE
  5
2FC
100
AcDbEntity
  8
0
100
AcDbLine
 62
9
  6
CONTINUOUS
 10
17.3645914037
 20
12.9670803758
 11
16.8484034534
 21
12.7089864006
  0
LINE
  5
2FD
100
AcDbEntity
  8
0
100
AcDbLine
 62
7
  6
CONTINUOUS
 10
15.4489386284
 20
11.9752462984
 11
15.17162378
 21
11.8365888742
  0
LINE
  5
2FE
100
AcDbEntity
  8
0
100
AcDbLine
 62
7
  6
CONTINUOUS
 10
14.2822124394
 20
11.3918832039
 11
13.8457985652
 21
11.1736762668
  0
LINE
  5
2FF
100
AcDbEntity
  8
0
100
AcDbLine
 62
7
  6
CONTINUOUS
 10
12.6205115037
 20
10.561032736
 11
12.3431966552
 21
10.4223753118
  0
LINE
  5
300
100
AcDbEntity
  8
0
100
AcDbLine
 62
9
  6
CONTINUOUS
 10
15.4489386284
 20
11.9727262126
 11
15.1760959159
 21
11.8363048563
  0
LINE
  5
301
100
AcDbEntity
  8
0
100
AcDbLine
 62
9
  6
CONTINUOUS
 10
14.2822124394
 20
11.3893631181
 11
13.8502707012
 21
11.173392249
  0
LINE
  5
302
100
AcDbEntity
  8
0
100
AcDbLine
 62
9
  6
CONTINUOUS
 10
12.6205115037
 20
10.5585126502
 11
12.3476687912
 21
10.422091294
  0
LINE
  5
303
100
AcDbEntity
  8
0
100
AcDbLine
 62
7
  6
CONTINUOUS
 10
14.7760054512
 20
11.4352411547
 11
14.7521903904
 21
11.4233336243
  0
LINE
  5
304
100
AcDbEntity
  8
0
100
AcDbLine
 62
7
  6
CONTINUOUS
 10
14.6945204859
 20
11.394498672
 11
14.6640186329
 21
11.3792477455
  0
LINE
  5
305
100
AcDbEntity
  8
0
100
AcDbLine
 62
9
  6
CONTINUOUS
 10
15.1716218869
 20
11.836587927
 11
15.1716299757
 21
11.8365919649
  0
LINE
  5
306
100
AcDbEntity
  8
0
100
AcDbLine
 62
9
  6
CONTINUOUS
 10
12.3431947621
 20
10.4223743646
 11
12.3432028509
 21
10.4223784025
  0
LINE
  5
307
100
AcDbEntity
  8
0
100
AcDbLine
 62
9
  6
CONTINUOUS
 10
16.6327358852
 20
12.6957687852
 11
16.5054566646
 21
12.7594083955
  0
LINE
  5
308
100
AcDbEntity
  8
0
100
AcDbLine
 62
7
  6
CONTINUOUS
 10
16.6372080211
 20
12.6960528031
 11
16.5099288005
 21
12.7596924134
  0
LINE
  5
309
100
AcDbEntity
  8
0
100
AcDbLine
 62
9
  6
CONTINUOUS
 10
15.8761316293
 20
11.4776267456
 11
15.8761316293
 21
11.3130819189
  0
LINE
  5
30A
100
AcDbEntity
  8
0
100
AcDbLine
 62
7
  6
CONTINUOUS
 10
14.6961438912
 20
11.269711349
 11
14.7014471429
 21
11.2723629749
  0
LINE
  5
30B
100
AcDbEntity
  8
0
100
AcDbLine
 62
7
  6
CONTINUOUS
 10
14.7368140945
 20
11.2900464507
 11
14.7421269409
 21
11.2927028738
  0
LINE
  5
30C
100
AcDbEntity
  8
0
100
AcDbLine
 62
7
  6
CONTINUOUS
 10
16.8484034534
 20
12.340925604
 11
17.3645914037
 21
12.5990195792
  0
LINE
  5
30D
100
AcDbEntity
  8
0
100
AcDbLine
 62
9
  6
CONTINUOUS
 10
12.7648617921
 20
10.2221550475
 11
13.8113798282
 21
10.7454140656
  0
LINE
  5
30E
100
AcDbEntity
  8
0
100
AcDbLine
 62
9
  6
CONTINUOUS
 10
15.5932889168
 20
11.6363686099
 11
16.639806953
 21
12.159627628
  0
LINE
  5
30F
100
AcDbEntity
  8
0
100
AcDbLine
 62
7
  6
CONTINUOUS
 10
16.6327358852
 20
12.1545029079
 11
15.5939245913
 21
11.6350972609
  0
LINE
  5
310
100
AcDbEntity
  8
0
100
AcDbLine
 62
7
  6
CONTINUOUS
 10
13.8043087604
 20
10.7402893455
 11
12.7654974666
 21
10.2208836986
  0
LINE
  5
311
100
AcDbEntity
  8
0
100
AcDbLine
 62
7
  6
CONTINUOUS
 10
16.6372080211
 20
12.15421889
 11
15.590689985
 21
11.6309598719
  0
LINE
  5
312
100
AcDbEntity
  8
0
100
AcDbLine
 62
7
  6
CONTINUOUS
 10
13.8087808964
 20
10.7400053276
 11
12.7622628602
 21
10.2167463095
  0
LINE
  5
313
100
AcDbEntity
  8
0
100
AcDbLine
 62
7
  6
CONTINUOUS
 10
14.4619180669
 20
11.0443452614
 11
14.9781060172
 21
11.3024392365
  0
LINE
  5
314
100
AcDbEntity
  8
0
100
AcDbLine
 62
9
  6
CONTINUOUS
 10
13.0406334367
 20
10.0756089712
 11
14.0871514729
 21
10.5988679893
  0
LINE
  5
315
100
AcDbEntity
  8
0
100
AcDbLine
 62
9
  6
CONTINUOUS
 10
14.5432353468
 20
10.8269099262
 11
15.4129766876
 21
11.2617805966
  0
LINE
  5
316
100
AcDbEntity
  8
0
100
AcDbLine
 62
9
  6
CONTINUOUS
 10
15.8690605615
 20
11.4898225335
 11
16.9155785976
 21
12.0130815516
  0
LINE
  5
317
100
AcDbEntity
  8
0
100
AcDbLine
 62
9
  6
CONTINUOUS
 10
16.9226496655
 20
12.0008857637
 11
15.8761316293
 21
11.4776267456
  0
LINE
  5
318
100
AcDbEntity
  8
0
100
AcDbLine
 62
9
  6
CONTINUOUS
 10
15.4200477554
 20
11.2495848087
 11
14.5503064146
 21
10.8147141382
  0
LINE
  5
319
100
AcDbEntity
  8
0
100
AcDbLine
 62
9
  6
CONTINUOUS
 10
14.0942225407
 20
10.5866722013
 11
13.0477045046
 21
10.0634131832
  0
LINE
  5
31A
100
AcDbEntity
  8
0
100
AcDbLine
 62
7
  6
CONTINUOUS
 10
13.0477045046
 20
9.8988683565
 11
14.0942225407
 21
10.4221273746
  0
LINE
  5
31B
100
AcDbEntity
  8
0
100
AcDbLine
 62
7
  6
CONTINUOUS
 10
14.5503064146
 20
10.6501693115
 11
15.4200477554
 21
11.085039982
  0
LINE
  5
31C
100
AcDbEntity
  8
0
100
AcDbLine
 62
7
  6
CONTINUOUS
 10
15.8761316293
 20
11.3130819189
 11
16.9226496655
 21
11.836340937
  0
LINE
  5
31D
100
AcDbEntity
  8
0
100
AcDbLine
 62
9
  6
CONTINUOUS
 10
16.639806953
 20
12.159627628
 11
16.639806953
 21
12.6835729973
  0
LINE
  5
31E
100
AcDbEntity
  8
0
100
AcDbLine
 62
7
  6
CONTINUOUS
 10
16.6427358852
 20
12.6871085312
 11
16.6427358852
 21
12.1631631619
  0
LINE
  5
31F
100
AcDbEntity
  8
0
100
AcDbLine
 62
7
  6
CONTINUOUS
 10
16.6686978259
 20
12.4257784178
 11
16.6686978259
 21
12.7938392144
  0
LINE
  5
320
100
AcDbEntity
  8
0
100
AcDbLine
 62
9
  6
CONTINUOUS
 10
16.6716267581
 20
12.7903036805
 11
16.6716267581
 21
12.4222428839
  0
LINE
  5
321
100
AcDbEntity
  8
0
100
AcDbLine
 62
9
  6
CONTINUOUS
 10
16.8342613178
 20
12.340925604
 11
16.8342613178
 21
12.7089864006
  0
LINE
  5
322
100
AcDbEntity
  8
0
100
AcDbLine
 62
9
  6
CONTINUOUS
 10
16.8484034534
 20
12.7089864006
 11
16.8484034534
 21
12.340925604
  0
LINE
  5
323
100
AcDbEntity
  8
0
100
AcDbLine
 62
9
  6
CONTINUOUS
 10
16.9226496655
 20
11.836340937
 11
16.9226496655
 21
12.0008857637
  0
LINE
  5
324
100
AcDbEntity
  8
0
100
AcDbLine
 62
7
  6
CONTINUOUS
 10
16.9255785976
 20
12.0044212976
 11
16.9255785976
 21
11.8398764709
  0
LINE
  5
325
100
AcDbEntity
  8
0
100
AcDbLine
 62
9
  6
CONTINUOUS
 10
17.3645914037
 20
12.5990195792
 11
17.3645914037
 21
12.9670803758
  0
LINE
  5
326
100
AcDbEntity
  8
0
100
AcDbLine
 62
7
  6
CONTINUOUS
 10
17.3675203359
 20
12.6025551131
 11
17.3675203359
 21
12.9706159097
  0
ARC
  5
327
100
AcDbEntity
  8
0
100
AcDbCircle
 62
7
  6
CONTINUOUS
 10
4.7641330411
 20
2.5353852227
 40
0.01
100
AcDbArc
 50
0.0
 51
90.0
  0
ARC
  5
328
100
AcDbEntity
  8
0
100
AcDbCircle
 62
7
  6
CONTINUOUS
 10
3.2841330411
 20
2.5353852227
 40
0.01
100
AcDbArc
 50
90.0
 51
180.0
  0
ARC
  5
329
100
AcDbEntity
  8
0
100
AcDbCircle
 62
7
  6
CONTINUOUS
 10
4.7641330411
 20
2.5553852227
 40
0.01
100
AcDbArc
 50
270.0
 51
360.0
  0
ARC
  5
32A
100
AcDbEntity
  8
0
100
AcDbCircle
 62
7
  6
CONTINUOUS
 10
5.4091330411
 20
2.5353852227
 40
0.01
100
AcDbArc
 50
90.0
 51
180.0
  0
ARC
  5
32B
100
AcDbEntity
  8
0
100
AcDbCircle
 62
7
  6
CONTINUOUS
 10
3.2841330411
 20
3.1603852227
 40
0.01
100
AcDbArc
 50
90.0
 51
180.0
  0
ARC
  5
32C
100
AcDbEntity
  8
0
100
AcDbCircle
 62
7
  6
CONTINUOUS
 10
4.7641330411
 20
3.1603852227
 40
0.01
100
AcDbArc
 50
0.0
 51
90.0
  0
ARC
  5
32D
100
AcDbEntity
  8
0
100
AcDbCircle
 62
7
  6
CONTINUOUS
 10
3.2841330411
 20
2.5553852227
 40
0.01
100
AcDbArc
 50
180.0
 51
270.0
  0
ARC
  5
32E
100
AcDbEntity
  8
0
100
AcDbCircle
 62
7
  6
CONTINUOUS
 10
5.6591330411
 20
7.6478852227
 40
0.01
100
AcDbArc
 50
90.0
 51
180.0
  0
ARC
  5
32F
100
AcDbEntity
  8
0
100
AcDbCircle
 62
7
  6
CONTINUOUS
 10
6.1475709739
 20
2.7762766515
 40
0.0622820074
100
AcDbArc
 50
162.3485824454
 51
165.5043674766
  0
ARC
  5
330
100
AcDbEntity
  8
0
100
AcDbCircle
 62
7
  6
CONTINUOUS
 10
7.2841330411
 20
2.5353852227
 40
0.01
100
AcDbArc
 50
90.0
 51
180.0
  0
ARC
  5
331
100
AcDbEntity
  8
0
100
AcDbCircle
 62
7
  6
CONTINUOUS
 10
7.2841330411
 20
2.5553852227
 40
0.01
100
AcDbArc
 50
180.0
 51
270.0
  0
ARC
  5
332
100
AcDbEntity
  8
0
100
AcDbCircle
 62
7
  6
CONTINUOUS
 10
6.6391330411
 20
2.5353852227
 40
0.01
100
AcDbArc
 50
0.0
 51
90.0
  0
ARC
  5
333
100
AcDbEntity
  8
0
100
AcDbCircle
 62
7
  6
CONTINUOUS
 10
7.2841330411
 20
3.1603852227
 40
0.01
100
AcDbArc
 50
90.0
 51
180.0
  0
ARC
  5
334
100
AcDbEntity
  8
0
100
AcDbCircle
 62
7
  6
CONTINUOUS
 10
8.7641330411
 20
2.5553852227
 40
0.01
100
AcDbArc
 50
270.0
 51
360.0
  0
ARC
  5
335
100
AcDbEntity
  8
0
100
AcDbCircle
 62
7
  6
CONTINUOUS
 10
8.7641330411
 20
2.5353852227
 40
0.01
100
AcDbArc
 50
0.0
 51
90.0
  0
ARC
  5
336
100
AcDbEntity
  8
0
100
AcDbCircle
 62
7
  6
CONTINUOUS
 10
8.7641330411
 20
3.1603852227
 40
0.01
100
AcDbArc
 50
0.0
 51
90.0
  0
ARC
  5
337
100
AcDbEntity
  8
0
100
AcDbCircle
 62
7
  6
CONTINUOUS
 10
6.3891330411
 20
7.6478852227
 40
0.01
100
AcDbArc
 50
0.0
 51
90.0
  0
ARC
  5
338
100
AcDbEntity
  8
0
100
AcDbCircle
 62
7
  6
CONTINUOUS
 10
15.5100528798
 20
5.8453852227
 40
1.8125
100
AcDbArc
 50
0.0
 51
180.0
  0
ARC
  5
339
100
AcDbEntity
  8
0
100
AcDbCircle
 62
9
  6
CONTINUOUS
 10
15.5100528798
 20
5.8453852227
 40
1.8025
100
AcDbArc
 50
0.0
 51
180.0
  0
ARC
  5
33A
100
AcDbEntity
  8
0
100
AcDbCircle
 62
9
  6
CONTINUOUS
 10
15.5100528798
 20
5.8453852227
 40
1.5724999925
100
AcDbArc
 50
0.0
 51
180.0
  0
ARC
  5
33B
100
AcDbEntity
  8
0
100
AcDbCircle
 62
7
  6
CONTINUOUS
 10
15.5100528798
 20
5.8453852227
 40
1.5625
100
AcDbArc
 50
0.0
 51
180.0
  0
ARC
  5
33C
100
AcDbEntity
  8
0
100
AcDbCircle
 62
7
  6
CONTINUOUS
 10
17.1075528798
 20
2.5553852227
 40
0.01
100
AcDbArc
 50
180.0
 51
270.0
  0
ARC
  5
33D
100
AcDbEntity
  8
0
100
AcDbCircle
 62
7
  6
CONTINUOUS
 10
16.7075528798
 20
2.5353852227
 40
0.01
100
AcDbArc
 50
90.0
 51
180.0
  0
ARC
  5
33E
100
AcDbEntity
  8
0
100
AcDbCircle
 62
7
  6
CONTINUOUS
 10
17.1075528798
 20
3.1603852227
 40
0.01
100
AcDbArc
 50
90.0
 51
180.0
  0
ARC
  5
33F
100
AcDbEntity
  8
0
100
AcDbCircle
 62
7
  6
CONTINUOUS
 10
17.2875528798
 20
2.5553852227
 40
0.01
100
AcDbArc
 50
270.0
 51
360.0
  0
ARC
  5
340
100
AcDbEntity
  8
0
100
AcDbCircle
 62
7
  6
CONTINUOUS
 10
17.6875528798
 20
2.5353852227
 40
0.01
100
AcDbArc
 50
0.0
 51
90.0
  0
ARC
  5
341
100
AcDbEntity
  8
0
100
AcDbCircle
 62
7
  6
CONTINUOUS
 10
17.2875528798
 20
3.1603852227
 40
0.01
100
AcDbArc
 50
0.0
 51
90.0
  0
ARC
  5
342
100
AcDbEntity
  8
0
100
AcDbCircle
 62
7
  6
CONTINUOUS
 10
5.6591330411
 20
11.0276669506
 40
0.01
100
AcDbArc
 50
180.0000000011
 51
270.0
  0
ARC
  5
343
100
AcDbEntity
  8
0
100
AcDbCircle
 62
7
  6
CONTINUOUS
 10
3.2841330411
 20
14.0276669506
 40
0.01
100
AcDbArc
 50
180.0
 51
270.0
  0
ARC
  5
344
100
AcDbEntity
  8
0
100
AcDbCircle
 62
7
  6
CONTINUOUS
 10
3.2841330411
 20
14.4276669506
 40
0.01
100
AcDbArc
 50
180.0
 51
270.0
  0
ARC
  5
345
100
AcDbEntity
  8
0
100
AcDbCircle
 62
7
  6
CONTINUOUS
 10
3.2841330411
 20
15.0076669506
 40
0.01
100
AcDbArc
 50
90.0
 51
180.0
  0
ARC
  5
346
100
AcDbEntity
  8
0
100
AcDbCircle
 62
7
  6
CONTINUOUS
 10
3.2841330411
 20
14.6076669506
 40
0.01
100
AcDbArc
 50
90.0
 51
180.0
  0
ARC
  5
347
100
AcDbEntity
  8
0
100
AcDbCircle
 62
7
  6
CONTINUOUS
 10
4.7641330411
 20
14.0276669506
 40
0.01
100
AcDbArc
 50
270.0
 51
360.0
  0
ARC
  5
348
100
AcDbEntity
  8
0
100
AcDbCircle
 62
7
  6
CONTINUOUS
 10
5.4091330411
 20
14.0276669506
 40
0.01
100
AcDbArc
 50
180.0
 51
270.0
  0
ARC
  5
349
100
AcDbEntity
  8
0
100
AcDbCircle
 62
7
  6
CONTINUOUS
 10
4.7641330411
 20
14.4276669506
 40
0.01
100
AcDbArc
 50
270.0
 51
360.0
  0
ARC
  5
34A
100
AcDbEntity
  8
0
100
AcDbCircle
 62
7
  6
CONTINUOUS
 10
4.7641330411
 20
15.0076669506
 40
0.01
100
AcDbArc
 50
0.0
 51
90.0
  0
ARC
  5
34B
100
AcDbEntity
  8
0
100
AcDbCircle
 62
7
  6
CONTINUOUS
 10
4.7641330411
 20
14.6076669506
 40
0.01
100
AcDbArc
 50
0.0
 51
90.0
  0
ARC
  5
34C
100
AcDbEntity
  8
0
100
AcDbCircle
 62
7
  6
CONTINUOUS
 10
5.4091330411
 20
15.0076669506
 40
0.01
100
AcDbArc
 50
90.0
 51
180.0
  0
ARC
  5
34D
100
AcDbEntity
  8
0
100
AcDbCircle
 62
7
  6
CONTINUOUS
 10
5.6591330411
 20
14.6326669506
 40
0.01
100
AcDbArc
 50
90.0
 51
179.9999999989
  0
ARC
  5
34E
100
AcDbEntity
  8
0
100
AcDbCircle
 62
7
  6
CONTINUOUS
 10
6.3891330411
 20
11.0276669506
 40
0.01
100
AcDbArc
 50
270.0
 51
360.0
  0
ARC
  5
34F
100
AcDbEntity
  8
0
100
AcDbCircle
 62
7
  6
CONTINUOUS
 10
7.2841330411
 20
14.0276669506
 40
0.01
100
AcDbArc
 50
180.0
 51
270.0
  0
ARC
  5
350
100
AcDbEntity
  8
0
100
AcDbCircle
 62
7
  6
CONTINUOUS
 10
7.2841330411
 20
14.4276669506
 40
0.01
100
AcDbArc
 50
180.0
 51
270.0
  0
ARC
  5
351
100
AcDbEntity
  8
0
100
AcDbCircle
 62
7
  6
CONTINUOUS
 10
6.6391330411
 20
14.0276669506
 40
0.01
100
AcDbArc
 50
270.0
 51
360.0
  0
ARC
  5
352
100
AcDbEntity
  8
0
100
AcDbCircle
 62
7
  6
CONTINUOUS
 10
7.2841330411
 20
14.6076669506
 40
0.01
100
AcDbArc
 50
90.0
 51
180.0
  0
ARC
  5
353
100
AcDbEntity
  8
0
100
AcDbCircle
 62
7
  6
CONTINUOUS
 10
7.2841330411
 20
15.0076669506
 40
0.01
100
AcDbArc
 50
90.0
 51
180.0
  0
ARC
  5
354
100
AcDbEntity
  8
0
100
AcDbCircle
 62
7
  6
CONTINUOUS
 10
6.6391330411
 20
15.0076669506
 40
0.01
100
AcDbArc
 50
0.0
 51
90.0
  0
ARC
  5
355
100
AcDbEntity
  8
0
100
AcDbCircle
 62
7
  6
CONTINUOUS
 10
6.3891330411
 20
14.6326669506
 40
0.01
100
AcDbArc
 50
0.0
 51
90.0
  0
ARC
  5
356
100
AcDbEntity
  8
0
100
AcDbCircle
 62
7
  6
CONTINUOUS
 10
8.7641330411
 20
14.0276669506
 40
0.01
100
AcDbArc
 50
270.0
 51
360.0
  0
ARC
  5
357
100
AcDbEntity
  8
0
100
AcDbCircle
 62
7
  6
CONTINUOUS
 10
8.7641330411
 20
14.4276669506
 40
0.01
100
AcDbArc
 50
270.0
 51
360.0
  0
ARC
  5
358
100
AcDbEntity
  8
0
100
AcDbCircle
 62
7
  6
CONTINUOUS
 10
8.7641330411
 20
15.0076669506
 40
0.01
100
AcDbArc
 50
0.0
 51
90.0
  0
ARC
  5
359
100
AcDbEntity
  8
0
100
AcDbCircle
 62
7
  6
CONTINUOUS
 10
8.7641330411
 20
14.6076669506
 40
0.01
100
AcDbArc
 50
0.0
 51
90.0
  0
ARC
  5
35A
100
AcDbEntity
  8
0
100
AcDbCircle
 62
9
  6
CONTINUOUS
 10
16.6253204252
 20
14.160324056
 40
1.647214408
100
AcDbArc
 50
179.8660706766
 51
180.000034332
  0
ARC
  5
35B
100
AcDbEntity
  8
0
100
AcDbCircle
 62
9
  6
CONTINUOUS
 10
15.578172846
 20
14.6172071297
 40
0.6839943468
100
AcDbArc
 50
107.2468758834
 51
116.5551688261
  0
ARC
  5
35C
100
AcDbEntity
  8
0
100
AcDbCircle
 62
7
  6
CONTINUOUS
 10
14.8506189453
 20
11.3927442965
 40
0.0875172199
100
AcDbArc
 50
167.0452797847
 51
169.179687347
  0
ARC
  5
35D
100
AcDbEntity
  8
0
100
AcDbCircle
 62
7
  6
CONTINUOUS
 10
14.6481263826
 20
11.3630460256
 40
0.0246993084
100
AcDbArc
 50
13.6321862692
 51
16.4673940971
  0
ARC
  5
35E
100
AcDbEntity
  8
0
100
AcDbCircle
 62
9
  6
CONTINUOUS
 10
13.8585551943
 20
11.1605226146
 40
0.0154143222
100
AcDbArc
 50
159.1844440464
 51
166.7791412423
  0
ARC
  5
35F
100
AcDbEntity
  8
0
100
AcDbCircle
 62
9
  6
CONTINUOUS
 10
15.1843376801
 20
11.8234470197
 40
0.0153702582
100
AcDbArc
 50
159.4337258751
 51
166.8490078471
  0
ARC
  5
360
100
AcDbEntity
  8
0
100
AcDbCircle
 62
9
  6
CONTINUOUS
 10
12.3559105554
 20
10.4092334573
 40
0.0153702582
100
AcDbArc
 50
159.4337258751
 51
166.8490078469
  0
ARC
  5
361
100
AcDbEntity
  8
0
100
AcDbCircle
 62
9
  6
CONTINUOUS
 10
12.6387532678
 20
10.8090779785
 40
0.0153702582
100
AcDbArc
 50
159.4337258755
 51
166.8490078468
  0
ARC
  5
362
100
AcDbEntity
  8
0
100
AcDbCircle
 62
9
  6
CONTINUOUS
 10
15.4671803926
 20
12.2232915408
 40
0.0153702582
100
AcDbArc
 50
159.433725875
 51
166.8490078471
  0
ARC
  5
363
100
AcDbEntity
  8
0
100
AcDbCircle
 62
9
  6
CONTINUOUS
 10
14.0801707369
 20
10.5872144734
 40
0.0136648407
100
AcDbArc
 50
39.9710428137
 51
45.5242600292
  0
ARC
  5
364
100
AcDbEntity
  8
0
100
AcDbCircle
 62
9
  6
CONTINUOUS
 10
13.7973280244
 20
11.269901707
 40
0.0136648407
100
AcDbArc
 50
39.9710428137
 51
45.5242600292
  0
ARC
  5
365
100
AcDbEntity
  8
0
100
AcDbCircle
 62
9
  6
CONTINUOUS
 10
16.9085978616
 20
12.0014280358
 40
0.0136648407
100
AcDbArc
 50
39.9710428137
 51
45.5242600294
  0
ARC
  5
366
100
AcDbEntity
  8
0
100
AcDbCircle
 62
9
  6
CONTINUOUS
 10
16.6257551492
 20
12.6841152694
 40
0.0136648407
100
AcDbArc
 50
39.9710428137
 51
45.5242600292
  0
ARC
  5
367
100
AcDbEntity
  8
0
100
AcDbCircle
 62
9
  6
CONTINUOUS
 10
15.4059959516
 20
11.2501270808
 40
0.0136648407
100
AcDbArc
 50
39.9710428138
 51
45.524260029
  0
ARC
  5
368
100
AcDbEntity
  8
0
100
AcDbCircle
 62
7
  6
CONTINUOUS
 10
12.7577907243
 20
10.2256905814
 40
0.01
100
AcDbArc
 50
244.6396129944
 51
295.3592337119
  0
ARC
  5
369
100
AcDbEntity
  8
0
100
AcDbCircle
 62
7
  6
CONTINUOUS
 10
15.586217849
 20
11.6399041438
 40
0.01
100
AcDbArc
 50
244.6396129944
 51
295.3592337119
  0
ARC
  5
36A
100
AcDbEntity
  8
0
100
AcDbCircle
 62
7
  6
CONTINUOUS
 10
13.8502358782
 20
11.164752599
 40
0.0099609327
100
AcDbArc
 50
134.2708650434
 51
164.505101821
  0
ARC
  5
36B
100
AcDbEntity
  8
0
100
AcDbCircle
 62
7
  6
CONTINUOUS
 10
12.6304766807
 20
10.2893095876
 40
0.0099609327
100
AcDbArc
 50
195.494898179
 51
225.7291349566
  0
ARC
  5
36C
100
AcDbEntity
  8
0
100
AcDbCircle
 62
7
  6
CONTINUOUS
 10
15.4589038054
 20
11.70352315
 40
0.0099609327
100
AcDbArc
 50
195.4948981791
 51
225.7291349565
  0
ARC
  5
36D
100
AcDbEntity
  8
0
100
AcDbCircle
 62
7
  6
CONTINUOUS
 10
12.6304759929
 20
10.8133093467
 40
0.0099523935
100
AcDbArc
 50
116.6102673335
 51
150.2292595636
  0
ARC
  5
36E
100
AcDbEntity
  8
0
100
AcDbCircle
 62
7
  6
CONTINUOUS
 10
12.3476332804
 20
10.4134648256
 40
0.0099523935
100
AcDbArc
 50
116.6102673335
 51
150.2292595635
  0
ARC
  5
36F
100
AcDbEntity
  8
0
100
AcDbCircle
 62
7
  6
CONTINUOUS
 10
15.4589031176
 20
12.2275229091
 40
0.0099523935
100
AcDbArc
 50
116.6102673334
 51
150.2292595636
  0
ARC
  5
370
100
AcDbEntity
  8
0
100
AcDbCircle
 62
7
  6
CONTINUOUS
 10
15.1760604051
 20
11.827678388
 40
0.0099523935
100
AcDbArc
 50
116.6102673334
 51
150.2292595636
  0
ARC
  5
371
100
AcDbEntity
  8
0
100
AcDbCircle
 62
7
  6
CONTINUOUS
 10
13.6770441111
 20
11.3365829094
 40
0.0099511722
100
AcDbArc
 50
63.3522335357
 51
87.9546873806
  0
ARC
  5
372
100
AcDbEntity
  8
0
100
AcDbCircle
 62
7
  6
CONTINUOUS
 10
16.5054712359
 20
12.7507964718
 40
0.0099511722
100
AcDbArc
 50
63.3522335358
 51
87.9546873806
  0
SPLINE
  5
373
100
AcDbEntity
  8
0
100
AcDbSpline
 62
7
  6
CONTINUOUS
 70
0
 71
3
 72
10
 73
6
 74
0
 42
0.0000001
 43
0.0000001
 44
0.0000000001
 40
0.0
 40
0.0
 40
0.0
 40
0.0
 40
0.3111662195
 40
0.6442824458
 40
1.0
 40
1.0
 40
1.0
 40
1.0
 10
6.0459049376
 20
2.9145738578
 30
0.0
 10
6.0438991268
 20
2.9158376577
 30
0.0
 10
6.0394417055
 20
2.9179923955
 30
0.0
 10
6.0320306652
 20
2.9199201021
 30
0.0
 10
6.0267742839
 20
2.9203575329
 30
0.0
 10
6.0240642924
 20
2.9203899938
 30
0.0
  0
SPLINE
  5
374
100
AcDbEntity
  8
0
100
AcDbSpline
 62
7
  6
CONTINUOUS
 70
0
 71
3
 72
10
 73
6
 74
0
 42
0.0000001
 43
0.0000001
 44
0.0000000001
 40
0.0
 40
0.0
 40
0.0
 40
0.0
 40
0.3553756925
 40
0.6882981542
 40
1.0
 40
1.0
 40
1.0
 40
1.0
 10
6.0582187826
 20
2.9004230456
 30
0.0
 10
6.0572045196
 20
2.9024273421
 30
0.0
 10
6.0549586186
 20
2.9061807392
 30
0.0
 10
6.0507904414
 20
2.9109740336
 30
0.0
 10
6.04757206
 20
2.9135238064
 30
0.0
 10
6.0459049376
 20
2.9145738578
 30
0.0
  0
SPLINE
  5
375
100
AcDbEntity
  8
0
100
AcDbSpline
 62
7
  6
CONTINUOUS
 70
0
 71
3
 72
11
 73
7
 74
0
 42
0.0000001
 43
0.0000001
 44
0.0000000001
 40
0.0
 40
0.0
 40
0.0
 40
0.0
 40
0.260408207
 40
0.4912342727
 40
0.7291744555
 40
1.0
 40
1.0
 40
1.0
 40
1.0
 10
6.0259431196
 20
2.9127453293
 30
0.0
 10
6.0287392674
 20
2.9128472394
 30
0.0
 10
6.0340957694
 20
2.9123567399
 30
0.0
 10
6.0412988334
 20
2.9085278865
 30
0.0
 10
6.0454064611
 20
2.9012849564
 30
0.0
 10
6.045775707
 20
2.8956956064
 30
0.0
 10
6.0455916531
 20
2.8927914977
 30
0.0
  0
SPLINE
  5
376
100
AcDbEntity
  8
0
100
AcDbSpline
 62
7
  6
CONTINUOUS
 70
0
 71
3
 72
24
 73
20
 74
0
 42
0.0000001
 43
0.0000001
 44
0.0000000001
 40
0.0
 40
0.0
 40
0.0
 40
0.0
 40
0.0693348657
 40
0.1451631227
 40
0.2176195371
 40
0.2896714478
 40
0.3594592617
 40
0.427257366
 40
0.4874595432
 40
0.5449743499
 40
0.6087085959
 40
0.6688034459
 40
0.7215792644
 40
0.7679587793
 40
0.8112235889
 40
0.8594480871
 40
0.9062013796
 40
0.9501928566
 40
1.0
 40
1.0
 40
1.0
 40
1.0
 10
5.985613006
 20
2.7884433057
 30
0.0
 10
5.9892357124
 20
2.783877522
 30
0.0
 10
5.9990719084
 20
2.7759898087
 30
0.0
 10
6.0171195381
 20
2.7708307807
 30
0.0
 10
6.0360209627
 20
2.7730639947
 30
0.0
 10
6.0519805342
 20
2.7825028264
 30
0.0
 10
6.0626063604
 20
2.7972218747
 30
0.0
 10
6.0660917953
 20
2.8138989343
 30
0.0
 10
6.0635618319
 20
2.8297638745
 30
0.0
 10
6.0541290402
 20
2.842441841
 30
0.0
 10
6.0409047361
 20
2.8503513959
 30
0.0
 10
6.0274335005
 20
2.8565942117
 30
0.0
 10
6.0150633615
 20
2.8615671278
 30
0.0
 10
6.0048111428
 20
2.8684911384
 30
0.0
 10
6.0000011333
 20
2.8796286891
 30
0.0
 10
6.0001935896
 20
2.8914603555
 30
0.0
 10
6.0043396862
 20
2.902795186
 30
0.0
 10
6.0138195746
 20
2.9107084737
 30
0.0
 10
6.0217699926
 20
2.9124062906
 30
0.0
 10
6.0259431196
 20
2.9127453293
 30
0.0
  0
SPLINE
  5
377
100
AcDbEntity
  8
0
100
AcDbSpline
 62
7
  6
CONTINUOUS
 70
0
 71
3
 72
10
 73
6
 74
0
 42
0.0000001
 43
0.0000001
 44
0.0000000001
 40
0.0
 40
0.0
 40
0.0
 40
0.0
 40
0.3225482328
 40
0.6558221803
 40
1.0
 40
1.0
 40
1.0
 40
1.0
 10
5.9730862939
 20
2.8060289432
 30
0.0
 10
5.9742220602
 20
2.8040002165
 30
0.0
 10
5.9766912655
 20
2.7999627975
 30
0.0
 10
5.980889893
 20
2.7940973385
 30
0.0
 10
5.9839846395
 20
2.7903150492
 30
0.0
 10
5.985613006
 20
2.7884433057
 30
0.0
  0
SPLINE
  5
378
100
AcDbEntity
  8
0
100
AcDbSpline
 62
7
  6
CONTINUOUS
 70
0
 71
3
 72
10
 73
6
 74
0
 42
0.0000001
 43
0.0000001
 44
0.0000000001
 40
0.0
 40
0.0
 40
0.0
 40
0.0
 40
0.3425783843
 40
0.6758352353
 40
1.0
 40
1.0
 40
1.0
 40
1.0
 10
6.0270268148
 20
2.767599375
 30
0.0
 10
6.025792307
 20
2.7674409217
 30
0.0
 10
6.0233447375
 20
2.7672131744
 30
0.0
 10
6.0197088636
 20
2.7671559106
 30
0.0
 10
6.0173217584
 20
2.7672993466
 30
0.0
 10
6.0161500611
 20
2.7674184576
 30
0.0
  0
LINE
  5
379
100
AcDbEntity
  8
0
100
AcDbLine
 62
7
  6
CONTINUOUS
 10
6.0312783735
 20
2.7683755106
 11
6.0525687324
 21
2.6901359746
  0
SPLINE
  5
37A
100
AcDbEntity
  8
0
100
AcDbSpline
 62
7
  6
CONTINUOUS
 70
0
 71
3
 72
10
 73
6
 74
0
 42
0.0000001
 43
0.0000001
 44
0.0000000001
 40
0.0
 40
0.0
 40
0.0
 40
0.0
 40
0.3281744637
 40
0.6616981227
 40
1.0
 40
1.0
 40
1.0
 40
1.0
 10
6.0396132378
 20
2.7710747982
 30
0.0
 10
6.03873144
 20
2.7706964117
 30
0.0
 10
6.0369288948
 20
2.769989543
 30
0.0
 10
6.0341461444
 20
2.7690867887
 30
0.0
 10
6.0322428458
 20
2.7685951513
 30
0.0
 10
6.0312783735
 20
2.7683755106
 30
0.0
  0
LINE
  5
37B
100
AcDbEntity
  8
0
100
AcDbLine
 62
7
  6
CONTINUOUS
 10
6.0782445289
 20
2.7880918882
 11
6.0758211404
 21
2.7781133894
  0
LINE
  5
37C
100
AcDbEntity
  8
0
100
AcDbLine
 62
7
  6
CONTINUOUS
 10
6.0696400977
 20
2.8154144853
 11
6.0694790812
 21
2.8100561644
  0
LINE
  5
37D
100
AcDbEntity
  8
0
100
AcDbLine
 62
7
  6
CONTINUOUS
 10
5.9559687947
 20
2.8002911481
 11
5.9564174698
 21
2.7987452089
  0
SPLINE
  5
37E
100
AcDbEntity
  8
0
100
AcDbSpline
 62
7
  6
CONTINUOUS
 70
0
 71
3
 72
10
 73
6
 74
0
 42
0.0000001
 43
0.0000001
 44
0.0000000001
 40
0.0
 40
0.0
 40
0.0
 40
0.0
 40
0.3224682563
 40
0.6562693535
 40
1.0
 40
1.0
 40
1.0
 40
1.0
 10
5.9915326313
 20
2.7996611032
 30
0.0
 10
5.990960125
 20
2.8013001935
 30
0.0
 10
5.9899392338
 20
2.8046899558
 30
0.0
 10
5.9888924071
 20
2.809975486
 30
0.0
 10
5.9883223996
 20
2.8135794196
 30
0.0
 10
5.9880825366
 20
2.8154144853
 30
0.0
  0
SPLINE
  5
37F
100
AcDbEntity
  8
0
100
AcDbSpline
 62
7
  6
CONTINUOUS
 70
0
 71
3
 72
11
 73
7
 74
0
 42
0.0000001
 43
0.0000001
 44
0.0000000001
 40
0.0
 40
0.0
 40
0.0
 40
0.0
 40
0.2353350137
 40
0.4976282629
 40
0.7621077584
 40
1.0
 40
1.0
 40
1.0
 40
1.0
 10
6.0208475812
 20
2.7802310275
 30
0.0
 10
6.0179321261
 20
2.7800617099
 30
0.0
 10
6.0116673421
 20
2.7809063212
 30
0.0
 10
6.0030535664
 20
2.7850962395
 30
0.0
 10
5.9958004302
 20
2.7914030698
 30
0.0
 10
5.9925354401
 20
2.7968845448
 30
0.0
 10
5.9915326313
 20
2.7996611032
 30
0.0
  0
SPLINE
  5
380
100
AcDbEntity
  8
0
100
AcDbSpline
 62
7
  6
CONTINUOUS
 70
0
 71
3
 72
11
 73
7
 74
0
 42
0.0000001
 43
0.0000001
 44
0.0000000001
 40
0.0
 40
0.0
 40
0.0
 40
0.0
 40
0.2624009242
 40
0.4956265318
 40
0.7316011246
 40
1.0
 40
1.0
 40
1.0
 40
1.0
 10
6.0465342327
 20
2.8108987871
 30
0.0
 10
6.0466172956
 20
2.8069913451
 30
0.0
 10
6.0459089025
 20
2.7995655213
 30
0.0
 10
6.0414673532
 20
2.7892310427
 30
0.0
 10
6.0322791761
 20
2.7824236985
 30
0.0
 10
6.0248213905
 20
2.7806670714
 30
0.0
 10
6.0208475812
 20
2.7802310275
 30
0.0
  0
SPLINE
  5
381
100
AcDbEntity
  8
0
100
AcDbSpline
 62
7
  6
CONTINUOUS
 70
0
 71
3
 72
13
 73
9
 74
0
 42
0.0000001
 43
0.0000001
 44
0.0000000001
 40
0.0
 40
0.0
 40
0.0
 40
0.0
 40
0.2179324919
 40
0.411030289
 40
0.5828963345
 40
0.7369094922
 40
0.8742497154
 40
1.0
 40
1.0
 40
1.0
 40
1.0
 10
5.9971139329
 20
2.8493129773
 30
0.0
 10
6.0010727553
 20
2.8466768784
 30
0.0
 10
6.0086914218
 20
2.8418403319
 30
0.0
 10
6.0206622923
 20
2.8374055278
 30
0.0
 10
6.0306649413
 20
2.83206381
 30
0.0
 10
6.0392282267
 20
2.826629434
 30
0.0
 10
6.0453342352
 20
2.8195265676
 30
0.0
 10
6.0465925331
 20
2.813642557
 30
0.0
 10
6.0465342327
 20
2.8108987871
 30
0.0
  0
SPLINE
  5
382
100
AcDbEntity
  8
0
100
AcDbSpline
 62
7
  6
CONTINUOUS
 70
0
 71
3
 72
13
 73
9
 74
0
 42
0.0000001
 43
0.0000001
 44
0.0000000001
 40
0.0
 40
0.0
 40
0.0
 40
0.0
 40
0.1728158988
 40
0.3370621498
 40
0.4978257253
 40
0.6664730403
 40
0.8405028915
 40
1.0
 40
1.0
 40
1.0
 40
1.0
 10
6.0240642924
 20
2.9203899938
 30
0.0
 10
6.0184137444
 20
2.9202464767
 30
0.0
 10
6.0072808328
 20
2.9182596343
 30
0.0
 10
5.9932852191
 20
2.9089819302
 30
0.0
 10
5.9846298983
 20
2.8947931975
 30
0.0
 10
5.982185099
 20
2.8780504632
 30
0.0
 10
5.9864838216
 20
2.8617649795
 30
0.0
 10
5.9931742131
 20
2.8527324877
 30
0.0
 10
5.9971139329
 20
2.8493129773
 30
0.0
  0
SPLINE
  5
383
100
AcDbEntity
  8
0
100
AcDbSpline
 62
7
  6
CONTINUOUS
 70
0
 71
3
 72
11
 73
7
 74
0
 42
0.0000001
 43
0.0000001
 44
0.0000000001
 40
0.0
 40
0.0
 40
0.0
 40
0.0
 40
0.2082071313
 40
0.4442703158
 40
0.708521632
 40
1.0
 40
1.0
 40
1.0
 40
1.0
 10
6.0516641454
 20
2.8133072499
 30
0.0
 10
6.0514322769
 20
2.8163276777
 30
0.0
 10
6.0494367538
 20
2.8227091254
 30
0.0
 10
6.0427123414
 20
2.8307753454
 30
0.0
 10
6.0331315058
 20
2.8373088104
 30
0.0
 10
6.0258397793
 20
2.8408601625
 30
0.0
 10
6.0219059479
 20
2.8424444485
 30
0.0
  0
SPLINE
  5
384
100
AcDbEntity
  8
0
100
AcDbSpline
 62
7
  6
CONTINUOUS
 70
0
 71
3
 72
12
 73
8
 74
0
 42
0.0000001
 43
0.0000001
 44
0.0000000001
 40
0.0
 40
0.0
 40
0.0
 40
0.0
 40
0.2433840896
 40
0.4638882582
 40
0.6634491393
 40
0.8422420182
 40
1.0
 40
1.0
 40
1.0
 40
1.0
 10
6.0267084002
 20
2.845245502
 30
0.0
 10
6.0299017983
 20
2.8437496755
 30
0.0
 10
6.0358260582
 20
2.8405035248
 30
0.0
 10
6.0433398424
 20
2.8344271784
 30
0.0
 10
6.0490303936
 20
2.8278056172
 30
0.0
 10
6.0523948644
 20
2.8206053349
 30
0.0
 10
6.0522736367
 20
2.8155102329
 30
0.0
 10
6.0516641454
 20
2.8133072499
 30
0.0
  0
SPLINE
  5
385
100
AcDbEntity
  8
0
100
AcDbSpline
 62
7
  6
CONTINUOUS
 70
0
 71
3
 72
11
 73
7
 74
0
 42
0.0000001
 43
0.0000001
 44
0.0000000001
 40
0.0
 40
0.0
 40
0.0
 40
0.0
 40
0.2151446412
 40
0.4549700642
 40
0.7176521561
 40
1.0
 40
1.0
 40
1.0
 40
1.0
 10
5.9896682776
 20
2.8712428792
 30
0.0
 10
5.9910212942
 20
2.8682110397
 30
0.0
 10
5.9950918274
 20
2.8622833949
 30
0.0
 10
6.004083636
 20
2.8556066207
 30
0.0
 10
6.0149655468
 20
2.8502604209
 30
0.0
 10
6.0226603754
 20
2.8468572898
 30
0.0
 10
6.0267084002
 20
2.845245502
 30
0.0
  0
SPLINE
  5
386
100
AcDbEntity
  8
0
100
AcDbSpline
 62
7
  6
CONTINUOUS
 70
0
 71
3
 72
10
 73
6
 74
0
 42
0.0000001
 43
0.0000001
 44
0.0000000001
 40
0.0
 40
0.0
 40
0.0
 40
0.0
 40
0.3757457638
 40
0.7090901231
 40
1.0
 40
1.0
 40
1.0
 40
1.0
 10
6.0219059479
 20
2.8424444485
 30
0.0
 10
6.0165680183
 20
2.8442026278
 30
0.0
 10
6.006770665
 20
2.8485813353
 30
0.0
 10
5.9951893918
 20
2.8584532918
 30
0.0
 10
5.9907315435
 20
2.8670236553
 30
0.0
 10
5.9896682776
 20
2.8712428792
 30
0.0
  0
LINE
  5
387
100
AcDbEntity
  8
0
100
AcDbLine
 62
7
  6
CONTINUOUS
 10
5.9644999544
 20
2.8071836485
 11
5.9955173369
 21
2.6898664077
  0
LINE
  5
388
100
AcDbEntity
  8
0
100
AcDbLine
 62
7
  6
CONTINUOUS
 10
5.9595835242
 20
2.8071592246
 11
5.9644999544
 21
2.8071836485
  0
LINE
  5
389
100
AcDbEntity
  8
0
100
AcDbLine
 62
7
  6
CONTINUOUS
 10
5.9636840169
 20
2.7927744826
 11
5.9595835242
 21
2.8071592246
  0
SPLINE
  5
38A
100
AcDbEntity
  8
0
100
AcDbSpline
 62
7
  6
CONTINUOUS
 70
0
 71
3
 72
10
 73
6
 74
0
 42
0.0000001
 43
0.0000001
 44
0.0000000001
 40
0.0
 40
0.0
 40
0.0
 40
0.0
 40
0.3422090327
 40
0.6754283107
 40
1.0
 40
1.0
 40
1.0
 40
1.0
 10
5.9931853117
 20
2.6811190517
 30
0.0
 10
5.9898245291
 20
2.6938570958
 30
0.0
 10
5.9831890734
 20
2.7189982846
 30
0.0
 10
5.9738812138
 20
2.7563546956
 30
0.0
 10
5.9671120919
 20
2.7807589822
 30
0.0
 10
5.9636840169
 20
2.7927744826
 30
0.0
  0
SPLINE
  5
38B
100
AcDbEntity
  8
0
100
AcDbSpline
 62
7
  6
CONTINUOUS
 70
0
 71
3
 72
11
 73
7
 74
0
 42
0.0000001
 43
0.0000001
 44
0.0000000001
 40
0.0
 40
0.0
 40
0.0
 40
0.0
 40
0.3007521724
 40
0.5645413169
 40
0.7933831925
 40
1.0
 40
1.0
 40
1.0
 40
1.0
 10
16.9226496655
 20
11.836340937
 30
0.0
 10
16.9230811027
 20
11.8365566556
 30
0.0
 10
16.9238627363
 20
11.837024179
 30
0.0
 10
16.9248148647
 20
11.8378835286
 30
0.0
 10
16.9254328765
 20
11.8388409229
 30
0.0
 10
16.9255786354
 20
11.8395452247
 30
0.0
 10
16.9255786138
 20
11.8398766072
 30
0.0
  0
SPLINE
  5
38C
100
AcDbEntity
  8
0
100
AcDbSpline
 62
7
  6
CONTINUOUS
 70
0
 71
3
 72
11
 73
7
 74
0
 42
0.0000001
 43
0.0000001
 44
0.0000000001
 40
0.0
 40
0.0
 40
0.0
 40
0.0
 40
0.2351565506
 40
0.500007793
 40
0.7648517068
 40
1.0
 40
1.0
 40
1.0
 40
1.0
 10
15.8619894937
 20
11.3130819189
 30
0.0
 10
15.8630083009
 20
11.3125725153
 30
0.0
 10
15.8653527676
 20
11.3118488342
 30
0.0
 10
15.869060641
 20
11.3114948789
 30
0.0
 10
15.8727684792
 20
11.3118488339
 30
0.0
 10
15.8751128579
 20
11.3125725332
 30
0.0
 10
15.8761316293
 20
11.3130819189
 30
0.0
  0
SPLINE
  5
38D
100
AcDbEntity
  8
0
100
AcDbSpline
 62
7
  6
CONTINUOUS
 70
0
 71
3
 72
9
 73
5
 74
0
 42
0.0000001
 43
0.0000001
 44
0.0000000001
 40
0.0
 40
0.0
 40
0.0
 40
0.0
 40
0.2489029464
 40
1.0
 40
1.0
 40
1.0
 40
1.0
 10
15.4174488236
 20
11.2620646145
 30
0.0
 10
15.4178437748
 20
11.2618671389
 30
0.0
 10
15.4193737477
 20
11.260964569
 30
0.0
 10
15.4206605365
 20
11.2596524221
 30
0.0
 10
15.4213846525
 20
11.258533856
 30
0.0
  0
SPLINE
  5
38E
100
AcDbEntity
  8
0
100
AcDbSpline
 62
7
  6
CONTINUOUS
 70
0
 71
3
 72
9
 73
5
 74
0
 42
0.0000001
 43
0.0000001
 44
0.0000000001
 40
0.0
 40
0.0
 40
0.0
 40
0.0
 40
0.4999530136
 40
1.0
 40
1.0
 40
1.0
 40
1.0
 10
15.4213846525
 20
11.258533856
 30
0.0
 10
15.421900086
 20
11.2577376486
 30
0.0
 10
15.4227021181
 20
11.2559859246
 30
0.0
 10
15.4229780164
 20
11.2540790349
 30
0.0
 10
15.4229761432
 20
11.2531303767
 30
0.0
  0
SPLINE
  5
38F
100
AcDbEntity
  8
0
100
AcDbSpline
 62
7
  6
CONTINUOUS
 70
0
 71
3
 72
8
 73
4
 74
0
 42
0.0000001
 43
0.0000001
 44
0.0000000001
 40
0.0
 40
0.0
 40
0.0
 40
0.0
 40
1.0
 40
1.0
 40
1.0
 40
1.0
 10
13.8458227572
 20
11.1736837472
 30
0.0
 10
13.8448944317
 20
11.173220517
 30
0.0
 10
13.8440262518
 20
11.1726085715
 30
0.0
 10
13.8432826366
 20
11.1718851028
 30
0.0
  0
LINE
  5
390
100
AcDbEntity
  8
0
100
AcDbLine
 62
7
  6
CONTINUOUS
 10
13.8406369832
 20
11.1674136878
 11
13.8402761719
 21
11.1647595897
  0
SPLINE
  5
391
100
AcDbEntity
  8
0
100
AcDbSpline
 62
7
  6
CONTINUOUS
 70
0
 71
3
 72
11
 73
7
 74
0
 42
0.0000001
 43
0.0000001
 44
0.0000000001
 40
0.0
 40
0.0
 40
0.0
 40
0.0
 40
0.206620317
 40
0.4354582086
 40
0.6992451889
 40
1.0
 40
1.0
 40
1.0
 40
1.0
 10
13.8402706851
 20
11.0001870319
 30
0.0
 10
13.8402707067
 20
10.9998556617
 30
0.0
 10
13.840416534
 20
10.9991514242
 30
0.0
 10
13.8410345065
 20
10.9981940897
 30
0.0
 10
13.8419866195
 20
10.9973348278
 30
0.0
 10
13.8427682156
 20
10.9968673432
 30
0.0
 10
13.8431996334
 20
10.9966516343
 30
0.0
  0
SPLINE
  5
392
100
AcDbEntity
  8
0
100
AcDbSpline
 62
7
  6
CONTINUOUS
 70
0
 71
3
 72
11
 73
7
 74
0
 42
0.0000001
 43
0.0000001
 44
0.0000000001
 40
0.0
 40
0.0
 40
0.0
 40
0.0
 40
0.2067545862
 40
0.4355099525
 40
0.6992553971
 40
1.0
 40
1.0
 40
1.0
 40
1.0
 10
17.3675218579
 20
12.6025547009
 30
0.0
 10
17.3675218555
 20
12.6022230117
 30
0.0
 10
17.3673764832
 20
12.6015184047
 30
0.0
 10
17.3667584557
 20
12.6005604623
 30
0.0
 10
17.3658049104
 20
12.5997024036
 30
0.0
 10
17.3650229416
 20
12.5992353481
 30
0.0
 10
17.3645914037
 20
12.5990195792
 30
0.0
  0
SPLINE
  5
393
100
AcDbEntity
  8
0
100
AcDbSpline
 62
7
  6
CONTINUOUS
 70
0
 71
3
 72
15
 73
11
 74
0
 42
0.0000001
 43
0.0000001
 44
0.0000000001
 40
0.0
 40
0.0
 40
0.0
 40
0.0
 40
0.1408454948
 40
0.2772950536
 40
0.409090995
 40
0.5361792307
 40
0.6586164394
 40
0.7765474767
 40
0.8902156095
 40
1.0
 40
1.0
 40
1.0
 40
1.0
 10
14.9810349494
 20
14.1638586029
 30
0.0
 10
14.9810349494
 20
14.1958218406
 30
0.0
 10
14.9828587922
 20
14.2587691806
 30
0.0
 10
14.9913160041
 20
14.3512833977
 30
0.0
 10
15.0054341558
 20
14.4399546021
 30
0.0
 10
15.025119899
 20
14.5243033941
 30
0.0
 10
15.050282003
 20
14.6038984798
 30
0.0
 10
15.0807750734
 20
14.6783399985
 30
0.0
 10
15.1164550376
 20
14.7472242805
 30
0.0
 10
15.1440176011
 20
14.7899063977
 30
0.0
 10
15.1585976358
 20
14.8101089743
 30
0.0
  0
SPLINE
  5
394
100
AcDbEntity
  8
0
100
AcDbSpline
 62
7
  6
CONTINUOUS
 70
0
 71
3
 72
33
 73
29
 74
0
 42
0.0000001
 43
0.0000001
 44
0.0000000001
 40
0.0
 40
0.0
 40
0.0
 40
0.0
 40
0.0220958578
 40
0.0444022815
 40
0.0670771247
 40
0.0902804618
 40
0.1141618739
 40
0.1388426791
 40
0.1644114482
 40
0.190933813
 40
0.2184487248
 40
0.2469750875
 40
0.2765085347
 40
0.3070272931
 40
0.3384929271
 40
0.3708518987
 40
0.4040394718
 40
0.4379781357
 40
0.4725829747
 40
0.5077595832
 40
0.5794055013
 40
0.6520785923
 40
0.7248786087
 40
0.7969019878
 40
0.8672718605
 40
0.9351972264
 40
0.9680387586
 40
1.0
 40
1.0
 40
1.0
 40
1.0
 10
14.8680011696
 20
14.747344407
 30
0.0
 10
14.8879345639
 20
14.7573111042
 30
0.0
 10
14.9291930711
 20
14.7750288828
 30
0.0
 10
14.9941315861
 20
14.794492955
 30
0.0
 10
15.0619409985
 20
14.8067758334
 30
0.0
 10
15.1322500778
 20
14.811813262
 30
0.0
 10
15.2047186945
 20
14.8095894429
 30
0.0
 10
15.278994463
 20
14.8001194221
 30
0.0
 10
15.3547141462
 20
14.7834606768
 30
0.0
 10
15.4314923971
 20
14.7596720663
 30
0.0
 10
15.5089556089
 20
14.728895733
 30
0.0
 10
15.5867093389
 20
14.6912622804
 30
0.0
 10
15.6643744235
 20
14.6469746692
 30
0.0
 10
15.7415572824
 20
14.5962408429
 30
0.0
 10
15.8178737065
 20
14.5393154518
 30
0.0
 10
15.8929462766
 20
14.476483713
 30
0.0
 10
15.9663922008
 20
14.4080489724
 30
0.0
 10
16.0378566489
 20
14.3343625383
 30
0.0
 10
16.1069711421
 20
14.25577595
 30
0.0
 10
16.1960779758
 20
14.1443306688
 30
0.0
 10
16.2993148167
 20
13.9952875272
 30
0.0
 10
16.4079921355
 20
13.8048639309
 30
0.0
 10
16.5001096867
 20
13.6054722193
 30
0.0
 10
16.573847924
 20
13.4010350128
 30
0.0
 10
16.6277696446
 20
13.1955757119
 30
0.0
 10
16.6556242555
 20
13.0249073266
 30
0.0
 10
16.6667866202
 20
12.8914506881
 30
0.0
 10
16.6686978259
 20
12.8260758
 30
0.0
 10
16.6686978259
 20
12.7938392144
 30
0.0
  0
SPLINE
  5
395
100
AcDbEntity
  8
0
100
AcDbSpline
 62
7
  6
CONTINUOUS
 70
0
 71
3
 72
18
 73
14
 74
0
 42
0.0000001
 43
0.0000001
 44
0.0000000001
 40
0.0
 40
0.0
 40
0.0
 40
0.0
 40
0.1478259176
 40
0.2884718465
 40
0.4217107005
 40
0.5478001178
 40
0.6673560529
 40
0.7250454998
 40
0.7815430902
 40
0.837056418
 40
0.891814818
 40
0.9460514902
 40
1.0
 40
1.0
 40
1.0
 40
1.0
 10
14.2822124394
 20
13.9870819076
 30
0.0
 10
14.2822124394
 20
14.0437095743
 30
0.0
 10
14.2870909768
 20
14.154299407
 30
0.0
 10
14.3101920083
 20
14.3144686796
 30
0.0
 10
14.3487357
 20
14.463125118
 30
0.0
 10
14.4023246303
 20
14.5984353629
 30
0.0
 10
14.4598502057
 20
14.6999252527
 30
0.0
 10
14.5128102978
 20
14.7722250527
 30
0.0
 10
14.5553675847
 20
14.8214650936
 30
0.0
 10
14.6010894587
 20
14.866192129
 30
0.0
 10
14.6498494173
 20
14.9062439746
 30
0.0
 10
14.7014671575
 20
14.9414799035
 30
0.0
 10
14.7377134911
 20
14.961709065
 30
0.0
 10
14.7561977707
 20
14.9709512048
 30
0.0
  0
SPLINE
  5
396
100
AcDbEntity
  8
0
100
AcDbSpline
 62
7
  6
CONTINUOUS
 70
0
 71
3
 72
31
 73
27
 74
0
 42
0.0000001
 43
0.0000001
 44
0.0000000001
 40
0.0
 40
0.0
 40
0.0
 40
0.0
 40
0.0224599169
 40
0.0451066819
 40
0.0680967249
 40
0.0915855949
 40
0.1157136266
 40
0.1405958148
 40
0.1663222996
 40
0.1929592789
 40
0.2205500186
 40
0.2491155571
 40
0.3091232145
 40
0.3728098649
 40
0.4397308548
 40
0.509261915
 40
0.5806485783
 40
0.6530505528
 40
0.7255823164
 40
0.7973535894
 40
0.8326929212
 40
0.8675237605
 40
0.9017517958
 40
0.9352965125
 40
0.9680770038
 40
1.0
 40
1.0
 40
1.0
 40
1.0
 10
15.272385721
 20
15.2290451799
 30
0.0
 10
15.2959020848
 20
15.2408033618
 30
0.0
 10
15.3445416557
 20
15.2617043144
 30
0.0
 10
15.4210432108
 20
15.2846801868
 30
0.0
 10
15.500817976
 20
15.299196627
 30
0.0
 10
15.5834036591
 20
15.3052140293
 30
0.0
 10
15.6683750937
 20
15.3027192915
 30
0.0
 10
15.7553026736
 20
15.2917726124
 30
0.0
 10
15.8437542538
 20
15.2724425134
 30
0.0
 10
15.9332984549
 20
15.2448560907
 30
0.0
 10
16.0235073371
 20
15.2091645591
 30
0.0
 10
16.14608495
 20
15.1500582721
 30
0.0
 10
16.2982939977
 20
15.056293021
 30
0.0
 10
16.4734788059
 20
14.9173747485
 30
0.0
 10
16.6409212709
 20
14.7529261699
 30
0.0
 10
16.7974035402
 20
14.5661614574
 30
0.0
 10
16.9399226034
 20
14.360707928
 30
0.0
 10
17.0657142247
 20
14.1405653218
 30
0.0
 10
17.1723251572
 20
13.9100396944
 30
0.0
 10
17.2438381522
 20
13.7119600197
 30
0.0
 10
17.2895671096
 20
13.5521662038
 30
0.0
 10
17.3177455461
 20
13.4332002629
 30
0.0
 10
17.339828686
 20
13.3150903352
 30
0.0
 10
17.3557143866
 20
13.1984054306
 30
0.0
 10
17.36530647
 20
13.083743738
 30
0.0
 10
17.3675203359
 20
13.0079857015
 30
0.0
 10
17.3675203359
 20
12.9706159097
 30
0.0
  0
SPLINE
  5
397
100
AcDbEntity
  8
0
100
AcDbSpline
 62
7
  6
CONTINUOUS
 70
0
 71
3
 72
9
 73
5
 74
0
 42
0.0000001
 43
0.0000001
 44
0.0000000001
 40
0.0
 40
0.0
 40
0.0
 40
0.0
 40
0.2489029464
 40
1.0
 40
1.0
 40
1.0
 40
1.0
 10
13.8087808964
 20
11.2818392407
 30
0.0
 10
13.8091758476
 20
11.2816417651
 30
0.0
 10
13.8107058205
 20
11.2807391952
 30
0.0
 10
13.8119926093
 20
11.2794270484
 30
0.0
 10
13.8127167253
 20
11.2783084822
 30
0.0
  0
SPLINE
  5
398
100
AcDbEntity
  8
0
100
AcDbSpline
 62
7
  6
CONTINUOUS
 70
0
 71
3
 72
9
 73
5
 74
0
 42
0.0000001
 43
0.0000001
 44
0.0000000001
 40
0.0
 40
0.0
 40
0.0
 40
0.0
 40
0.4999530136
 40
1.0
 40
1.0
 40
1.0
 40
1.0
 10
13.8127167253
 20
11.2783084822
 30
0.0
 10
13.8132321588
 20
11.2775122748
 30
0.0
 10
13.8140341909
 20
11.2757605508
 30
0.0
 10
13.8143100892
 20
11.2738536612
 30
0.0
 10
13.814308216
 20
11.2729050029
 30
0.0
  0
SPLINE
  5
399
100
AcDbEntity
  8
0
100
AcDbSpline
 62
7
  6
CONTINUOUS
 70
0
 71
3
 72
11
 73
7
 74
0
 42
0.0000001
 43
0.0000001
 44
0.0000000001
 40
0.0
 40
0.0
 40
0.0
 40
0.0
 40
0.3007521724
 40
0.5645413169
 40
0.7933831925
 40
1.0
 40
1.0
 40
1.0
 40
1.0
 10
14.0942225407
 20
10.4221273746
 30
0.0
 10
14.094653978
 20
10.4223430932
 30
0.0
 10
14.0954356116
 20
10.4228106166
 30
0.0
 10
14.09638774
 20
10.4236699663
 30
0.0
 10
14.0970057518
 20
10.4246273605
 30
0.0
 10
14.0971515107
 20
10.4253316623
 30
0.0
 10
14.097151489
 20
10.4256630448
 30
0.0
  0
SPLINE
  5
39A
100
AcDbEntity
  8
0
100
AcDbSpline
 62
7
  6
CONTINUOUS
 70
0
 71
3
 72
9
 73
5
 74
0
 42
0.0000001
 43
0.0000001
 44
0.0000000001
 40
0.0
 40
0.0
 40
0.0
 40
0.0
 40
0.2491590442
 40
1.0
 40
1.0
 40
1.0
 40
1.0
 10
12.6205115037
 20
10.813275561
 30
0.0
 10
12.6205115037
 20
10.8137058709
 30
0.0
 10
12.6206277025
 20
10.8154311166
 30
0.0
 10
12.6211943739
 20
10.817124782
 30
0.0
 10
12.6218371249
 20
10.8182510161
 30
0.0
  0
SPLINE
  5
39B
100
AcDbEntity
  8
0
100
AcDbSpline
 62
7
  6
CONTINUOUS
 70
0
 71
3
 72
11
 73
7
 74
0
 42
0.0000001
 43
0.0000001
 44
0.0000000001
 40
0.0
 40
0.0
 40
0.0
 40
0.0
 40
0.2351565506
 40
0.500007793
 40
0.7648517068
 40
1.0
 40
1.0
 40
1.0
 40
1.0
 10
13.0335623689
 20
9.8988683565
 30
0.0
 10
13.0345811761
 20
9.8983589529
 30
0.0
 10
13.0369256428
 20
9.8976352719
 30
0.0
 10
13.0406335163
 20
9.8972813165
 30
0.0
 10
13.0443413544
 20
9.8976352715
 30
0.0
 10
13.0466857331
 20
9.8983589708
 30
0.0
 10
13.0477045046
 20
9.8988683565
 30
0.0
  0
SPLINE
  5
39C
100
AcDbEntity
  8
0
100
AcDbSpline
 62
7
  6
CONTINUOUS
 70
0
 71
3
 72
8
 73
4
 74
0
 42
0.0000001
 43
0.0000001
 44
0.0000000001
 40
0.0
 40
0.0
 40
0.0
 40
0.0
 40
1.0
 40
1.0
 40
1.0
 40
1.0
 10
12.6260657323
 20
10.2803773557
 30
0.0
 10
12.6251365807
 20
10.2808407217
 30
0.0
 10
12.6242676275
 20
10.2814530575
 30
0.0
 10
12.623523439
 20
10.2821770839
 30
0.0
  0
LINE
  5
39D
100
AcDbEntity
  8
0
100
AcDbLine
 62
7
  6
CONTINUOUS
 10
12.6208777856
 20
10.2866484989
 11
12.6205169743
 21
10.2893025969
  0
SPLINE
  5
39E
100
AcDbEntity
  8
0
100
AcDbSpline
 62
7
  6
CONTINUOUS
 70
0
 71
3
 72
9
 73
5
 74
0
 42
0.0000001
 43
0.0000001
 44
0.0000000001
 40
0.0
 40
0.0
 40
0.0
 40
0.0
 40
0.2490497137
 40
1.0
 40
1.0
 40
1.0
 40
1.0
 10
13.6725574039
 20
11.345478851
 30
0.0
 10
13.6729273839
 20
11.3456638411
 30
0.0
 10
13.6744594855
 20
11.3463099432
 30
0.0
 10
13.6761527663
 20
11.3465713771
 30
0.0
 10
13.677399267
 20
11.3465277419
 30
0.0
  0
SPLINE
  5
39F
100
AcDbEntity
  8
0
100
AcDbSpline
 62
7
  6
CONTINUOUS
 70
0
 71
3
 72
9
 73
5
 74
0
 42
0.0000001
 43
0.0000001
 44
0.0000000001
 40
0.0
 40
0.0
 40
0.0
 40
0.0
 40
0.4999375363
 40
1.0
 40
1.0
 40
1.0
 40
1.0
 10
13.8143087604
 20
10.7489495995
 30
0.0
 10
13.8143087604
 20
10.7471318326
 30
0.0
 10
13.813275969
 20
10.7434241242
 30
0.0
 10
13.8104279477
 20
10.7408294192
 30
0.0
 10
13.8088012324
 20
10.7400171843
 30
0.0
  0
SPLINE
  5
3A0
100
AcDbEntity
  8
0
100
AcDbSpline
 62
7
  6
CONTINUOUS
 70
0
 71
3
 72
9
 73
5
 74
0
 42
0.0000001
 43
0.0000001
 44
0.0000000001
 40
0.0
 40
0.0
 40
0.0
 40
0.0
 40
0.2491590442
 40
1.0
 40
1.0
 40
1.0
 40
1.0
 10
12.3376687912
 20
10.4134310399
 30
0.0
 10
12.3376687912
 20
10.4138613498
 30
0.0
 10
12.3377849901
 20
10.4155865955
 30
0.0
 10
12.3383516614
 20
10.4172802608
 30
0.0
 10
12.3389944124
 20
10.418406495
 30
0.0
  0
SPLINE
  5
3A1
100
AcDbEntity
  8
0
100
AcDbSpline
 62
7
  6
CONTINUOUS
 70
0
 71
3
 72
9
 73
5
 74
0
 42
0.0000001
 43
0.0000001
 44
0.0000000001
 40
0.0
 40
0.0
 40
0.0
 40
0.0
 40
0.2489029464
 40
1.0
 40
1.0
 40
1.0
 40
1.0
 10
14.0916236089
 20
10.5991520071
 30
0.0
 10
14.0920185601
 20
10.5989545315
 30
0.0
 10
14.0935485329
 20
10.5980519616
 30
0.0
 10
14.0948353218
 20
10.5967398147
 30
0.0
 10
14.0955594377
 20
10.5956212486
 30
0.0
  0
SPLINE
  5
3A2
100
AcDbEntity
  8
0
100
AcDbSpline
 62
7
  6
CONTINUOUS
 70
0
 71
3
 72
9
 73
5
 74
0
 42
0.0000001
 43
0.0000001
 44
0.0000000001
 40
0.0
 40
0.0
 40
0.0
 40
0.0
 40
0.4999530136
 40
1.0
 40
1.0
 40
1.0
 40
1.0
 10
14.0955594377
 20
10.5956212486
 30
0.0
 10
14.0960748712
 20
10.5948250412
 30
0.0
 10
14.0968769034
 20
10.5930733172
 30
0.0
 10
14.0971528017
 20
10.5911664276
 30
0.0
 10
14.0971509285
 20
10.5902177693
 30
0.0
  0
SPLINE
  5
3A3
100
AcDbEntity
  8
0
100
AcDbSpline
 62
7
  6
CONTINUOUS
 70
0
 71
3
 72
11
 73
7
 74
0
 42
0.0000001
 43
0.0000001
 44
0.0000000001
 40
0.0
 40
0.0
 40
0.0
 40
0.0
 40
0.206620317
 40
0.4354582086
 40
0.6992451889
 40
1.0
 40
1.0
 40
1.0
 40
1.0
 10
12.337668775
 20
10.2488860769
 30
0.0
 10
12.3376687967
 20
10.2485547067
 30
0.0
 10
12.337814624
 20
10.2478504692
 30
0.0
 10
12.3384325965
 20
10.2468931347
 30
0.0
 10
12.3393847095
 20
10.2460338728
 30
0.0
 10
12.3401663056
 20
10.2455663882
 30
0.0
 10
12.3405977234
 20
10.2453506793
 30
0.0
  0
SPLINE
  5
3A4
100
AcDbEntity
  8
0
100
AcDbSpline
 62
7
  6
CONTINUOUS
 70
0
 71
3
 72
9
 73
5
 74
0
 42
0.0000001
 43
0.0000001
 44
0.0000000001
 40
0.0
 40
0.0
 40
0.0
 40
0.0
 40
0.2489029464
 40
1.0
 40
1.0
 40
1.0
 40
1.0
 10
16.6372080211
 20
12.6960528031
 30
0.0
 10
16.6376029724
 20
12.6958553275
 30
0.0
 10
16.6391329452
 20
12.6949527576
 30
0.0
 10
16.6404197341
 20
12.6936406107
 30
0.0
 10
16.64114385
 20
12.6925220446
 30
0.0
  0
SPLINE
  5
3A5
100
AcDbEntity
  8
0
100
AcDbSpline
 62
7
  6
CONTINUOUS
 70
0
 71
3
 72
9
 73
5
 74
0
 42
0.0000001
 43
0.0000001
 44
0.0000000001
 40
0.0
 40
0.0
 40
0.0
 40
0.0
 40
0.4999530136
 40
1.0
 40
1.0
 40
1.0
 40
1.0
 10
16.64114385
 20
12.6925220446
 30
0.0
 10
16.6416592835
 20
12.6917258372
 30
0.0
 10
16.6424613157
 20
12.6899741132
 30
0.0
 10
16.642737214
 20
12.6880672236
 30
0.0
 10
16.6427353408
 20
12.6871185653
 30
0.0
  0
SPLINE
  5
3A6
100
AcDbEntity
  8
0
100
AcDbSpline
 62
7
  6
CONTINUOUS
 70
0
 71
3
 72
9
 73
5
 74
0
 42
0.0000001
 43
0.0000001
 44
0.0000000001
 40
0.0
 40
0.0
 40
0.0
 40
0.0
 40
0.2491590442
 40
1.0
 40
1.0
 40
1.0
 40
1.0
 10
15.4489386284
 20
12.2274891234
 30
0.0
 10
15.4489386284
 20
12.2279194333
 30
0.0
 10
15.4490548273
 20
12.229644679
 30
0.0
 10
15.4496214987
 20
12.2313383443
 30
0.0
 10
15.4502642496
 20
12.2324645785
 30
0.0
  0
SPLINE
  5
3A7
100
AcDbEntity
  8
0
100
AcDbSpline
 62
7
  6
CONTINUOUS
 70
0
 71
3
 72
8
 73
4
 74
0
 42
0.0000001
 43
0.0000001
 44
0.0000000001
 40
0.0
 40
0.0
 40
0.0
 40
0.0
 40
1.0
 40
1.0
 40
1.0
 40
1.0
 10
15.4544928571
 20
11.694590918
 30
0.0
 10
15.4535637055
 20
11.6950542841
 30
0.0
 10
15.4526947523
 20
11.6956666198
 30
0.0
 10
15.4519505638
 20
11.6963906462
 30
0.0
  0
LINE
  5
3A8
100
AcDbEntity
  8
0
100
AcDbLine
 62
7
  6
CONTINUOUS
 10
15.4493049104
 20
11.7008620612
 11
15.4489440991
 21
11.7035161593
  0
SPLINE
  5
3A9
100
AcDbEntity
  8
0
100
AcDbSpline
 62
7
  6
CONTINUOUS
 70
0
 71
3
 72
9
 73
5
 74
0
 42
0.0000001
 43
0.0000001
 44
0.0000000001
 40
0.0
 40
0.0
 40
0.0
 40
0.0
 40
0.2490497137
 40
1.0
 40
1.0
 40
1.0
 40
1.0
 10
16.5009845286
 20
12.7596924134
 30
0.0
 10
16.5013545087
 20
12.7598774034
 30
0.0
 10
16.5028866102
 20
12.7605235056
 30
0.0
 10
16.504579891
 20
12.7607849395
 30
0.0
 10
16.5058263918
 20
12.7607413042
 30
0.0
  0
SPLINE
  5
3AA
100
AcDbEntity
  8
0
100
AcDbSpline
 62
7
  6
CONTINUOUS
 70
0
 71
3
 72
9
 73
5
 74
0
 42
0.0000001
 43
0.0000001
 44
0.0000000001
 40
0.0
 40
0.0
 40
0.0
 40
0.0
 40
0.4999375363
 40
1.0
 40
1.0
 40
1.0
 40
1.0
 10
16.6427358852
 20
12.1631631619
 30
0.0
 10
16.6427358852
 20
12.161345395
 30
0.0
 10
16.6417030938
 20
12.1576376866
 30
0.0
 10
16.6388550724
 20
12.1550429816
 30
0.0
 10
16.6372283572
 20
12.1542307467
 30
0.0
  0
SPLINE
  5
3AB
100
AcDbEntity
  8
0
100
AcDbSpline
 62
7
  6
CONTINUOUS
 70
0
 71
3
 72
11
 73
7
 74
0
 42
0.0000001
 43
0.0000001
 44
0.0000000001
 40
0.0
 40
0.0
 40
0.0
 40
0.0
 40
0.3007186605
 40
0.5644551563
 40
0.7932400494
 40
1.0
 40
1.0
 40
1.0
 40
1.0
 10
16.6716267581
 20
12.4222428839
 30
0.0
 10
16.6711952063
 20
12.4224586598
 30
0.0
 10
16.6704132274
 20
12.4229258418
 30
0.0
 10
16.6694598544
 20
12.4237842829
 30
0.0
 10
16.6688417296
 20
12.4247423451
 30
0.0
 10
16.6686963014
 20
12.4254470928
 30
0.0
 10
16.6686963039
 20
12.4257788299
 30
0.0
  0
SPLINE
  5
3AC
100
AcDbEntity
  8
0
100
AcDbSpline
 62
7
  6
CONTINUOUS
 70
0
 71
3
 72
11
 73
7
 74
0
 42
0.0000001
 43
0.0000001
 44
0.0000000001
 40
0.0
 40
0.0
 40
0.0
 40
0.0
 40
0.2350304115
 40
0.5000333197
 40
0.7650047279
 40
1.0
 40
1.0
 40
1.0
 40
1.0
 10
16.8484034534
 20
12.340925604
 30
0.0
 10
16.8473851424
 20
12.3404164485
 30
0.0
 10
16.8450410675
 20
12.3396906276
 30
0.0
 10
16.8413320416
 20
12.339338428
 30
0.0
 10
16.8376230799
 20
12.3396903331
 30
0.0
 10
16.8352794766
 20
12.3404165246
 30
0.0
 10
16.8342613178
 20
12.340925604
 30
0.0
  0
SPLINE
  5
3AD
100
AcDbEntity
  8
0
100
AcDbSpline
 62
7
  6
CONTINUOUS
 70
0
 71
3
 72
9
 73
5
 74
0
 42
0.0000001
 43
0.0000001
 44
0.0000000001
 40
0.0
 40
0.0
 40
0.0
 40
0.0
 40
0.2491590442
 40
1.0
 40
1.0
 40
1.0
 40
1.0
 10
15.1660959159
 20
11.8276446023
 30
0.0
 10
15.1660959159
 20
11.8280749121
 30
0.0
 10
15.1662121148
 20
11.8298001579
 30
0.0
 10
15.1667787862
 20
11.8314938232
 30
0.0
 10
15.1674215372
 20
11.8326200574
 30
0.0
  0
SPLINE
  5
3AE
100
AcDbEntity
  8
0
100
AcDbSpline
 62
7
  6
CONTINUOUS
 70
0
 71
3
 72
9
 73
5
 74
0
 42
0.0000001
 43
0.0000001
 44
0.0000000001
 40
0.0
 40
0.0
 40
0.0
 40
0.0
 40
0.2489029464
 40
1.0
 40
1.0
 40
1.0
 40
1.0
 10
16.9200507336
 20
12.0133655695
 30
0.0
 10
16.9204456848
 20
12.0131680939
 30
0.0
 10
16.9219756577
 20
12.012265524
 30
0.0
 10
16.9232624465
 20
12.0109533771
 30
0.0
 10
16.9239865625
 20
12.009834811
 30
0.0
  0
SPLINE
  5
3AF
100
AcDbEntity
  8
0
100
AcDbSpline
 62
7
  6
CONTINUOUS
 70
0
 71
3
 72
9
 73
5
 74
0
 42
0.0000001
 43
0.0000001
 44
0.0000000001
 40
0.0
 40
0.0
 40
0.0
 40
0.0
 40
0.4999530136
 40
1.0
 40
1.0
 40
1.0
 40
1.0
 10
16.9239865625
 20
12.009834811
 30
0.0
 10
16.924501996
 20
12.0090386036
 30
0.0
 10
16.9253040281
 20
12.0072868796
 30
0.0
 10
16.9255799265
 20
12.00537999
 30
0.0
 10
16.9255780532
 20
12.0044313317
 30
0.0
  0
SPLINE
  5
3B0
100
AcDbEntity
  8
0
100
AcDbSpline
 62
7
  6
CONTINUOUS
 70
0
 71
3
 72
11
 73
7
 74
0
 42
0.0000001
 43
0.0000001
 44
0.0000000001
 40
0.0
 40
0.0
 40
0.0
 40
0.0
 40
0.206620317
 40
0.4354582086
 40
0.6992451889
 40
1.0
 40
1.0
 40
1.0
 40
1.0
 10
15.1660958998
 20
11.6630996393
 30
0.0
 10
15.1660959215
 20
11.6627682691
 30
0.0
 10
15.1662417487
 20
11.6620640316
 30
0.0
 10
15.1668597212
 20
11.661106697
 30
0.0
 10
15.1678118343
 20
11.6602474352
 30
0.0
 10
15.1685934304
 20
11.6597799505
 30
0.0
 10
15.1690248481
 20
11.6595642417
 30
0.0
  0
SPLINE
  5
3B1
100
AcDbEntity
  8
0
100
AcDbSpline
 62
7
  6
CONTINUOUS
 70
0
 71
3
 72
11
 73
7
 74
0
 42
0.0000001
 43
0.0000001
 44
0.0000000001
 40
0.0
 40
0.0
 40
0.0
 40
0.0
 40
0.2351565506
 40
0.500007793
 40
0.7648517068
 40
1.0
 40
1.0
 40
1.0
 40
1.0
 10
14.536164279
 20
10.6501693115
 30
0.0
 10
14.5371830862
 20
10.6496599079
 30
0.0
 10
14.5395275528
 20
10.6489362269
 30
0.0
 10
14.5432354263
 20
10.6485822715
 30
0.0
 10
14.5469432644
 20
10.6489362265
 30
0.0
 10
14.5492876432
 20
10.6496599258
 30
0.0
 10
14.5503064146
 20
10.6501693115
 30
0.0
  0
SPLINE
  5
3B2
100
AcDbEntity
  8
0
100
AcDbSpline
 62
7
  6
CONTINUOUS
 70
0
 71
3
 72
11
 73
7
 74
0
 42
0.0000001
 43
0.0000001
 44
0.0000000001
 40
0.0
 40
0.0
 40
0.0
 40
0.0
 40
0.3007521724
 40
0.5645413169
 40
0.7933831925
 40
1.0
 40
1.0
 40
1.0
 40
1.0
 10
15.4200477554
 20
11.085039982
 30
0.0
 10
15.4204791927
 20
11.0852557006
 30
0.0
 10
15.4212608263
 20
11.085723224
 30
0.0
 10
15.4222129547
 20
11.0865825736
 30
0.0
 10
15.4228309665
 20
11.0875399679
 30
0.0
 10
15.4229767254
 20
11.0882442697
 30
0.0
 10
15.4229767038
 20
11.0885756522
 30
0.0
  0
LINE
  5
3B3
100
AcDbEntity
  8
0
100
AcDbLine
 62
9
  6
CONTINUOUS
 10
15.5932889168
 20
11.6363686099
 11
15.5930757555
 21
11.6343807238
  0
SPLINE
  5
3B4
100
AcDbEntity
  8
0
100
AcDbSpline
 62
9
  6
CONTINUOUS
 70
0
 71
3
 72
9
 73
5
 74
0
 42
0.0000001
 43
0.0000001
 44
0.0000000001
 40
0.0
 40
0.0
 40
0.0
 40
0.0
 40
0.5337264347
 40
1.0
 40
1.0
 40
1.0
 40
1.0
 10
15.5930757555
 20
11.6343807238
 30
0.0
 10
15.5929069748
 20
11.6336388999
 30
0.0
 10
15.5923907012
 20
11.6322675168
 30
0.0
 10
15.5912866845
 20
11.6312573731
 30
0.0
 10
15.5906923913
 20
11.6309597932
 30
0.0
  0
SPLINE
  5
3B5
100
AcDbEntity
  8
0
100
AcDbSpline
 62
9
  6
CONTINUOUS
 70
0
 71
3
 72
10
 73
6
 74
0
 42
0.0000001
 43
0.0000001
 44
0.0000000001
 40
0.0
 40
0.0
 40
0.0
 40
0.0
 40
0.2238170862
 40
0.4721720687
 40
1.0
 40
1.0
 40
1.0
 40
1.0
 10
15.1760959159
 20
11.8363048563
 30
0.0
 10
15.1754390037
 20
11.8359764002
 30
0.0
 10
15.1741477904
 20
11.8350901002
 30
0.0
 10
15.1718430257
 20
11.8327387669
 30
0.0
 10
15.1705552119
 20
11.8304682105
 30
0.0
 10
15.1699470226
 20
11.8288464469
 30
0.0
  0
LINE
  5
3B6
100
AcDbEntity
  8
0
100
AcDbLine
 62
9
  6
CONTINUOUS
 10
15.1693705244
 20
11.8269440307
 11
15.1690248481
 21
11.8241090684
  0
SPLINE
  5
3B7
100
AcDbEntity
  8
0
100
AcDbSpline
 62
9
  6
CONTINUOUS
 70
0
 71
3
 72
11
 73
7
 74
0
 42
0.0000001
 43
0.0000001
 44
0.0000000001
 40
0.0
 40
0.0
 40
0.0
 40
0.0
 40
0.2065948486
 40
0.4357471429
 40
0.6996026036
 40
1.0
 40
1.0
 40
1.0
 40
1.0
 10
12.6205106125
 20
10.2892992248
 30
0.0
 10
12.6205146568
 20
10.2889699748
 30
0.0
 10
12.6206672723
 20
10.2882716489
 30
0.0
 10
12.6212876631
 20
10.2873242584
 30
0.0
 10
12.622235663
 20
10.2864726792
 30
0.0
 10
12.6230122028
 20
10.2860087744
 30
0.0
 10
12.6234404358
 20
10.2857946578
 30
0.0
  0
SPLINE
  5
3B8
100
AcDbEntity
  8
0
100
AcDbSpline
 62
9
  6
CONTINUOUS
 70
0
 71
3
 72
11
 73
7
 74
0
 42
0.0000001
 43
0.0000001
 44
0.0000000001
 40
0.0
 40
0.0
 40
0.0
 40
0.0
 40
0.3007532566
 40
0.5645757942
 40
0.7934369275
 40
1.0
 40
1.0
 40
1.0
 40
1.0
 10
15.1690248481
 20
11.8241090684
 30
0.0
 10
15.1685933621
 20
11.8243248114
 30
0.0
 10
15.1678115938
 20
11.8247924178
 30
0.0
 10
15.1668592461
 20
11.8256518119
 30
0.0
 10
15.1662406847
 20
11.826608965
 30
0.0
 10
15.1660946312
 20
11.8273132698
 30
0.0
 10
15.1660946312
 20
11.8276446023
 30
0.0
  0
LINE
  5
3B9
100
AcDbEntity
  8
0
100
AcDbLine
 62
9
  6
CONTINUOUS
 10
13.6814978161
 20
11.3454820055
 11
13.6803523274
 21
11.3458399013
  0
SPLINE
  5
3BA
100
AcDbEntity
  8
0
100
AcDbSpline
 62
9
  6
CONTINUOUS
 70
0
 71
3
 72
9
 73
5
 74
0
 42
0.0000001
 43
0.0000001
 44
0.0000000001
 40
0.0
 40
0.0
 40
0.0
 40
0.0
 40
0.2315823991
 40
1.0
 40
1.0
 40
1.0
 40
1.0
 10
13.6803523274
 20
11.3458399013
 30
0.0
 10
13.6800914942
 20
11.3458785633
 30
0.0
 10
13.6789485296
 20
11.3459356402
 30
0.0
 10
13.6778121022
 20
11.3455861143
 30
0.0
 10
13.6770295398
 20
11.3451948332
 30
0.0
  0
SPLINE
  5
3BB
100
AcDbEntity
  8
0
100
AcDbSpline
 62
9
  6
CONTINUOUS
 70
0
 71
3
 72
11
 73
7
 74
0
 42
0.0000001
 43
0.0000001
 44
0.0000000001
 40
0.0
 40
0.0
 40
0.0
 40
0.0
 40
0.2466028424
 40
0.5118887438
 40
0.770581603
 40
1.0
 40
1.0
 40
1.0
 40
1.0
 10
15.8619894937
 20
11.4776267456
 30
0.0
 10
15.8619894937
 20
11.4788335545
 30
0.0
 10
15.8624106831
 20
11.4813417303
 30
0.0
 10
15.8639129893
 20
11.4848355457
 30
0.0
 10
15.866138498
 20
11.4878151557
 30
0.0
 10
15.8680563766
 20
11.4893204411
 30
0.0
 10
15.8690605615
 20
11.4898225335
 30
0.0
  0
SPLINE
  5
3BC
100
AcDbEntity
  8
0
100
AcDbSpline
 62
9
  6
CONTINUOUS
 70
0
 71
3
 72
11
 73
7
 74
0
 42
0.0000001
 43
0.0000001
 44
0.0000000001
 40
0.0
 40
0.0
 40
0.0
 40
0.0
 40
0.2294888932
 40
0.4882056407
 40
0.7534262758
 40
1.0
 40
1.0
 40
1.0
 40
1.0
 10
15.8690605615
 20
11.4898225335
 30
0.0
 10
15.870065053
 20
11.4893202878
 30
0.0
 10
15.8719828946
 20
11.4878141951
 30
0.0
 10
15.8742088674
 20
11.4848348336
 30
0.0
 10
15.875710611
 20
11.4813410949
 30
0.0
 10
15.8761316293
 20
11.4788334097
 30
0.0
 10
15.8761316293
 20
11.4776267456
 30
0.0
  0
SPLINE
  5
3BD
100
AcDbEntity
  8
0
100
AcDbSpline
 62
9
  6
CONTINUOUS
 70
0
 71
3
 72
11
 73
7
 74
0
 42
0.0000001
 43
0.0000001
 44
0.0000000001
 40
0.0
 40
0.0
 40
0.0
 40
0.0
 40
0.235105078
 40
0.4999017317
 40
0.7647912646
 40
1.0
 40
1.0
 40
1.0
 40
1.0
 10
15.8761316293
 20
11.4776267456
 30
0.0
 10
15.8751130294
 20
11.4771174456
 30
0.0
 10
15.8727692506
 20
11.476393327
 30
0.0
 10
15.869061563
 20
11.4760390511
 30
0.0
 10
15.8653534535
 20
11.4763934019
 30
0.0
 10
15.8630085427
 20
11.4771172211
 30
0.0
 10
15.8619894937
 20
11.4776267456
 30
0.0
  0
SPLINE
  5
3BE
100
AcDbEntity
  8
0
100
AcDbSpline
 62
9
  6
CONTINUOUS
 70
0
 71
3
 72
10
 73
6
 74
0
 42
0.0000001
 43
0.0000001
 44
0.0000000001
 40
0.0
 40
0.0
 40
0.0
 40
0.0
 40
0.2349888359
 40
0.4880908463
 40
1.0
 40
1.0
 40
1.0
 40
1.0
 10
14.0942225407
 20
10.5866722013
 30
0.0
 10
14.0942225407
 20
10.5874667531
 30
0.0
 10
14.0940332992
 20
10.5891195775
 30
0.0
 10
14.0930816976
 20
10.5923722941
 30
0.0
 10
14.0917553157
 20
10.5946665658
 30
0.0
 10
14.0906430501
 20
10.5959927722
 30
0.0
  0
SPLINE
  5
3BF
100
AcDbEntity
  8
0
100
AcDbSpline
 62
9
  6
CONTINUOUS
 70
0
 71
3
 72
9
 73
5
 74
0
 42
0.0000001
 43
0.0000001
 44
0.0000000001
 40
0.0
 40
0.0
 40
0.0
 40
0.0
 40
0.2655583622
 40
1.0
 40
1.0
 40
1.0
 40
1.0
 10
14.0897444227
 20
10.5969649817
 30
0.0
 10
14.0895406439
 20
10.5971646754
 30
0.0
 10
14.088749128
 20
10.5978905342
 30
0.0
 10
14.0878572432
 20
10.5985151041
 30
0.0
 10
14.0871514729
 20
10.5988679893
 30
0.0
  0
SPLINE
  5
3C0
100
AcDbEntity
  8
0
100
AcDbSpline
 62
9
  6
CONTINUOUS
 70
0
 71
3
 72
10
 73
6
 74
0
 42
0.0000001
 43
0.0000001
 44
0.0000000001
 40
0.0
 40
0.0
 40
0.0
 40
0.0
 40
0.532869881
 40
0.7720952765
 40
1.0
 40
1.0
 40
1.0
 40
1.0
 10
14.0871514729
 20
10.5988679893
 30
0.0
 10
14.087886168
 20
10.5992353368
 30
0.0
 10
14.0890614256
 20
10.5996088449
 30
0.0
 10
14.0906153541
 20
10.5995404283
 30
0.0
 10
14.09130994
 20
10.5993102294
 30
0.0
 10
14.0916241822
 20
10.599153154
 30
0.0
  0
SPLINE
  5
3C1
100
AcDbEntity
  8
0
100
AcDbSpline
 62
9
  6
CONTINUOUS
 70
0
 71
3
 72
9
 73
5
 74
0
 42
0.0000001
 43
0.0000001
 44
0.0000000001
 40
0.0
 40
0.0
 40
0.0
 40
0.0
 40
0.4868284466
 40
1.0
 40
1.0
 40
1.0
 40
1.0
 10
13.8087833714
 20
10.7400052716
 30
0.0
 10
13.8091222032
 20
10.7401749389
 30
0.0
 10
13.8097673912
 20
10.7406337663
 30
0.0
 10
13.8102521309
 20
10.7412563488
 30
0.0
 10
13.8104576537
 20
10.7415988616
 30
0.0
  0
SPLINE
  5
3C2
100
AcDbEntity
  8
0
100
AcDbSpline
 62
9
  6
CONTINUOUS
 70
0
 71
3
 72
9
 73
5
 74
0
 42
0.0000001
 43
0.0000001
 44
0.0000000001
 40
0.0
 40
0.0
 40
0.0
 40
0.0
 40
0.2284130495
 40
1.0
 40
1.0
 40
1.0
 40
1.0
 10
13.8104576537
 20
10.7415988616
 30
0.0
 10
13.8106125038
 20
10.7418569262
 30
0.0
 10
13.8111867338
 20
10.743048932
 30
0.0
 10
13.8113798282
 20
10.7443974186
 30
0.0
 10
13.8113798282
 20
10.7454140656
 30
0.0
  0
SPLINE
  5
3C3
100
AcDbEntity
  8
0
100
AcDbSpline
 62
9
  6
CONTINUOUS
 70
0
 71
3
 72
10
 73
6
 74
0
 42
0.0000001
 43
0.0000001
 44
0.0000000001
 40
0.0
 40
0.0
 40
0.0
 40
0.0
 40
0.2238170862
 40
0.4721720687
 40
1.0
 40
1.0
 40
1.0
 40
1.0
 10
12.3476687912
 20
10.422091294
 30
0.0
 10
12.347011879
 20
10.4217628379
 30
0.0
 10
12.3457206657
 20
10.4208765378
 30
0.0
 10
12.343415901
 20
10.4185252045
 30
0.0
 10
12.3421280871
 20
10.4162546481
 30
0.0
 10
12.3415198979
 20
10.4146328845
 30
0.0
  0
LINE
  5
3C4
100
AcDbEntity
  8
0
100
AcDbLine
 62
9
  6
CONTINUOUS
 10
12.3409433996
 20
10.4127304683
 11
12.3405977234
 21
10.409895506
  0
SPLINE
  5
3C5
100
AcDbEntity
  8
0
100
AcDbSpline
 62
9
  6
CONTINUOUS
 70
0
 71
3
 72
11
 73
7
 74
0
 42
0.0000001
 43
0.0000001
 44
0.0000000001
 40
0.0
 40
0.0
 40
0.0
 40
0.0
 40
0.3007532566
 40
0.5645757942
 40
0.7934369275
 40
1.0
 40
1.0
 40
1.0
 40
1.0
 10
12.3405977234
 20
10.409895506
 30
0.0
 10
12.3401662374
 20
10.410111249
 30
0.0
 10
12.339384469
 20
10.4105788554
 30
0.0
 10
12.3384321213
 20
10.4114382496
 30
0.0
 10
12.3378135599
 20
10.4123954026
 30
0.0
 10
12.3376675065
 20
10.4130997074
 30
0.0
 10
12.3376675065
 20
10.4134310399
 30
0.0
  0
SPLINE
  5
3C6
100
AcDbEntity
  8
0
100
AcDbSpline
 62
9
  6
CONTINUOUS
 70
0
 71
3
 72
10
 73
6
 74
0
 42
0.0000001
 43
0.0000001
 44
0.0000000001
 40
0.0
 40
0.0
 40
0.0
 40
0.0
 40
0.2279239384
 40
0.4671190037
 40
1.0
 40
1.0
 40
1.0
 40
1.0
 10
13.8458024249
 20
11.1736794213
 30
0.0
 10
13.8461165646
 20
11.1738359791
 30
0.0
 10
13.8468105491
 20
11.174065454
 30
0.0
 10
13.8483629784
 20
11.1741329997
 30
0.0
 10
13.849536728
 20
11.1737592356
 30
0.0
 10
13.8502707012
 20
11.173392249
 30
0.0
  0
SPLINE
  5
3C7
100
AcDbEntity
  8
0
100
AcDbSpline
 62
9
  6
CONTINUOUS
 70
0
 71
3
 72
11
 73
7
 74
0
 42
0.0000001
 43
0.0000001
 44
0.0000000001
 40
0.0
 40
0.0
 40
0.0
 40
0.0
 40
0.2466028424
 40
0.5118887438
 40
0.770581603
 40
1.0
 40
1.0
 40
1.0
 40
1.0
 10
13.0335623689
 20
10.0634131832
 30
0.0
 10
13.0335623689
 20
10.0646199922
 30
0.0
 10
13.0339835584
 20
10.067128168
 30
0.0
 10
13.0354858645
 20
10.0706219833
 30
0.0
 10
13.0377113733
 20
10.0736015933
 30
0.0
 10
13.0396292519
 20
10.0751068787
 30
0.0
 10
13.0406334367
 20
10.0756089712
 30
0.0
  0
SPLINE
  5
3C8
100
AcDbEntity
  8
0
100
AcDbSpline
 62
9
  6
CONTINUOUS
 70
0
 71
3
 72
11
 73
7
 74
0
 42
0.0000001
 43
0.0000001
 44
0.0000000001
 40
0.0
 40
0.0
 40
0.0
 40
0.0
 40
0.2294888932
 40
0.4882056407
 40
0.7534262758
 40
1.0
 40
1.0
 40
1.0
 40
1.0
 10
13.0406334367
 20
10.0756089712
 30
0.0
 10
13.0416379282
 20
10.0751067254
 30
0.0
 10
13.0435557699
 20
10.0736006328
 30
0.0
 10
13.0457817427
 20
10.0706212712
 30
0.0
 10
13.0472834862
 20
10.0671275325
 30
0.0
 10
13.0477045046
 20
10.0646198473
 30
0.0
 10
13.0477045046
 20
10.0634131832
 30
0.0
  0
SPLINE
  5
3C9
100
AcDbEntity
  8
0
100
AcDbSpline
 62
9
  6
CONTINUOUS
 70
0
 71
3
 72
11
 73
7
 74
0
 42
0.0000001
 43
0.0000001
 44
0.0000000001
 40
0.0
 40
0.0
 40
0.0
 40
0.0
 40
0.235105078
 40
0.4999017317
 40
0.7647912646
 40
1.0
 40
1.0
 40
1.0
 40
1.0
 10
13.0477045046
 20
10.0634131832
 30
0.0
 10
13.0466859046
 20
10.0629038833
 30
0.0
 10
13.0443421258
 20
10.0621797647
 30
0.0
 10
13.0406344383
 20
10.0618254887
 30
0.0
 10
13.0369263287
 20
10.0621798395
 30
0.0
 10
13.0345814179
 20
10.0629036587
 30
0.0
 10
13.0335623689
 20
10.0634131832
 30
0.0
  0
SPLINE
  5
3CA
100
AcDbEntity
  8
0
100
AcDbSpline
 62
9
  6
CONTINUOUS
 70
0
 71
3
 72
9
 73
5
 74
0
 42
0.0000001
 43
0.0000001
 44
0.0000000001
 40
0.0
 40
0.0
 40
0.0
 40
0.0
 40
0.4868284466
 40
1.0
 40
1.0
 40
1.0
 40
1.0
 10
12.7533161133
 20
10.2167462535
 30
0.0
 10
12.7529772815
 20
10.2169159209
 30
0.0
 10
12.7523320935
 20
10.2173747482
 30
0.0
 10
12.7518473538
 20
10.2179973307
 30
0.0
 10
12.751641831
 20
10.2183398436
 30
0.0
  0
LINE
  5
3CB
100
AcDbEntity
  8
0
100
AcDbLine
 62
9
  6
CONTINUOUS
 10
12.751641831
 20
10.2183398436
 11
12.7509328671
 21
10.2201669784
  0
LINE
  5
3CC
100
AcDbEntity
  8
0
100
AcDbLine
 62
9
  6
CONTINUOUS
 10
12.7509328671
 20
10.2201669784
 11
12.7507196565
 21
10.2221550475
  0
SPLINE
  5
3CD
100
AcDbEntity
  8
0
100
AcDbSpline
 62
9
  6
CONTINUOUS
 70
0
 71
3
 72
9
 73
5
 74
0
 42
0.0000001
 43
0.0000001
 44
0.0000000001
 40
0.0
 40
0.0
 40
0.0
 40
0.0
 40
0.5454805756
 40
1.0
 40
1.0
 40
1.0
 40
1.0
 10
13.8113798282
 20
10.7454140656
 30
0.0
 10
13.8119427936
 20
10.7456955483
 30
0.0
 10
13.8129294222
 20
10.746311927
 30
0.0
 10
13.8137186882
 20
10.747194105
 30
0.0
 10
13.8139680187
 20
10.7476555043
 30
0.0
  0
LINE
  5
3CE
100
AcDbEntity
  8
0
100
AcDbLine
 62
9
  6
CONTINUOUS
 10
13.8139680187
 20
10.7476555043
 11
13.8143100451
 21
10.7489495995
  0
SPLINE
  5
3CF
100
AcDbEntity
  8
0
100
AcDbSpline
 62
9
  6
CONTINUOUS
 70
0
 71
3
 72
10
 73
6
 74
0
 42
0.0000001
 43
0.0000001
 44
0.0000000001
 40
0.0
 40
0.0
 40
0.0
 40
0.0
 40
0.227923689
 40
0.467190964
 40
1.0
 40
1.0
 40
1.0
 40
1.0
 10
12.3432023385
 20
10.4223794291
 30
0.0
 10
12.3435164094
 20
10.4225357444
 30
0.0
 10
12.344210406
 20
10.4227644701
 30
0.0
 10
12.3457620166
 20
10.4228311127
 30
0.0
 10
12.3469352711
 20
10.422458054
 30
0.0
 10
12.3476687912
 20
10.422091294
 30
0.0
  0
SPLINE
  5
3D0
100
AcDbEntity
  8
0
100
AcDbSpline
 62
9
  6
CONTINUOUS
 70
0
 71
3
 72
9
 73
5
 74
0
 42
0.0000001
 43
0.0000001
 44
0.0000000001
 40
0.0
 40
0.0
 40
0.0
 40
0.0
 40
0.5454805756
 40
1.0
 40
1.0
 40
1.0
 40
1.0
 10
16.639806953
 20
12.159627628
 30
0.0
 10
16.6403699183
 20
12.1599091107
 30
0.0
 10
16.6413565469
 20
12.1605254894
 30
0.0
 10
16.6421458129
 20
12.1614076673
 30
0.0
 10
16.6423951434
 20
12.1618690667
 30
0.0
  0
LINE
  5
3D1
100
AcDbEntity
  8
0
100
AcDbLine
 62
9
  6
CONTINUOUS
 10
16.6423951434
 20
12.1618690667
 11
16.6427371699
 21
12.1631631619
  0
SPLINE
  5
3D2
100
AcDbEntity
  8
0
100
AcDbSpline
 62
9
  6
CONTINUOUS
 70
0
 71
3
 72
9
 73
5
 74
0
 42
0.0000001
 43
0.0000001
 44
0.0000000001
 40
0.0
 40
0.0
 40
0.0
 40
0.0
 40
0.2742227212
 40
1.0
 40
1.0
 40
1.0
 40
1.0
 10
13.6770295398
 20
11.3451948332
 30
0.0
 10
13.6767334184
 20
11.3453428939
 30
0.0
 10
13.6756248712
 20
11.3458132594
 30
0.0
 10
13.674352617
 20
11.3459772447
 30
0.0
 10
13.6734940059
 20
11.3458023461
 30
0.0
  0
LINE
  5
3D3
100
AcDbEntity
  8
0
100
AcDbLine
 62
9
  6
CONTINUOUS
 10
13.6734940059
 20
11.3458023461
 11
13.6725568305
 21
11.3454799979
  0
SPLINE
  5
3D4
100
AcDbEntity
  8
0
100
AcDbSpline
 62
9
  6
CONTINUOUS
 70
0
 71
3
 72
11
 73
7
 74
0
 42
0.0000001
 43
0.0000001
 44
0.0000000001
 40
0.0
 40
0.0
 40
0.0
 40
0.0
 40
0.2065830902
 40
0.4355912969
 40
0.6994281886
 40
1.0
 40
1.0
 40
1.0
 40
1.0
 10
14.0971525147
 20
10.5901936856
 30
0.0
 10
14.0971506888
 20
10.5898632862
 30
0.0
 10
14.097001713
 20
10.5891616375
 30
0.0
 10
14.0963822113
 20
10.5882089413
 30
0.0
 10
14.0954318779
 20
10.5873530992
 30
0.0
 10
14.094652517
 20
10.5868871894
 30
0.0
 10
14.0942225407
 20
10.5866722013
 30
0.0
  0
SPLINE
  5
3D5
100
AcDbEntity
  8
0
100
AcDbSpline
 62
9
  6
CONTINUOUS
 70
0
 71
3
 72
9
 73
5
 74
0
 42
0.0000001
 43
0.0000001
 44
0.0000000001
 40
0.0
 40
0.0
 40
0.0
 40
0.0
 40
0.2742227212
 40
1.0
 40
1.0
 40
1.0
 40
1.0
 10
16.5054566646
 20
12.7594083955
 30
0.0
 10
16.5051605431
 20
12.7595564562
 30
0.0
 10
16.5040519959
 20
12.7600268218
 30
0.0
 10
16.5027797417
 20
12.760190807
 30
0.0
 10
16.5019211307
 20
12.7600159084
 30
0.0
  0
LINE
  5
3D6
100
AcDbEntity
  8
0
100
AcDbLine
 62
9
  6
CONTINUOUS
 10
16.5019211307
 20
12.7600159084
 11
16.5009839552
 21
12.7596935603
  0
SPLINE
  5
3D7
100
AcDbEntity
  8
0
100
AcDbSpline
 62
9
  6
CONTINUOUS
 70
0
 71
3
 72
17
 73
13
 74
0
 42
0.0000001
 43
0.0000001
 44
0.0000000001
 40
0.0
 40
0.0
 40
0.0
 40
0.0
 40
0.0537410337
 40
0.1077553015
 40
0.1623081324
 40
0.2176498955
 40
0.331513193
 40
0.450991933
 40
0.5771631666
 40
0.7106439154
 40
0.8516873724
 40
1.0
 40
1.0
 40
1.0
 40
1.0
 10
14.8680023056
 20
14.747342135
 30
0.0
 10
14.8521956422
 20
14.7394395962
 30
0.0
 10
14.8212010285
 20
14.7221490255
 30
0.0
 10
14.7770710767
 20
14.692008943
 30
0.0
 10
14.7353752933
 20
14.6577399304
 30
0.0
 10
14.6827227285
 20
14.6062311073
 30
0.0
 10
14.623551409
 20
14.5314163762
 30
0.0
 10
14.565108787
 20
14.4281848855
 30
0.0
 10
14.5190893554
 20
14.3119323993
 30
0.0
 10
14.4859773155
 20
14.1840877341
 30
0.0
 10
14.4661168868
 20
14.0462232637
 30
0.0
 10
14.4619180669
 20
13.9509997513
 30
0.0
 10
14.4619180669
 20
13.9022290939
 30
0.0
  0
SPLINE
  5
3D8
100
AcDbEntity
  8
0
100
AcDbSpline
 62
9
  6
CONTINUOUS
 70
0
 71
3
 72
9
 73
5
 74
0
 42
0.0000001
 43
0.0000001
 44
0.0000000001
 40
0.0
 40
0.0
 40
0.0
 40
0.0
 40
0.2737605568
 40
1.0
 40
1.0
 40
1.0
 40
1.0
 10
12.6234404358
 20
10.2857946578
 30
0.0
 10
12.6234404358
 20
10.285427693
 30
0.0
 10
12.6235127126
 20
10.2840921842
 30
0.0
 10
12.6238881777
 20
10.2827440454
 30
0.0
 10
12.6244011401
 20
10.2819166633
 30
0.0
  0
SPLINE
  5
3D9
100
AcDbEntity
  8
0
100
AcDbSpline
 62
9
  6
CONTINUOUS
 70
0
 71
3
 72
9
 73
5
 74
0
 42
0.0000001
 43
0.0000001
 44
0.0000000001
 40
0.0
 40
0.0
 40
0.0
 40
0.0
 40
0.5125491731
 40
1.0
 40
1.0
 40
1.0
 40
1.0
 10
12.6244011401
 20
10.2819166633
 30
0.0
 10
12.624605386
 20
10.2815872251
 30
0.0
 10
12.6250839245
 20
10.2809888041
 30
0.0
 10
12.6257130145
 20
10.2805473699
 30
0.0
 10
12.626042932
 20
10.2803829126
 30
0.0
  0
SPLINE
  5
3DA
100
AcDbEntity
  8
0
100
AcDbSpline
 62
9
  6
CONTINUOUS
 70
0
 71
3
 72
11
 73
7
 74
0
 42
0.0000001
 43
0.0000001
 44
0.0000000001
 40
0.0
 40
0.0
 40
0.0
 40
0.0
 40
0.2065830902
 40
0.4355912969
 40
0.6994281886
 40
1.0
 40
1.0
 40
1.0
 40
1.0
 10
16.642736927
 20
12.6870944816
 30
0.0
 10
16.6427351011
 20
12.6867640821
 30
0.0
 10
16.6425861253
 20
12.6860624334
 30
0.0
 10
16.6419666236
 20
12.6851097373
 30
0.0
 10
16.6410162901
 20
12.6842538952
 30
0.0
 10
16.6402369292
 20
12.6837879854
 30
0.0
 10
16.639806953
 20
12.6835729973
 30
0.0
  0
SPLINE
  5
3DB
100
AcDbEntity
  8
0
100
AcDbSpline
 62
9
  6
CONTINUOUS
 70
0
 71
3
 72
10
 73
6
 74
0
 42
0.0000001
 43
0.0000001
 44
0.0000000001
 40
0.0
 40
0.0
 40
0.0
 40
0.0
 40
0.227923689
 40
0.467190964
 40
1.0
 40
1.0
 40
1.0
 40
1.0
 10
15.4544721758
 20
12.2364375126
 30
0.0
 10
15.4547862466
 20
12.2365938279
 30
0.0
 10
15.4554802433
 20
12.2368225536
 30
0.0
 10
15.4570318538
 20
12.2368891962
 30
0.0
 10
15.4582051083
 20
12.2365161375
 30
0.0
 10
15.4589386284
 20
12.2361493775
 30
0.0
  0
SPLINE
  5
3DC
100
AcDbEntity
  8
0
100
AcDbSpline
 62
9
  6
CONTINUOUS
 70
0
 71
3
 72
10
 73
6
 74
0
 42
0.0000001
 43
0.0000001
 44
0.0000000001
 40
0.0
 40
0.0
 40
0.0
 40
0.0
 40
0.2238170862
 40
0.4721720687
 40
1.0
 40
1.0
 40
1.0
 40
1.0
 10
12.6305115037
 20
10.8219358151
 30
0.0
 10
12.6298545915
 20
10.821607359
 30
0.0
 10
12.6285633781
 20
10.820721059
 30
0.0
 10
12.6262586134
 20
10.8183697257
 30
0.0
 10
12.6249707996
 20
10.8160991693
 30
0.0
 10
12.6243626104
 20
10.8144774056
 30
0.0
  0
LINE
  5
3DD
100
AcDbEntity
  8
0
100
AcDbLine
 62
9
  6
CONTINUOUS
 10
12.6237861121
 20
10.8125749894
 11
12.6234404358
 21
10.8097400271
  0
SPLINE
  5
3DE
100
AcDbEntity
  8
0
100
AcDbSpline
 62
9
  6
CONTINUOUS
 70
0
 71
3
 72
11
 73
7
 74
0
 42
0.0000001
 43
0.0000001
 44
0.0000000001
 40
0.0
 40
0.0
 40
0.0
 40
0.0
 40
0.3007532566
 40
0.5645757942
 40
0.7934369275
 40
1.0
 40
1.0
 40
1.0
 40
1.0
 10
12.6234404358
 20
10.8097400271
 30
0.0
 10
12.6230089499
 20
10.8099557701
 30
0.0
 10
12.6222271815
 20
10.8104233765
 30
0.0
 10
12.6212748338
 20
10.8112827707
 30
0.0
 10
12.6206562724
 20
10.8122399238
 30
0.0
 10
12.620510219
 20
10.8129442285
 30
0.0
 10
12.620510219
 20
10.813275561
 30
0.0
  0
SPLINE
  5
3DF
100
AcDbEntity
  8
0
100
AcDbSpline
 62
9
  6
CONTINUOUS
 70
0
 71
3
 72
11
 73
7
 74
0
 42
0.0000001
 43
0.0000001
 44
0.0000000001
 40
0.0
 40
0.0
 40
0.0
 40
0.0
 40
0.235105078
 40
0.4999017317
 40
0.7647912646
 40
1.0
 40
1.0
 40
1.0
 40
1.0
 10
12.7648617921
 20
10.7461004168
 30
0.0
 10
12.7638431922
 20
10.7455911169
 30
0.0
 10
12.7614994133
 20
10.7448669983
 30
0.0
 10
12.7577917258
 20
10.7445127223
 30
0.0
 10
12.7540836163
 20
10.7448670731
 30
0.0
 10
12.7517387055
 20
10.7455908923
 30
0.0
 10
12.7507196565
 20
10.7461004168
 30
0.0
  0
SPLINE
  5
3E0
100
AcDbEntity
  8
0
100
AcDbSpline
 62
9
  6
CONTINUOUS
 70
0
 71
3
 72
11
 73
7
 74
0
 42
0.0000001
 43
0.0000001
 44
0.0000000001
 40
0.0
 40
0.0
 40
0.0
 40
0.0
 40
0.2466028424
 40
0.5118887438
 40
0.770581603
 40
1.0
 40
1.0
 40
1.0
 40
1.0
 10
12.7507196565
 20
10.7461004168
 30
0.0
 10
12.7507196565
 20
10.7473072258
 30
0.0
 10
12.7511408459
 20
10.7498154016
 30
0.0
 10
12.7526431521
 20
10.7533092169
 30
0.0
 10
12.7548686608
 20
10.7562888269
 30
0.0
 10
12.7567865394
 20
10.7577941123
 30
0.0
 10
12.7577907243
 20
10.7582962048
 30
0.0
  0
SPLINE
  5
3E1
100
AcDbEntity
  8
0
100
AcDbSpline
 62
9
  6
CONTINUOUS
 70
0
 71
3
 72
11
 73
7
 74
0
 42
0.0000001
 43
0.0000001
 44
0.0000000001
 40
0.0
 40
0.0
 40
0.0
 40
0.0
 40
0.2294888932
 40
0.4882056407
 40
0.7534262758
 40
1.0
 40
1.0
 40
1.0
 40
1.0
 10
12.7577907243
 20
10.7582962048
 30
0.0
 10
12.7587952157
 20
10.757793959
 30
0.0
 10
12.7607130574
 20
10.7562878664
 30
0.0
 10
12.7629390302
 20
10.7533085048
 30
0.0
 10
12.7644407738
 20
10.7498147661
 30
0.0
 10
12.7648617921
 20
10.7473070809
 30
0.0
 10
12.7648617921
 20
10.7461004168
 30
0.0
  0
SPLINE
  5
3E2
100
AcDbEntity
  8
0
100
AcDbSpline
 62
9
  6
CONTINUOUS
 70
0
 71
3
 72
10
 73
6
 74
0
 42
0.0000001
 43
0.0000001
 44
0.0000000001
 40
0.0
 40
0.0
 40
0.0
 40
0.0
 40
0.2349888359
 40
0.4880908463
 40
1.0
 40
1.0
 40
1.0
 40
1.0
 10
13.8113798282
 20
11.2693594349
 30
0.0
 10
13.8113798282
 20
11.2701539867
 30
0.0
 10
13.8111905867
 20
11.2718068111
 30
0.0
 10
13.8102389851
 20
11.2750595277
 30
0.0
 10
13.8089126033
 20
11.2773537994
 30
0.0
 10
13.8078003376
 20
11.2786800058
 30
0.0
  0
SPLINE
  5
3E3
100
AcDbEntity
  8
0
100
AcDbSpline
 62
9
  6
CONTINUOUS
 70
0
 71
3
 72
9
 73
5
 74
0
 42
0.0000001
 43
0.0000001
 44
0.0000000001
 40
0.0
 40
0.0
 40
0.0
 40
0.0
 40
0.2655583622
 40
1.0
 40
1.0
 40
1.0
 40
1.0
 10
13.8069017102
 20
11.2796522153
 30
0.0
 10
13.8066979314
 20
11.279851909
 30
0.0
 10
13.8059064155
 20
11.2805777678
 30
0.0
 10
13.8050145308
 20
11.2812023377
 30
0.0
 10
13.8043087604
 20
11.2815552229
 30
0.0
  0
SPLINE
  5
3E4
100
AcDbEntity
  8
0
100
AcDbSpline
 62
9
  6
CONTINUOUS
 70
0
 71
3
 72
10
 73
6
 74
0
 42
0.0000001
 43
0.0000001
 44
0.0000000001
 40
0.0
 40
0.0
 40
0.0
 40
0.0
 40
0.532869881
 40
0.7720952765
 40
1.0
 40
1.0
 40
1.0
 40
1.0
 10
13.8043087604
 20
11.2815552229
 30
0.0
 10
13.8050434555
 20
11.2819225704
 30
0.0
 10
13.8062187131
 20
11.2822960785
 30
0.0
 10
13.8077726416
 20
11.2822276619
 30
0.0
 10
13.8084672275
 20
11.281997463
 30
0.0
 10
13.8087814698
 20
11.2818403876
 30
0.0
  0
SPLINE
  5
3E5
100
AcDbEntity
  8
0
100
AcDbSpline
 62
9
  6
CONTINUOUS
 70
0
 71
3
 72
32
 73
28
 74
0
 42
0.0000001
 43
0.0000001
 44
0.0000000001
 40
0.0
 40
0.0
 40
0.0
 40
0.0
 40
0.0223009205
 40
0.0447847589
 40
0.0676259491
 40
0.0909849581
 40
0.115000854
 40
0.1397904009
 40
0.1919825427
 40
0.2195390043
 40
0.2480864356
 40
0.2776243098
 40
0.3081315955
 40
0.3395729996
 40
0.3718963515
 40
0.4050387346
 40
0.4389246656
 40
0.508563302
 40
0.5800704862
 40
0.6525984527
 40
0.7252548342
 40
0.7971433814
 40
0.8673962075
 40
0.9016677817
 40
0.9352502283
 40
0.9680594144
 40
1.0
 40
1.0
 40
1.0
 40
1.0
 10
14.7561988492
 20
14.9709490478
 30
0.0
 10
14.7795422072
 20
14.9826217163
 30
0.0
 10
14.8278202699
 20
15.003374455
 30
0.0
 10
14.903784851
 20
15.0261474086
 30
0.0
 10
14.9830334981
 20
15.04054513
 30
0.0
 10
15.0651437905
 20
15.0464732835
 30
0.0
 10
15.1497038009
 20
15.0439480254
 30
0.0
 10
15.2671114069
 20
15.0290725163
 30
0.0
 10
15.3859175896
 20
14.9971047189
 30
0.0
 10
15.5037968628
 20
14.9503613176
 30
0.0
 10
15.5941347273
 20
14.9067347237
 30
0.0
 10
15.6842954975
 20
14.8553974439
 30
0.0
 10
15.7738660158
 20
14.7966163102
 30
0.0
 10
15.8623898223
 20
14.730667153
 30
0.0
 10
15.9494472421
 20
14.6578939534
 30
0.0
 10
16.034598446
 20
14.578639904
 30
0.0
 10
16.1460431955
 20
14.4638353
 30
0.0
 10
16.2777500054
 20
14.3065122578
 30
0.0
 10
16.4203969594
 20
14.1007366361
 30
0.0
 10
16.5463169065
 20
13.8802438036
 30
0.0
 10
16.6530427225
 20
13.6493575574
 30
0.0
 10
16.7384772627
 20
13.4126069547
 30
0.0
 10
16.79098765
 20
13.212602296
 30
0.0
 10
16.8206981053
 20
13.053672713
 30
0.0
 10
16.8365919602
 20
12.9368885687
 30
0.0
 10
16.8461878444
 20
12.8221593279
 30
0.0
 10
16.8484034534
 20
12.7463669592
 30
0.0
 10
16.8484034534
 20
12.7089864006
 30
0.0
  0
SPLINE
  5
3E6
100
AcDbEntity
  8
0
100
AcDbSpline
 62
9
  6
CONTINUOUS
 70
0
 71
3
 72
10
 73
6
 74
0
 42
0.0000001
 43
0.0000001
 44
0.0000000001
 40
0.0
 40
0.0
 40
0.0
 40
0.0
 40
0.2244074034
 40
0.4748631745
 40
1.0
 40
1.0
 40
1.0
 40
1.0
 10
12.7507196565
 20
10.2221550475
 30
0.0
 10
12.7513791563
 20
10.2218252976
 30
0.0
 10
12.7528538664
 20
10.2212836858
 30
0.0
 10
12.7560793297
 20
10.2206272857
 30
0.0
 10
12.7586689875
 20
10.2206299501
 30
0.0
 10
12.7603789147
 20
10.2208609523
 30
0.0
  0
SPLINE
  5
3E7
100
AcDbEntity
  8
0
100
AcDbSpline
 62
9
  6
CONTINUOUS
 70
0
 71
3
 72
9
 73
5
 74
0
 42
0.0000001
 43
0.0000001
 44
0.0000000001
 40
0.0
 40
0.0
 40
0.0
 40
0.0
 40
0.527427235
 40
1.0
 40
1.0
 40
1.0
 40
1.0
 10
12.7603789147
 20
10.2208609523
 30
0.0
 10
12.7611944377
 20
10.2209711252
 30
0.0
 10
12.76272825
 20
10.2212840713
 30
0.0
 10
12.7642022923
 20
10.2218252976
 30
0.0
 10
12.7648617921
 20
10.2221550475
 30
0.0
  0
LINE
  5
3E8
100
AcDbEntity
  8
0
100
AcDbLine
 62
9
  6
CONTINUOUS
 10
12.7648617921
 20
10.2221550475
 11
12.7646486307
 21
10.2201671614
  0
SPLINE
  5
3E9
100
AcDbEntity
  8
0
100
AcDbSpline
 62
9
  6
CONTINUOUS
 70
0
 71
3
 72
9
 73
5
 74
0
 42
0.0000001
 43
0.0000001
 44
0.0000000001
 40
0.0
 40
0.0
 40
0.0
 40
0.0
 40
0.5337264347
 40
1.0
 40
1.0
 40
1.0
 40
1.0
 10
12.7646486307
 20
10.2201671614
 30
0.0
 10
12.7644798501
 20
10.2194253375
 30
0.0
 10
12.7639635765
 20
10.2180539544
 30
0.0
 10
12.7628595597
 20
10.2170438107
 30
0.0
 10
12.7622652666
 20
10.2167462308
 30
0.0
  0
SPLINE
  5
3EA
100
AcDbEntity
  8
0
100
AcDbSpline
 62
9
  6
CONTINUOUS
 70
0
 71
3
 72
11
 73
7
 74
0
 42
0.0000001
 43
0.0000001
 44
0.0000000001
 40
0.0
 40
0.0
 40
0.0
 40
0.0
 40
0.2065948486
 40
0.4357471429
 40
0.6996026036
 40
1.0
 40
1.0
 40
1.0
 40
1.0
 10
15.4489377372
 20
11.7035127871
 30
0.0
 10
15.4489417816
 20
11.7031835372
 30
0.0
 10
15.4490943971
 20
11.7024852113
 30
0.0
 10
15.4497147878
 20
11.7015378207
 30
0.0
 10
15.4506627877
 20
11.7006862416
 30
0.0
 10
15.4514393275
 20
11.7002223367
 30
0.0
 10
15.4518675606
 20
11.7000082202
 30
0.0
  0
SPLINE
  5
3EB
100
AcDbEntity
  8
0
100
AcDbSpline
 62
9
  6
CONTINUOUS
 70
0
 71
3
 72
11
 73
7
 74
0
 42
0.0000001
 43
0.0000001
 44
0.0000000001
 40
0.0
 40
0.0
 40
0.0
 40
0.0
 40
0.2065630725
 40
0.4354242058
 40
0.6992467434
 40
1.0
 40
1.0
 40
1.0
 40
1.0
 10
17.3675216206
 20
12.9706159097
 30
0.0
 10
17.3675216206
 20
12.9702845772
 30
0.0
 10
17.3673755671
 20
12.9695802724
 30
0.0
 10
17.3667570057
 20
12.9686231193
 30
0.0
 10
17.3658046581
 20
12.9677637252
 30
0.0
 10
17.3650228897
 20
12.9672961188
 30
0.0
 10
17.3645914037
 20
12.9670803758
 30
0.0
  0
SPLINE
  5
3EC
100
AcDbEntity
  8
0
100
AcDbSpline
 62
7
  6
CONTINUOUS
 70
0
 71
3
 72
11
 73
7
 74
0
 42
0.0000001
 43
0.0000001
 44
0.0000000001
 40
0.0
 40
0.0
 40
0.0
 40
0.0
 40
0.3007532566
 40
0.5645757942
 40
0.7934369275
 40
1.0
 40
1.0
 40
1.0
 40
1.0
 10
14.2851413716
 20
11.1256625412
 30
0.0
 10
14.2847098856
 20
11.1258782842
 30
0.0
 10
14.2839281173
 20
11.1263458906
 30
0.0
 10
14.2829757696
 20
11.1272052848
 30
0.0
 10
14.2823572082
 20
11.1281624379
 30
0.0
 10
14.2822111547
 20
11.1288667426
 30
0.0
 10
14.2822111547
 20
11.1291980751
 30
0.0
  0
SPLINE
  5
3ED
100
AcDbEntity
  8
0
100
AcDbSpline
 62
9
  6
CONTINUOUS
 70
0
 71
3
 72
30
 73
26
 74
0
 42
0.0000001
 43
0.0000001
 44
0.0000000001
 40
0.0
 40
0.0
 40
0.0
 40
0.0
 40
0.0319116399
 40
0.064691471
 40
0.1324611652
 40
0.2026418384
 40
0.2744611755
 40
0.3470554838
 40
0.4195352751
 40
0.4554623563
 40
0.4910311732
 40
0.5261374349
 40
0.5606833921
 40
0.627710777
 40
0.6914979851
 40
0.7515850628
 40
0.8077418576
 40
0.834373652
 40
0.8600750842
 40
0.884908832
 40
0.9089645469
 40
0.9323545703
 40
0.9552165893
 40
0.977707475
 40
1.0
 40
1.0
 40
1.0
 40
1.0
 10
16.8342613178
 20
12.7089864006
 30
0.0
 10
16.8342613178
 20
12.7460473537
 30
0.0
 10
16.8320704962
 20
12.8211933903
 30
0.0
 10
16.8192775326
 20
12.9745543615
 30
0.0
 10
16.7873627291
 20
13.1706142309
 30
0.0
 10
16.7255761901
 20
13.4066056987
 30
0.0
 10
16.6410862212
 20
13.6414143641
 30
0.0
 10
16.5355301373
 20
13.870452572
 30
0.0
 10
16.4314025445
 20
14.0533876669
 30
0.0
 10
16.3393151672
 20
14.193006571
 30
0.0
 10
16.2666116696
 20
14.2932666956
 30
0.0
 10
16.1904187157
 20
14.3888627158
 30
0.0
 10
16.0857615879
 20
14.5082693308
 30
0.0
 10
15.9488993198
 20
14.6434824525
 30
0.0
 10
15.7753276911
 20
14.7821469583
 30
0.0
 10
15.5973710694
 20
14.89288666
 30
0.0
 10
15.4454822567
 20
14.9612709811
 30
0.0
 10
15.3251980216
 20
14.9991839097
 30
0.0
 10
15.237676359
 20
15.0189769695
 30
0.0
 10
15.1516949505
 20
15.030491262
 30
0.0
 10
15.0676775272
 20
15.0336855412
 30
0.0
 10
14.9860423636
 20
15.0284981718
 30
0.0
 10
14.9072012608
 20
15.0149570097
 30
0.0
 10
14.8315726262
 20
14.9931152988
 30
0.0
 10
14.7834498497
 20
14.9730342896
 30
0.0
 10
14.7601689812
 20
14.9617083539
 30
0.0
  0
SPLINE
  5
3EE
100
AcDbEntity
  8
0
100
AcDbSpline
 62
9
  6
CONTINUOUS
 70
0
 71
3
 72
19
 73
15
 74
0
 42
0.0000001
 43
0.0000001
 44
0.0000000001
 40
0.0
 40
0.0
 40
0.0
 40
0.0
 40
0.0538028153
 40
0.1078491877
 40
0.1624089673
 40
0.2177370767
 40
0.2740712562
 40
0.3316229234
 40
0.3905757672
 40
0.4510874434
 40
0.5771725377
 40
0.7105987195
 40
0.8516338315
 40
1.0
 40
1.0
 40
1.0
 40
1.0
 10
14.7601689812
 20
14.9617083539
 30
0.0
 10
14.7417499097
 20
14.9527476392
 30
0.0
 10
14.705623591
 20
14.933094953
 30
0.0
 10
14.6541500792
 20
14.8986952538
 30
0.0
 10
14.6054988709
 20
14.8594722452
 30
0.0
 10
14.5598239819
 20
14.8155605159
 30
0.0
 10
14.5172780028
 20
14.7670893484
 30
0.0
 10
14.4779827375
 20
14.7142249671
 30
0.0
 10
14.4420512406
 20
14.657133679
 30
0.0
 10
14.3982010264
 20
14.5744929397
 30
0.0
 10
14.3526543363
 20
14.4610665438
 30
0.0
 10
14.3137856476
 20
14.3132613798
 30
0.0
 10
14.29033711
 20
14.1537122187
 30
0.0
 10
14.2852463704
 20
14.0434596698
 30
0.0
 10
14.285144464
 20
13.9869757985
 30
0.0
  0
LINE
  5
3EF
100
AcDbEntity
  8
0
100
AcDbLine
 62
9
  6
CONTINUOUS
 10
14.285144464
 20
13.9869757985
 11
14.2851413716
 21
13.9835463737
  0
SPLINE
  5
3F0
100
AcDbEntity
  8
0
100
AcDbSpline
 62
9
  6
CONTINUOUS
 70
0
 71
3
 72
17
 73
13
 74
0
 42
0.0000001
 43
0.0000001
 44
0.0000000001
 40
0.0
 40
0.0
 40
0.0
 40
0.0
 40
0.1484756528
 40
0.2895990257
 40
0.4230814005
 40
0.549185967
 40
0.6685579259
 40
0.7823183842
 40
0.8376281222
 40
0.8921707817
 40
0.9462038872
 40
1.0
 40
1.0
 40
1.0
 40
1.0
 10
14.4477759313
 20
13.9022290939
 30
0.0
 10
14.4477759313
 20
13.9517662459
 30
0.0
 10
14.4520810349
 20
14.0484628059
 30
0.0
 10
14.4724458389
 20
14.188397065
 30
0.0
 10
14.5063915903
 20
14.3180300003
 30
0.0
 10
14.5535713169
 20
14.4357341739
 30
0.0
 10
14.6134760072
 20
14.5400327158
 30
0.0
 10
14.6741027839
 20
14.6153810658
 30
0.0
 10
14.7280184532
 20
14.6670649106
 30
0.0
 10
14.770706903
 20
14.7013524392
 30
0.0
 10
14.815875439
 20
14.7313887016
 30
0.0
 10
14.8475766242
 20
14.7485228191
 30
0.0
 10
14.8637392482
 20
14.7563276929
 30
0.0
  0
SPLINE
  5
3F1
100
AcDbEntity
  8
0
100
AcDbSpline
 62
9
  6
CONTINUOUS
 70
0
 71
3
 72
28
 73
24
 74
0
 42
0.0000001
 43
0.0000001
 44
0.0000000001
 40
0.0
 40
0.0
 40
0.0
 40
0.0
 40
0.0222910908
 40
0.0447842992
 40
0.0676513974
 40
0.0910482718
 40
0.1151116091
 40
0.1399528812
 40
0.1656610194
 40
0.1922980903
 40
0.2484599058
 40
0.3085432578
 40
0.3723184577
 40
0.439327501
 40
0.5089388802
 40
0.5803954927
 40
0.652857548
 40
0.7254417782
 40
0.7972624353
 40
0.8674585806
 40
0.9352589285
 40
0.9680609354
 40
1.0
 40
1.0
 40
1.0
 40
1.0
 10
14.8637392482
 20
14.7563276929
 30
0.0
 10
14.8840405717
 20
14.76613113
 30
0.0
 10
14.9259971563
 20
14.7835013683
 30
0.0
 10
14.9919110953
 20
14.8023563301
 30
0.0
 10
15.0606089835
 20
14.8139978085
 30
0.0
 10
15.1317281189
 20
14.8183789135
 30
0.0
 10
15.2049111212
 20
14.8154773289
 30
0.0
 10
15.2797952812
 20
14.8053465695
 30
0.0
 10
15.3560129434
 20
14.788022832
 30
0.0
 10
15.4607494471
 20
14.7549125501
 30
0.0
 10
15.5929928643
 20
14.6952880248
 30
0.0
 10
15.7479320613
 20
14.5988249074
 30
0.0
 10
15.8990657449
 20
14.4780916893
 30
0.0
 10
16.0435121043
 20
14.3354426953
 30
0.0
 10
16.1785281343
 20
14.1736264192
 30
0.0
 10
16.3015153011
 20
13.9957701143
 30
0.0
 10
16.4100999718
 20
13.8053164389
 30
0.0
 10
16.5021818621
 20
13.6059557985
 30
0.0
 10
16.5759742133
 20
13.4015478281
 30
0.0
 10
16.6300524138
 20
13.1960586051
 30
0.0
 10
16.6581171429
 20
13.0252977053
 30
0.0
 10
16.6695102064
 20
12.8916844263
 30
0.0
 10
16.6715530773
 20
12.826198119
 30
0.0
 10
16.6716228745
 20
12.7938961475
 30
0.0
  0
LINE
  5
3F2
100
AcDbEntity
  8
0
100
AcDbLine
 62
9
  6
CONTINUOUS
 10
16.6716228745
 20
12.7938961475
 11
16.6716267581
 21
12.7903036805
  0
SPLINE
  5
3F3
100
AcDbEntity
  8
0
100
AcDbSpline
 62
7
  6
CONTINUOUS
 70
0
 71
3
 72
11
 73
7
 74
0
 42
0.0000001
 43
0.0000001
 44
0.0000000001
 40
0.0
 40
0.0
 40
0.0
 40
0.0
 40
0.235180256
 40
0.5
 40
0.764819744
 40
1.0
 40
1.0
 40
1.0
 40
1.0
 10
14.4619180669
 20
11.0443452614
 30
0.0
 10
14.4608991425
 20
11.0438357992
 30
0.0
 10
14.4585547419
 20
11.0431120626
 30
0.0
 10
14.4548469991
 20
11.0427573244
 30
0.0
 10
14.4511392563
 20
11.0431120626
 30
0.0
 10
14.4487948558
 20
11.0438357992
 30
0.0
 10
14.4477759313
 20
11.0443452614
 30
0.0
  0
SPLINE
  5
3F4
100
AcDbEntity
  8
0
100
AcDbSpline
 62
7
  6
CONTINUOUS
 70
0
 71
3
 72
11
 73
7
 74
0
 42
0.0000001
 43
0.0000001
 44
0.0000000001
 40
0.0
 40
0.0
 40
0.0
 40
0.0
 40
0.2065630725
 40
0.4354242058
 40
0.6992467434
 40
1.0
 40
1.0
 40
1.0
 40
1.0
 10
14.9810362341
 20
11.3059747704
 30
0.0
 10
14.9810362341
 20
11.3056434379
 30
0.0
 10
14.9808901806
 20
11.3049391332
 30
0.0
 10
14.9802716192
 20
11.3039819801
 30
0.0
 10
14.9793192716
 20
11.3031225859
 30
0.0
 10
14.9785375032
 20
11.3026549795
 30
0.0
 10
14.9781060172
 20
11.3024392365
 30
0.0
  0
LINE
  5
3F5
100
AcDbEntity
  8
0
100
AcDbLine
 62
9
  6
CONTINUOUS
 10
16.5099249409
 20
12.7596955679
 11
16.5087794522
 21
12.7600534637
  0
SPLINE
  5
3F6
100
AcDbEntity
  8
0
100
AcDbSpline
 62
9
  6
CONTINUOUS
 70
0
 71
3
 72
9
 73
5
 74
0
 42
0.0000001
 43
0.0000001
 44
0.0000000001
 40
0.0
 40
0.0
 40
0.0
 40
0.0
 40
0.2315823991
 40
1.0
 40
1.0
 40
1.0
 40
1.0
 10
16.5087794522
 20
12.7600534637
 30
0.0
 10
16.5085186189
 20
12.7600921257
 30
0.0
 10
16.5073756544
 20
12.7601492026
 30
0.0
 10
16.5062392269
 20
12.7597996767
 30
0.0
 10
16.5054566646
 20
12.7594083955
 30
0.0
  0
SPLINE
  5
3F7
100
AcDbEntity
  8
0
100
AcDbSpline
 62
9
  6
CONTINUOUS
 70
0
 71
3
 72
11
 73
7
 74
0
 42
0.0000001
 43
0.0000001
 44
0.0000000001
 40
0.0
 40
0.0
 40
0.0
 40
0.0
 40
0.2065630725
 40
0.4354242058
 40
0.6992467434
 40
1.0
 40
1.0
 40
1.0
 40
1.0
 10
14.9810362341
 20
14.1638586029
 30
0.0
 10
14.9810362341
 20
14.1635272704
 30
0.0
 10
14.9808901806
 20
14.1628229656
 30
0.0
 10
14.9802716192
 20
14.1618658126
 30
0.0
 10
14.9793192716
 20
14.1610064184
 30
0.0
 10
14.9785375032
 20
14.160538812
 30
0.0
 10
14.9781060172
 20
14.160323069
 30
0.0
  0
SPLINE
  5
3F8
100
AcDbEntity
  8
0
100
AcDbSpline
 62
9
  6
CONTINUOUS
 70
0
 71
3
 72
9
 73
5
 74
0
 42
0.0000001
 43
0.0000001
 44
0.0000000001
 40
0.0
 40
0.0
 40
0.0
 40
0.0
 40
0.2737605568
 40
1.0
 40
1.0
 40
1.0
 40
1.0
 10
15.4518675606
 20
11.7000082202
 30
0.0
 10
15.4518675606
 20
11.6996412553
 30
0.0
 10
15.4519398373
 20
11.6983057465
 30
0.0
 10
15.4523153025
 20
11.6969576077
 30
0.0
 10
15.4528282648
 20
11.6961302257
 30
0.0
  0
SPLINE
  5
3F9
100
AcDbEntity
  8
0
100
AcDbSpline
 62
9
  6
CONTINUOUS
 70
0
 71
3
 72
9
 73
5
 74
0
 42
0.0000001
 43
0.0000001
 44
0.0000000001
 40
0.0
 40
0.0
 40
0.0
 40
0.0
 40
0.5125491731
 40
1.0
 40
1.0
 40
1.0
 40
1.0
 10
15.4528282648
 20
11.6961302257
 30
0.0
 10
15.4530325107
 20
11.6958007875
 30
0.0
 10
15.4535110492
 20
11.6952023665
 30
0.0
 10
15.4541401392
 20
11.6947609323
 30
0.0
 10
15.4544700568
 20
11.694596475
 30
0.0
  0
SPLINE
  5
3FA
100
AcDbEntity
  8
0
100
AcDbSpline
 62
9
  6
CONTINUOUS
 70
0
 71
3
 72
10
 73
6
 74
0
 42
0.0000001
 43
0.0000001
 44
0.0000000001
 40
0.0
 40
0.0
 40
0.0
 40
0.0
 40
0.2349888359
 40
0.4880908463
 40
1.0
 40
1.0
 40
1.0
 40
1.0
 10
16.9226496655
 20
12.0008857637
 30
0.0
 10
16.9226496655
 20
12.0016803155
 30
0.0
 10
16.9224604239
 20
12.0033331398
 30
0.0
 10
16.9215088223
 20
12.0065858565
 30
0.0
 10
16.9201824405
 20
12.0088801282
 30
0.0
 10
16.9190701748
 20
12.0102063345
 30
0.0
  0
SPLINE
  5
3FB
100
AcDbEntity
  8
0
100
AcDbSpline
 62
9
  6
CONTINUOUS
 70
0
 71
3
 72
9
 73
5
 74
0
 42
0.0000001
 43
0.0000001
 44
0.0000000001
 40
0.0
 40
0.0
 40
0.0
 40
0.0
 40
0.2655583622
 40
1.0
 40
1.0
 40
1.0
 40
1.0
 10
16.9181715474
 20
12.0111785441
 30
0.0
 10
16.9179677687
 20
12.0113782378
 30
0.0
 10
16.9171762527
 20
12.0121040966
 30
0.0
 10
16.916284368
 20
12.0127286664
 30
0.0
 10
16.9155785976
 20
12.0130815516
 30
0.0
  0
LINE
  5
3FC
100
AcDbEntity
  8
0
100
AcDbLine
 62
9
  6
CONTINUOUS
 10
17.3645914037
 20
12.9670803758
 11
17.3645886679
 21
12.9703185169
  0
SPLINE
  5
3FD
100
AcDbEntity
  8
0
100
AcDbSpline
 62
9
  6
CONTINUOUS
 70
0
 71
3
 72
23
 73
19
 74
0
 42
0.0000001
 43
0.0000001
 44
0.0000000001
 40
0.0
 40
0.0
 40
0.0
 40
0.0
 40
0.0572941962
 40
0.1162906472
 40
0.1767818278
 40
0.238586428
 40
0.3015143337
 40
0.3653428445
 40
0.4298365285
 40
0.4947532467
 40
0.5598467351
 40
0.6248670496
 40
0.6895649457
 40
0.753696306
 40
0.8170234866
 40
0.8793214272
 40
0.9403775113
 40
1.0
 40
1.0
 40
1.0
 40
1.0
 10
17.3645886679
 20
12.9703185169
 30
0.0
 10
17.364518271
 20
13.0119997556
 30
0.0
 10
17.3616264877
 20
13.0966156422
 30
0.0
 10
17.3495464273
 20
13.2247240155
 30
0.0
 10
17.329695242
 20
13.3551807874
 30
0.0
 10
17.3022203891
 20
13.4871640262
 30
0.0
 10
17.2672754492
 20
13.6198780318
 30
0.0
 10
17.2250927813
 20
13.7525235961
 30
0.0
 10
17.1759078388
 20
13.8842789098
 30
0.0
 10
17.1200427332
 20
14.0143446031
 30
0.0
 10
17.0578204969
 20
14.1419176222
 30
0.0
 10
16.9896405147
 20
14.2662271675
 30
0.0
 10
16.9159009234
 20
14.3865021878
 30
0.0
 10
16.8370711021
 20
14.5020178921
 30
0.0
 10
16.7536151985
 20
14.6120557501
 30
0.0
 10
16.666059458
 20
14.7159568319
 30
0.0
 10
16.5749252896
 20
14.8130681281
 30
0.0
 10
16.5113381885
 20
14.8736843761
 30
0.0
 10
16.4790658023
 20
14.9026653054
 30
0.0
  0
SPLINE
  5
3FE
100
AcDbEntity
  8
0
100
AcDbSpline
 62
9
  6
CONTINUOUS
 70
0
 71
3
 72
19
 73
15
 74
0
 42
0.0000001
 43
0.0000001
 44
0.0000000001
 40
0.0
 40
0.0
 40
0.0
 40
0.0
 40
0.1484455292
 40
0.2902433901
 40
0.4249201776
 40
0.4895486408
 40
0.552365999
 40
0.6726723531
 40
0.7303882734
 40
0.7866082296
 40
0.8414858188
 40
0.8952015444
 40
0.9479619822
 40
1.0
 40
1.0
 40
1.0
 40
1.0
 10
16.4790658023
 20
14.9026653054
 30
0.0
 10
16.4343514044
 20
14.9428192871
 30
0.0
 10
16.3436341441
 20
15.0177820309
 30
0.0
 10
16.201381972
 20
15.114946994
 30
0.0
 10
16.0798460294
 20
15.1811241036
 30
0.0
 10
15.9826006885
 20
15.2237511199
 30
0.0
 10
15.8884705837
 20
15.2585072612
 30
0.0
 10
15.793918941
 20
15.2837034734
 30
0.0
 10
15.700128344
 20
15.2981871768
 30
0.0
 10
15.631926192
 20
15.3035531058
 30
0.0
 10
15.5651315175
 20
15.3035558688
 30
0.0
 10
15.4999501463
 20
15.2981938275
 30
0.0
 10
15.436601624
 20
15.2874643805
 30
0.0
 10
15.3954930787
 20
15.2767015041
 30
0.0
 10
15.3753757034
 20
15.2704464315
 30
0.0
  0
SPLINE
  5
3FF
100
AcDbEntity
  8
0
100
AcDbSpline
 62
9
  6
CONTINUOUS
 70
0
 71
3
 72
9
 73
5
 74
0
 42
0.0000001
 43
0.0000001
 44
0.0000000001
 40
0.0
 40
0.0
 40
0.0
 40
0.0
 40
0.4868284466
 40
1.0
 40
1.0
 40
1.0
 40
1.0
 10
16.6372104961
 20
12.1542188339
 30
0.0
 10
16.6375493279
 20
12.1543885013
 30
0.0
 10
16.6381945159
 20
12.1548473286
 30
0.0
 10
16.6386792557
 20
12.1554699111
 30
0.0
 10
16.6388847785
 20
12.155812424
 30
0.0
  0
SPLINE
  5
400
100
AcDbEntity
  8
0
100
AcDbSpline
 62
9
  6
CONTINUOUS
 70
0
 71
3
 72
9
 73
5
 74
0
 42
0.0000001
 43
0.0000001
 44
0.0000000001
 40
0.0
 40
0.0
 40
0.0
 40
0.0
 40
0.2284130495
 40
1.0
 40
1.0
 40
1.0
 40
1.0
 10
16.6388847785
 20
12.155812424
 30
0.0
 10
16.6390396286
 20
12.1560704886
 30
0.0
 10
16.6396138585
 20
12.1572624944
 30
0.0
 10
16.639806953
 20
12.1586109809
 30
0.0
 10
16.639806953
 20
12.159627628
 30
0.0
  0
SPLINE
  5
401
100
AcDbEntity
  8
0
100
AcDbSpline
 62
9
  6
CONTINUOUS
 70
0
 71
3
 72
10
 73
6
 74
0
 42
0.0000001
 43
0.0000001
 44
0.0000000001
 40
0.0
 40
0.0
 40
0.0
 40
0.0
 40
0.532869881
 40
0.7720952765
 40
1.0
 40
1.0
 40
1.0
 40
1.0
 10
16.9155785976
 20
12.0130815516
 30
0.0
 10
16.9163132927
 20
12.0134488992
 30
0.0
 10
16.9174885503
 20
12.0138224073
 30
0.0
 10
16.9190424788
 20
12.0137539906
 30
0.0
 10
16.9197370648
 20
12.0135237918
 30
0.0
 10
16.920051307
 20
12.0133667164
 30
0.0
  0
SPLINE
  5
402
100
AcDbEntity
  8
0
100
AcDbSpline
 62
9
  6
CONTINUOUS
 70
0
 71
3
 72
9
 73
5
 74
0
 42
0.0000001
 43
0.0000001
 44
0.0000000001
 40
0.0
 40
0.0
 40
0.0
 40
0.0
 40
0.4868284466
 40
1.0
 40
1.0
 40
1.0
 40
1.0
 10
15.5817432381
 20
11.6309598159
 30
0.0
 10
15.5814044063
 20
11.6311294832
 30
0.0
 10
15.5807592183
 20
11.6315883106
 30
0.0
 10
15.5802744785
 20
11.632210893
 30
0.0
 10
15.5800689557
 20
11.6325534059
 30
0.0
  0
LINE
  5
403
100
AcDbEntity
  8
0
100
AcDbLine
 62
9
  6
CONTINUOUS
 10
15.5800689557
 20
11.6325534059
 11
15.5793599918
 21
11.6343805408
  0
LINE
  5
404
100
AcDbEntity
  8
0
100
AcDbLine
 62
9
  6
CONTINUOUS
 10
15.5793599918
 20
11.6343805408
 11
15.5791467812
 21
11.6363686099
  0
SPLINE
  5
405
100
AcDbEntity
  8
0
100
AcDbSpline
 62
9
  6
CONTINUOUS
 70
0
 71
3
 72
11
 73
7
 74
0
 42
0.0000001
 43
0.0000001
 44
0.0000000001
 40
0.0
 40
0.0
 40
0.0
 40
0.0
 40
0.3007532566
 40
0.5645757942
 40
0.7934369275
 40
1.0
 40
1.0
 40
1.0
 40
1.0
 10
14.2851413716
 20
13.9835463737
 30
0.0
 10
14.2847098856
 20
13.9837621167
 30
0.0
 10
14.2839281173
 20
13.9842297231
 30
0.0
 10
14.2829757696
 20
13.9850891173
 30
0.0
 10
14.2823572082
 20
13.9860462703
 30
0.0
 10
14.2822111547
 20
13.9867505751
 30
0.0
 10
14.2822111547
 20
13.9870819076
 30
0.0
  0
SPLINE
  5
406
100
AcDbEntity
  8
0
100
AcDbSpline
 62
9
  6
CONTINUOUS
 70
0
 71
3
 72
11
 73
7
 74
0
 42
0.0000001
 43
0.0000001
 44
0.0000000001
 40
0.0
 40
0.0
 40
0.0
 40
0.0
 40
0.2351802559
 40
0.5
 40
0.764819744
 40
1.0
 40
1.0
 40
1.0
 40
1.0
 10
16.8484034534
 20
12.7089864006
 30
0.0
 10
16.847384529
 20
12.7084769384
 30
0.0
 10
16.8450401284
 20
12.7077532019
 30
0.0
 10
16.8413323856
 20
12.7073984637
 30
0.0
 10
16.8376246428
 20
12.7077532019
 30
0.0
 10
16.8352802423
 20
12.7084769384
 30
0.0
 10
16.8342613178
 20
12.7089864006
 30
0.0
  0
SPLINE
  5
407
100
AcDbEntity
  8
0
100
AcDbSpline
 62
9
  6
CONTINUOUS
 70
0
 71
3
 72
11
 73
7
 74
0
 42
0.0000001
 43
0.0000001
 44
0.0000000001
 40
0.0
 40
0.0
 40
0.0
 40
0.0
 40
0.2065830902
 40
0.4355912969
 40
0.6994281886
 40
1.0
 40
1.0
 40
1.0
 40
1.0
 10
13.8143098022
 20
11.2728809192
 30
0.0
 10
13.8143079763
 20
11.2725505198
 30
0.0
 10
13.8141590006
 20
11.2718488711
 30
0.0
 10
13.8135394988
 20
11.2708961749
 30
0.0
 10
13.8125891654
 20
11.2700403328
 30
0.0
 10
13.8118098045
 20
11.269574423
 30
0.0
 10
13.8113798282
 20
11.2693594349
 30
0.0
  0
SPLINE
  5
408
100
AcDbEntity
  8
0
100
AcDbSpline
 62
9
  6
CONTINUOUS
 70
0
 71
3
 72
10
 73
6
 74
0
 42
0.0000001
 43
0.0000001
 44
0.0000000001
 40
0.0
 40
0.0
 40
0.0
 40
0.0
 40
0.2238170862
 40
0.4721720687
 40
1.0
 40
1.0
 40
1.0
 40
1.0
 10
15.4589386284
 20
12.2361493775
 30
0.0
 10
15.4582817162
 20
12.2358209214
 30
0.0
 10
15.4569905029
 20
12.2349346213
 30
0.0
 10
15.4546857382
 20
12.232583288
 30
0.0
 10
15.4533979243
 20
12.2303127316
 30
0.0
 10
15.4527897351
 20
12.228690968
 30
0.0
  0
LINE
  5
409
100
AcDbEntity
  8
0
100
AcDbLine
 62
9
  6
CONTINUOUS
 10
15.4522132368
 20
12.2267885518
 11
15.4518675606
 21
12.2239535895
  0
SPLINE
  5
40A
100
AcDbEntity
  8
0
100
AcDbSpline
 62
9
  6
CONTINUOUS
 70
0
 71
3
 72
10
 73
6
 74
0
 42
0.0000001
 43
0.0000001
 44
0.0000000001
 40
0.0
 40
0.0
 40
0.0
 40
0.0
 40
0.227923689
 40
0.467190964
 40
1.0
 40
1.0
 40
1.0
 40
1.0
 10
15.1716294633
 20
11.8365929914
 30
0.0
 10
15.1719435342
 20
11.8367493068
 30
0.0
 10
15.1726375308
 20
11.8369780325
 30
0.0
 10
15.1741891414
 20
11.8370446751
 30
0.0
 10
15.1753623958
 20
11.8366716164
 30
0.0
 10
15.1760959159
 20
11.8363048563
 30
0.0
  0
SPLINE
  5
40B
100
AcDbEntity
  8
0
100
AcDbSpline
 62
9
  6
CONTINUOUS
 70
0
 71
3
 72
11
 73
7
 74
0
 42
0.0000001
 43
0.0000001
 44
0.0000000001
 40
0.0
 40
0.0
 40
0.0
 40
0.0
 40
0.3007532566
 40
0.5645757942
 40
0.7934369275
 40
1.0
 40
1.0
 40
1.0
 40
1.0
 10
15.4518675606
 20
12.2239535895
 30
0.0
 10
15.4514360746
 20
12.2241693325
 30
0.0
 10
15.4506543062
 20
12.2246369389
 30
0.0
 10
15.4497019585
 20
12.2254963331
 30
0.0
 10
15.4490833971
 20
12.2264534861
 30
0.0
 10
15.4489373437
 20
12.2271577909
 30
0.0
 10
15.4489373437
 20
12.2274891234
 30
0.0
  0
SPLINE
  5
40C
100
AcDbEntity
  8
0
100
AcDbSpline
 62
9
  6
CONTINUOUS
 70
0
 71
3
 72
11
 73
7
 74
0
 42
0.0000001
 43
0.0000001
 44
0.0000000001
 40
0.0
 40
0.0
 40
0.0
 40
0.0
 40
0.2065830902
 40
0.4355912969
 40
0.6994281886
 40
1.0
 40
1.0
 40
1.0
 40
1.0
 10
16.9255796394
 20
12.004407248
 30
0.0
 10
16.9255778136
 20
12.0040768485
 30
0.0
 10
16.9254288378
 20
12.0033751998
 30
0.0
 10
16.9248093361
 20
12.0024225037
 30
0.0
 10
16.9238590026
 20
12.0015666616
 30
0.0
 10
16.9230796417
 20
12.0011007518
 30
0.0
 10
16.9226496655
 20
12.0008857637
 30
0.0
  0
SPLINE
  5
40D
100
AcDbEntity
  8
0
100
AcDbSpline
 62
9
  6
CONTINUOUS
 70
0
 71
3
 72
11
 73
7
 74
0
 42
0.0000001
 43
0.0000001
 44
0.0000000001
 40
0.0
 40
0.0
 40
0.0
 40
0.0
 40
0.235180256
 40
0.5
 40
0.764819744
 40
1.0
 40
1.0
 40
1.0
 40
1.0
 10
14.4619180669
 20
13.9022290939
 30
0.0
 10
14.4608991425
 20
13.9017196316
 30
0.0
 10
14.4585547419
 20
13.9009958951
 30
0.0
 10
14.4548469991
 20
13.9006411569
 30
0.0
 10
14.4511392563
 20
13.9009958951
 30
0.0
 10
14.4487948558
 20
13.9017196316
 30
0.0
 10
14.4477759313
 20
13.9022290939
 30
0.0
  0
SPLINE
  5
40E
100
AcDbEntity
  8
0
100
AcDbSpline
 62
9
  6
CONTINUOUS
 70
0
 71
3
 72
11
 73
7
 74
0
 42
0.0000001
 43
0.0000001
 44
0.0000000001
 40
0.0
 40
0.0
 40
0.0
 40
0.0
 40
0.3007532566
 40
0.5645757942
 40
0.7934369275
 40
1.0
 40
1.0
 40
1.0
 40
1.0
 10
16.6716267581
 20
12.7903036805
 30
0.0
 10
16.6711952721
 20
12.7905194235
 30
0.0
 10
16.6704135038
 20
12.7909870299
 30
0.0
 10
16.6694611561
 20
12.791846424
 30
0.0
 10
16.6688425947
 20
12.7928035771
 30
0.0
 10
16.6686965412
 20
12.7935078819
 30
0.0
 10
16.6686965412
 20
12.7938392144
 30
0.0
  0
SPLINE
  5
40F
100
AcDbEntity
  8
0
100
AcDbSpline
 62
9
  6
CONTINUOUS
 70
0
 71
3
 72
11
 73
7
 74
0
 42
0.0000001
 43
0.0000001
 44
0.0000000001
 40
0.0
 40
0.0
 40
0.0
 40
0.0
 40
0.235105078
 40
0.4999017317
 40
0.7647912646
 40
1.0
 40
1.0
 40
1.0
 40
1.0
 10
15.5932889168
 20
12.1603139792
 30
0.0
 10
15.5922703169
 20
12.1598046793
 30
0.0
 10
15.5899265381
 20
12.1590805606
 30
0.0
 10
15.5862188506
 20
12.1587262847
 30
0.0
 10
15.582510741
 20
12.1590806355
 30
0.0
 10
15.5801658302
 20
12.1598044547
 30
0.0
 10
15.5791467812
 20
12.1603139792
 30
0.0
  0
SPLINE
  5
410
100
AcDbEntity
  8
0
100
AcDbSpline
 62
9
  6
CONTINUOUS
 70
0
 71
3
 72
11
 73
7
 74
0
 42
0.0000001
 43
0.0000001
 44
0.0000000001
 40
0.0
 40
0.0
 40
0.0
 40
0.0
 40
0.2466028424
 40
0.5118887438
 40
0.770581603
 40
1.0
 40
1.0
 40
1.0
 40
1.0
 10
15.5791467812
 20
12.1603139792
 30
0.0
 10
15.5791467812
 20
12.1615207881
 30
0.0
 10
15.5795679707
 20
12.1640289639
 30
0.0
 10
15.5810702768
 20
12.1675227793
 30
0.0
 10
15.5832957856
 20
12.1705023893
 30
0.0
 10
15.5852136641
 20
12.1720076747
 30
0.0
 10
15.586217849
 20
12.1725097671
 30
0.0
  0
SPLINE
  5
411
100
AcDbEntity
  8
0
100
AcDbSpline
 62
9
  6
CONTINUOUS
 70
0
 71
3
 72
15
 73
11
 74
0
 42
0.0000001
 43
0.0000001
 44
0.0000000001
 40
0.0
 40
0.0
 40
0.0
 40
0.0
 40
0.1406290642
 40
0.2769175936
 40
0.408599764
 40
0.5356148827
 40
0.6580429798
 40
0.7760535171
 40
0.889910871
 40
1.0
 40
1.0
 40
1.0
 40
1.0
 10
14.9781105173
 20
14.1641744288
 30
0.0
 10
14.9781856209
 20
14.1962958964
 30
0.0
 10
14.9801842265
 20
14.2595619488
 30
0.0
 10
14.9889801688
 20
14.3525394095
 30
0.0
 10
15.0035159183
 20
14.4416554952
 30
0.0
 10
15.0237096391
 20
14.5264185081
 30
0.0
 10
15.0494646429
 20
14.6063955774
 30
0.0
 10
15.0806587681
 20
14.6811793974
 30
0.0
 10
15.117125533
 20
14.7503721204
 30
0.0
 10
15.1452928671
 20
14.7931921228
 30
0.0
 10
15.1601889343
 20
14.8134509424
 30
0.0
  0
SPLINE
  5
412
100
AcDbEntity
  8
0
100
AcDbSpline
 62
9
  6
CONTINUOUS
 70
0
 71
3
 72
11
 73
7
 74
0
 42
0.0000001
 43
0.0000001
 44
0.0000000001
 40
0.0
 40
0.0
 40
0.0
 40
0.0
 40
0.2294888932
 40
0.4882056407
 40
0.7534262758
 40
1.0
 40
1.0
 40
1.0
 40
1.0
 10
15.586217849
 20
12.1725097671
 30
0.0
 10
15.5872223405
 20
12.1720075214
 30
0.0
 10
15.5891401822
 20
12.1705014287
 30
0.0
 10
15.591366155
 20
12.1675220672
 30
0.0
 10
15.5928678985
 20
12.1640283285
 30
0.0
 10
15.5932889168
 20
12.1615206433
 30
0.0
 10
15.5932889168
 20
12.1603139792
 30
0.0
  0
SPLINE
  5
413
100
AcDbEntity
  8
0
100
AcDbSpline
 62
9
  6
CONTINUOUS
 70
0
 71
3
 72
11
 73
7
 74
0
 42
0.0000001
 43
0.0000001
 44
0.0000000001
 40
0.0
 40
0.0
 40
0.0
 40
0.0
 40
0.2065830902
 40
0.4355912969
 40
0.6994281886
 40
1.0
 40
1.0
 40
1.0
 40
1.0
 10
15.4229777294
 20
11.253106293
 30
0.0
 10
15.4229759035
 20
11.2527758935
 30
0.0
 10
15.4228269278
 20
11.2520742448
 30
0.0
 10
15.422207426
 20
11.2511215487
 30
0.0
 10
15.4212570926
 20
11.2502657066
 30
0.0
 10
15.4204777317
 20
11.2497997968
 30
0.0
 10
15.4200477554
 20
11.2495848087
 30
0.0
  0
SPLINE
  5
414
100
AcDbEntity
  8
0
100
AcDbSpline
 62
9
  6
CONTINUOUS
 70
0
 71
3
 72
10
 73
6
 74
0
 42
0.0000001
 43
0.0000001
 44
0.0000000001
 40
0.0
 40
0.0
 40
0.0
 40
0.0
 40
0.2349888359
 40
0.4880908463
 40
1.0
 40
1.0
 40
1.0
 40
1.0
 10
16.639806953
 20
12.6835729973
 30
0.0
 10
16.639806953
 20
12.6843675491
 30
0.0
 10
16.6396177115
 20
12.6860203734
 30
0.0
 10
16.6386661099
 20
12.6892730901
 30
0.0
 10
16.637339728
 20
12.6915673618
 30
0.0
 10
16.6362274623
 20
12.6928935681
 30
0.0
  0
SPLINE
  5
415
100
AcDbEntity
  8
0
100
AcDbSpline
 62
9
  6
CONTINUOUS
 70
0
 71
3
 72
9
 73
5
 74
0
 42
0.0000001
 43
0.0000001
 44
0.0000000001
 40
0.0
 40
0.0
 40
0.0
 40
0.0
 40
0.2655583622
 40
1.0
 40
1.0
 40
1.0
 40
1.0
 10
16.635328835
 20
12.6938657777
 30
0.0
 10
16.6351250562
 20
12.6940654714
 30
0.0
 10
16.6343335402
 20
12.6947913302
 30
0.0
 10
16.6334416555
 20
12.6954159001
 30
0.0
 10
16.6327358852
 20
12.6957687852
 30
0.0
  0
SPLINE
  5
416
100
AcDbEntity
  8
0
100
AcDbSpline
 62
9
  6
CONTINUOUS
 70
0
 71
3
 72
10
 73
6
 74
0
 42
0.0000001
 43
0.0000001
 44
0.0000000001
 40
0.0
 40
0.0
 40
0.0
 40
0.0
 40
0.532869881
 40
0.7720952765
 40
1.0
 40
1.0
 40
1.0
 40
1.0
 10
16.6327358852
 20
12.6957687852
 30
0.0
 10
16.6334705803
 20
12.6961361328
 30
0.0
 10
16.6346458379
 20
12.6965096409
 30
0.0
 10
16.6361997664
 20
12.6964412242
 30
0.0
 10
16.6368943523
 20
12.6962110254
 30
0.0
 10
16.6372085945
 20
12.69605395
 30
0.0
  0
SPLINE
  5
417
100
AcDbEntity
  8
0
100
AcDbSpline
 62
9
  6
CONTINUOUS
 70
0
 71
3
 72
10
 73
6
 74
0
 42
0.0000001
 43
0.0000001
 44
0.0000000001
 40
0.0
 40
0.0
 40
0.0
 40
0.0
 40
0.532869881
 40
0.7720952765
 40
1.0
 40
1.0
 40
1.0
 40
1.0
 10
15.4129766876
 20
11.2617805966
 30
0.0
 10
15.4137113827
 20
11.2621479442
 30
0.0
 10
15.4148866403
 20
11.2625214523
 30
0.0
 10
15.4164405688
 20
11.2624530356
 30
0.0
 10
15.4171351547
 20
11.2622228368
 30
0.0
 10
15.417449397
 20
11.2620657614
 30
0.0
  0
SPLINE
  5
418
100
AcDbEntity
  8
0
100
AcDbSpline
 62
9
  6
CONTINUOUS
 70
0
 71
3
 72
10
 73
6
 74
0
 42
0.0000001
 43
0.0000001
 44
0.0000000001
 40
0.0
 40
0.0
 40
0.0
 40
0.0
 40
0.227923689
 40
0.467190964
 40
1.0
 40
1.0
 40
1.0
 40
1.0
 10
12.626045051
 20
10.8222239502
 30
0.0
 10
12.6263591219
 20
10.8223802656
 30
0.0
 10
12.6270531185
 20
10.8226089913
 30
0.0
 10
12.6286047291
 20
10.8226756338
 30
0.0
 10
12.6297779835
 20
10.8223025751
 30
0.0
 10
12.6305115037
 20
10.8219358151
 30
0.0
  0
SPLINE
  5
419
100
AcDbEntity
  8
0
100
AcDbSpline
 62
9
  6
CONTINUOUS
 70
0
 71
3
 72
11
 73
7
 74
0
 42
0.0000001
 43
0.0000001
 44
0.0000000001
 40
0.0
 40
0.0
 40
0.0
 40
0.0
 40
0.235105078
 40
0.4999017317
 40
0.7647912646
 40
1.0
 40
1.0
 40
1.0
 40
1.0
 10
14.5503064146
 20
10.8147141382
 30
0.0
 10
14.5492878147
 20
10.8142048383
 30
0.0
 10
14.5469440358
 20
10.8134807197
 30
0.0
 10
14.5432363483
 20
10.8131264437
 30
0.0
 10
14.5395282388
 20
10.8134807945
 30
0.0
 10
14.537183328
 20
10.8142046137
 30
0.0
 10
14.536164279
 20
10.8147141382
 30
0.0
  0
SPLINE
  5
41A
100
AcDbEntity
  8
0
100
AcDbSpline
 62
9
  6
CONTINUOUS
 70
0
 71
3
 72
11
 73
7
 74
0
 42
0.0000001
 43
0.0000001
 44
0.0000000001
 40
0.0
 40
0.0
 40
0.0
 40
0.0
 40
0.2466028424
 40
0.5118887438
 40
0.770581603
 40
1.0
 40
1.0
 40
1.0
 40
1.0
 10
14.536164279
 20
10.8147141382
 30
0.0
 10
14.536164279
 20
10.8159209472
 30
0.0
 10
14.5365854684
 20
10.818429123
 30
0.0
 10
14.5380877746
 20
10.8219229383
 30
0.0
 10
14.5403132833
 20
10.8249025483
 30
0.0
 10
14.5422311619
 20
10.8264078337
 30
0.0
 10
14.5432353468
 20
10.8269099262
 30
0.0
  0
SPLINE
  5
41B
100
AcDbEntity
  8
0
100
AcDbSpline
 62
9
  6
CONTINUOUS
 70
0
 71
3
 72
11
 73
7
 74
0
 42
0.0000001
 43
0.0000001
 44
0.0000000001
 40
0.0
 40
0.0
 40
0.0
 40
0.0
 40
0.2294888932
 40
0.4882056407
 40
0.7534262758
 40
1.0
 40
1.0
 40
1.0
 40
1.0
 10
14.5432353468
 20
10.8269099262
 30
0.0
 10
14.5442398382
 20
10.8264076805
 30
0.0
 10
14.5461576799
 20
10.8249015878
 30
0.0
 10
14.5483836527
 20
10.8219222262
 30
0.0
 10
14.5498853963
 20
10.8184284875
 30
0.0
 10
14.5503064146
 20
10.8159208023
 30
0.0
 10
14.5503064146
 20
10.8147141382
 30
0.0
  0
SPLINE
  5
41C
100
AcDbEntity
  8
0
100
AcDbSpline
 62
9
  6
CONTINUOUS
 70
0
 71
3
 72
10
 73
6
 74
0
 42
0.0000001
 43
0.0000001
 44
0.0000000001
 40
0.0
 40
0.0
 40
0.0
 40
0.0
 40
0.2244074034
 40
0.4748631745
 40
1.0
 40
1.0
 40
1.0
 40
1.0
 10
15.5791467812
 20
11.6363686099
 30
0.0
 10
15.579806281
 20
11.63603886
 30
0.0
 10
15.5812809911
 20
11.6354972482
 30
0.0
 10
15.5845064544
 20
11.6348408481
 30
0.0
 10
15.5870961122
 20
11.6348435125
 30
0.0
 10
15.5888060395
 20
11.6350745147
 30
0.0
  0
SPLINE
  5
41D
100
AcDbEntity
  8
0
100
AcDbSpline
 62
9
  6
CONTINUOUS
 70
0
 71
3
 72
9
 73
5
 74
0
 42
0.0000001
 43
0.0000001
 44
0.0000000001
 40
0.0
 40
0.0
 40
0.0
 40
0.0
 40
0.527427235
 40
1.0
 40
1.0
 40
1.0
 40
1.0
 10
15.5888060395
 20
11.6350745147
 30
0.0
 10
15.5896215624
 20
11.6351846876
 30
0.0
 10
15.5911553747
 20
11.6354976337
 30
0.0
 10
15.592629417
 20
11.63603886
 30
0.0
 10
15.5932889168
 20
11.6363686099
 30
0.0
  0
SPLINE
  5
41E
100
AcDbEntity
  8
0
100
AcDbSpline
 62
9
  6
CONTINUOUS
 70
0
 71
3
 72
10
 73
6
 74
0
 42
0.0000001
 43
0.0000001
 44
0.0000000001
 40
0.0
 40
0.0
 40
0.0
 40
0.0
 40
0.2349888359
 40
0.4880908463
 40
1.0
 40
1.0
 40
1.0
 40
1.0
 10
15.4200477554
 20
11.2495848087
 30
0.0
 10
15.4200477554
 20
11.2503793605
 30
0.0
 10
15.4198585139
 20
11.2520321848
 30
0.0
 10
15.4189069123
 20
11.2552849015
 30
0.0
 10
15.4175805305
 20
11.2575791732
 30
0.0
 10
15.4164682648
 20
11.2589053795
 30
0.0
  0
SPLINE
  5
41F
100
AcDbEntity
  8
0
100
AcDbSpline
 62
9
  6
CONTINUOUS
 70
0
 71
3
 72
9
 73
5
 74
0
 42
0.0000001
 43
0.0000001
 44
0.0000000001
 40
0.0
 40
0.0
 40
0.0
 40
0.0
 40
0.2655583622
 40
1.0
 40
1.0
 40
1.0
 40
1.0
 10
15.4155696374
 20
11.2598775891
 30
0.0
 10
15.4153658586
 20
11.2600772827
 30
0.0
 10
15.4145743427
 20
11.2608031415
 30
0.0
 10
15.413682458
 20
11.2614277114
 30
0.0
 10
15.4129766876
 20
11.2617805966
 30
0.0
  0
SPLINE
  5
420
100
AcDbEntity
  8
0
100
AcDbSpline
 62
9
  6
CONTINUOUS
 70
0
 71
3
 72
11
 73
7
 74
0
 42
0.0000001
 43
0.0000001
 44
0.0000000001
 40
0.0
 40
0.0
 40
0.0
 40
0.0
 40
0.3007519832
 40
0.564549806
 40
0.7933850597
 40
1.0
 40
1.0
 40
1.0
 40
1.0
 10
13.8431996334
 20
11.161196461
 30
0.0
 10
13.8427684402
 20
11.1614120576
 30
0.0
 10
13.8419871773
 20
11.1618791545
 30
0.0
 10
13.8410350545
 20
11.1627374318
 30
0.0
 10
13.8404167866
 20
11.1636938196
 30
0.0
 10
13.8402700966
 20
11.1643974414
 30
0.0
 10
13.8402696237
 20
11.1647286332
 30
0.0
  0
SPLINE
  5
421
100
AcDbEntity
  8
0
100
AcDbSpline
 62
9
  6
CONTINUOUS
 70
0
 71
3
 72
10
 73
6
 74
0
 42
0.0000001
 43
0.0000001
 44
0.0000000001
 40
0.0
 40
0.0
 40
0.0
 40
0.0
 40
0.2238272573
 40
0.4720681214
 40
1.0
 40
1.0
 40
1.0
 40
1.0
 10
13.8502707012
 20
11.173392249
 30
0.0
 10
13.8496184578
 20
11.1730661273
 30
0.0
 10
13.8483360826
 20
11.1721877016
 30
0.0
 10
13.8460433754
 20
11.1698576436
 30
0.0
 10
13.8447579504
 20
11.1676080928
 30
0.0
 10
13.8441469768
 20
11.1660002598
 30
0.0
  0
LINE
  5
422
100
AcDbEntity
  8
0
100
AcDbLine
 62
9
  6
CONTINUOUS
 10
13.8435494179
 20
11.1640479516
 11
13.8431996334
 21
11.161196461
  0
SPLINE
  5
423
100
AcDbEntity
  8
0
100
AcDbSpline
 62
7
  6
CONTINUOUS
 70
0
 71
3
 72
10
 73
6
 74
0
 42
0.0000001
 43
0.0000001
 44
0.0000000001
 40
0.0
 40
0.0
 40
0.0
 40
0.0
 40
0.2842312942
 40
0.614909203
 40
1.0
 40
1.0
 40
1.0
 40
1.0
 10
14.7354070978
 20
11.5008165135
 30
0.0
 10
14.7339473324
 20
11.5012130941
 30
0.0
 10
14.7306220968
 20
11.5014831921
 30
0.0
 10
14.7253565169
 20
11.5004665792
 30
0.0
 10
14.7218072053
 20
11.4990264401
 30
0.0
 10
14.7199634295
 20
11.4981316009
 30
0.0
  0
SPLINE
  5
424
100
AcDbEntity
  8
0
100
AcDbSpline
 62
7
  6
CONTINUOUS
 70
0
 71
3
 72
10
 73
6
 74
0
 42
0.0000001
 43
0.0000001
 44
0.0000000001
 40
0.0
 40
0.0
 40
0.0
 40
0.0
 40
0.3723160694
 40
0.6999549039
 40
1.0
 40
1.0
 40
1.0
 40
1.0
 10
14.7441143011
 20
11.4929151524
 30
0.0
 10
14.7434225351
 20
11.4942435034
 30
0.0
 10
14.7418986979
 20
11.4966445474
 30
0.0
 10
14.7389053213
 20
11.4994061558
 30
0.0
 10
14.7365719213
 20
11.5005003617
 30
0.0
 10
14.7354070978
 20
11.5008165135
 30
0.0
  0
SPLINE
  5
425
100
AcDbEntity
  8
0
100
AcDbSpline
 62
7
  6
CONTINUOUS
 70
0
 71
3
 72
11
 73
7
 74
0
 42
0.0000001
 43
0.0000001
 44
0.0000000001
 40
0.0
 40
0.0
 40
0.0
 40
0.0
 40
0.268612448
 40
0.4688941155
 40
0.6892465203
 40
1.0
 40
1.0
 40
1.0
 40
1.0
 10
14.7212919609
 20
11.492175393
 30
0.0
 10
14.7231208671
 20
11.4931714844
 30
0.0
 10
14.7264891054
 20
11.4947006233
 30
0.0
 10
14.7323573926
 20
11.493937559
 30
0.0
 10
14.7352583988
 20
11.4883641629
 30
0.0
 10
14.7353069475
 20
11.484247906
 30
0.0
 10
14.7351855722
 20
11.4818416735
 30
0.0
  0
SPLINE
  5
426
100
AcDbEntity
  8
0
100
AcDbSpline
 62
7
  6
CONTINUOUS
 70
0
 71
3
 72
24
 73
20
 74
0
 42
0.0000001
 43
0.0000001
 44
0.0000000001
 40
0.0
 40
0.0
 40
0.0
 40
0.0
 40
0.0538719882
 40
0.1199486462
 40
0.1969353415
 40
0.284906548
 40
0.3733456655
 40
0.4535582386
 40
0.5144966559
 40
0.5616350022
 40
0.6115197697
 40
0.6604088158
 40
0.7035479027
 40
0.7396041859
 40
0.778250288
 40
0.8311967099
 40
0.8888866661
 40
0.9441284063
 40
1.0
 40
1.0
 40
1.0
 40
1.0
 10
14.6927742641
 20
11.3702678344
 30
0.0
 10
14.6952436729
 20
11.3676908203
 30
0.0
 10
14.7030624911
 20
11.3639745093
 30
0.0
 10
14.716456284
 20
11.3667832477
 30
0.0
 10
14.7292501536
 20
11.3756177433
 30
0.0
 10
14.7398280457
 20
11.3889083787
 30
0.0
 10
14.7470205807
 20
11.4045408544
 30
0.0
 10
14.7495411634
 20
11.419639683
 30
0.0
 10
14.7484255238
 20
11.4324429573
 30
0.0
 10
14.741457404
 20
11.4412606781
 30
0.0
 10
14.7316348281
 20
11.4434446752
 30
0.0
 10
14.7222962879
 20
11.4441080761
 30
0.0
 10
14.7138751123
 20
11.44389661
 30
0.0
 10
14.7058821479
 20
11.44670672
 30
0.0
 10
14.7028166868
 20
11.4553907133
 30
0.0
 10
14.7032171453
 20
11.4652492241
 30
0.0
 10
14.7061090686
 20
11.4760266905
 30
0.0
 10
14.7122779291
 20
11.4855745332
 30
0.0
 10
14.7181171249
 20
11.4902720714
 30
0.0
 10
14.7212919609
 20
11.492175393
 30
0.0
  0
SPLINE
  5
427
100
AcDbEntity
  8
0
100
AcDbSpline
 62
7
  6
CONTINUOUS
 70
0
 71
3
 72
10
 73
6
 74
0
 42
0.0000001
 43
0.0000001
 44
0.0000000001
 40
0.0
 40
0.0
 40
0.0
 40
0.0
 40
0.3315438138
 40
0.6641487203
 40
1.0
 40
1.0
 40
1.0
 40
1.0
 10
14.683916541
 20
11.3810685817
 30
0.0
 10
14.6847060996
 20
11.3797360738
 30
0.0
 10
14.6864243625
 20
11.3771447036
 30
0.0
 10
14.6893988465
 20
11.3735331012
 30
0.0
 10
14.6916125592
 20
11.3713224257
 30
0.0
 10
14.6927742641
 20
11.3702678344
 30
0.0
  0
SPLINE
  5
428
100
AcDbEntity
  8
0
100
AcDbSpline
 62
7
  6
CONTINUOUS
 70
0
 71
3
 72
10
 73
6
 74
0
 42
0.0000001
 43
0.0000001
 44
0.0000000001
 40
0.0
 40
0.0
 40
0.0
 40
0.0
 40
0.3549368502
 40
0.6880720024
 40
1.0
 40
1.0
 40
1.0
 40
1.0
 10
14.7220582491
 20
11.3668584534
 30
0.0
 10
14.721199475
 20
11.366294067
 30
0.0
 10
14.7195014538
 20
11.3652488371
 30
0.0
 10
14.7169317731
 20
11.3639099795
 30
0.0
 10
14.7152126924
 20
11.363173732
 30
0.0
 10
14.7143672228
 20
11.3628562612
 30
0.0
  0
LINE
  5
429
100
AcDbEntity
  8
0
100
AcDbLine
 62
7
  6
CONTINUOUS
 10
14.7250645551
 20
11.3690337596
 11
14.7401191122
 21
11.3088036124
  0
SPLINE
  5
42A
100
AcDbEntity
  8
0
100
AcDbSpline
 62
7
  6
CONTINUOUS
 70
0
 71
3
 72
10
 73
6
 74
0
 42
0.0000001
 43
0.0000001
 44
0.0000000001
 40
0.0
 40
0.0
 40
0.0
 40
0.0
 40
0.3350708078
 40
0.6688311739
 40
1.0
 40
1.0
 40
1.0
 40
1.0
 10
14.7309581942
 20
11.3743182307
 30
0.0
 10
14.7303405352
 20
11.373684792
 30
0.0
 10
14.7290794452
 20
11.3724475335
 30
0.0
 10
14.7271144556
 20
11.3706826054
 30
0.0
 10
14.7257544064
 20
11.3695710937
 30
0.0
 10
14.7250645551
 20
11.3690337596
 30
0.0
  0
LINE
  5
42B
100
AcDbEntity
  8
0
100
AcDbLine
 62
7
  6
CONTINUOUS
 10
14.7582746421
 20
11.4027136869
 11
14.7565610476
 21
11.3932152562
  0
LINE
  5
42C
100
AcDbEntity
  8
0
100
AcDbLine
 62
7
  6
CONTINUOUS
 10
14.7521903904
 20
11.4233336243
 11
14.7520765345
 21
11.4186362543
  0
SPLINE
  5
42D
100
AcDbEntity
  8
0
100
AcDbSpline
 62
7
  6
CONTINUOUS
 70
0
 71
3
 72
10
 73
6
 74
0
 42
0.0000001
 43
0.0000001
 44
0.0000000001
 40
0.0
 40
0.0
 40
0.0
 40
0.0
 40
0.3104762272
 40
0.6459220474
 40
1.0
 40
1.0
 40
1.0
 40
1.0
 10
14.6969600713
 20
11.3820756356
 30
0.0
 10
14.6965458848
 20
11.3833208685
 30
0.0
 10
14.6958140789
 20
11.3859571281
 30
0.0
 10
14.6950863074
 20
11.3901238429
 30
0.0
 10
14.6946881524
 20
11.3930114903
 30
0.0
 10
14.6945204859
 20
11.394498672
 30
0.0
  0
SPLINE
  5
42E
100
AcDbEntity
  8
0
100
AcDbSpline
 62
7
  6
CONTINUOUS
 70
0
 71
3
 72
11
 73
7
 74
0
 42
0.0000001
 43
0.0000001
 44
0.0000000001
 40
0.0
 40
0.0
 40
0.0
 40
0.0
 40
0.263026112
 40
0.5157855832
 40
0.7594124604
 40
1.0
 40
1.0
 40
1.0
 40
1.0
 10
14.7176888711
 20
11.3756130963
 30
0.0
 10
14.7158017503
 20
11.3745353086
 30
0.0
 10
14.7116927259
 20
11.3730031434
 30
0.0
 10
14.7052338717
 20
11.3734471673
 30
0.0
 10
14.6997428546
 20
11.3766044287
 30
0.0
 10
14.697609873
 20
11.3801970259
 30
0.0
 10
14.6969600713
 20
11.3820756356
 30
0.0
  0
SPLINE
  5
42F
100
AcDbEntity
  8
0
100
AcDbSpline
 62
7
  6
CONTINUOUS
 70
0
 71
3
 72
11
 73
7
 74
0
 42
0.0000001
 43
0.0000001
 44
0.0000000001
 40
0.0
 40
0.0
 40
0.0
 40
0.0
 40
0.2531437679
 40
0.4976866275
 40
0.7456957074
 40
1.0
 40
1.0
 40
1.0
 40
1.0
 10
14.7358520766
 20
11.4112537581
 30
0.0
 10
14.7359139013
 20
11.4077226752
 30
0.0
 10
14.7353122341
 20
11.4007547864
 30
0.0
 10
14.7322251028
 20
11.3906922589
 30
0.0
 10
14.7261688992
 20
11.3820160694
 30
0.0
 10
14.7206847
 20
11.377513622
 30
0.0
 10
14.7176888711
 20
11.3756130963
 30
0.0
  0
SPLINE
  5
430
100
AcDbEntity
  8
0
100
AcDbSpline
 62
7
  6
CONTINUOUS
 70
0
 71
3
 72
13
 73
9
 74
0
 42
0.0000001
 43
0.0000001
 44
0.0000000001
 40
0.0
 40
0.0
 40
0.0
 40
0.0
 40
0.208797214
 40
0.4011925865
 40
0.5682668395
 40
0.7139257564
 40
0.8480792237
 40
1.0
 40
1.0
 40
1.0
 40
1.0
 10
14.7009066475
 20
11.4270487081
 30
0.0
 10
14.7037347193
 20
11.4261563593
 30
0.0
 10
14.709308901
 20
11.4246508829
 30
0.0
 10
14.7174418358
 20
11.4250742042
 30
0.0
 10
14.7245274121
 20
11.4239798894
 30
0.0
 10
14.730775138
 20
11.4223278366
 30
0.0
 10
14.7353671575
 20
11.4176791764
 30
0.0
 10
14.7358891836
 20
11.4134111462
 30
0.0
 10
14.7358520766
 20
11.4112537581
 30
0.0
  0
SPLINE
  5
431
100
AcDbEntity
  8
0
100
AcDbSpline
 62
7
  6
CONTINUOUS
 70
0
 71
3
 72
13
 73
9
 74
0
 42
0.0000001
 43
0.0000001
 44
0.0000000001
 40
0.0
 40
0.0
 40
0.0
 40
0.0
 40
0.1738078103
 40
0.3598715418
 40
0.5459547925
 40
0.7254467845
 40
0.8812422471
 40
1.0
 40
1.0
 40
1.0
 40
1.0
 10
14.7199634295
 20
11.4981316009
 30
0.0
 10
14.7156489136
 20
11.4958401312
 30
0.0
 10
14.7074330946
 20
11.4896436645
 30
0.0
 10
14.6981602812
 20
11.4771899328
 30
0.0
 10
14.6922923951
 20
11.4626659917
 30
0.0
 10
14.6903675403
 20
11.4479455111
 30
0.0
 10
14.6928314976
 20
11.4351206493
 30
0.0
 10
14.6979980162
 20
11.4286863454
 30
0.0
 10
14.7009066475
 20
11.4270487081
 30
0.0
  0
SPLINE
  5
432
100
AcDbEntity
  8
0
100
AcDbSpline
 62
7
  6
CONTINUOUS
 70
0
 71
3
 72
11
 73
7
 74
0
 42
0.0000001
 43
0.0000001
 44
0.0000000001
 40
0.0
 40
0.0
 40
0.0
 40
0.0
 40
0.2401763275
 40
0.4689662818
 40
0.7164006963
 40
1.0
 40
1.0
 40
1.0
 40
1.0
 10
14.7394794727
 20
11.4151532461
 30
0.0
 10
14.7393314585
 20
11.4174406726
 30
0.0
 10
14.7382466132
 20
11.4219799607
 30
0.0
 10
14.7332564726
 20
11.4271165141
 30
0.0
 10
14.7262142883
 20
11.4294189782
 30
0.0
 10
14.721143821
 20
11.429883969
 30
0.0
 10
14.7184372494
 20
11.4298656886
 30
0.0
  0
SPLINE
  5
433
100
AcDbEntity
  8
0
100
AcDbSpline
 62
7
  6
CONTINUOUS
 70
0
 71
3
 72
12
 73
8
 74
0
 42
0.0000001
 43
0.0000001
 44
0.0000000001
 40
0.0
 40
0.0
 40
0.0
 40
0.0
 40
0.224464005
 40
0.4229706288
 40
0.6082133188
 40
0.7964139761
 40
1.0
 40
1.0
 40
1.0
 40
1.0
 10
14.7218330959
 20
11.4339893954
 30
0.0
 10
14.7240393968
 20
11.4338268232
 30
0.0
 10
14.7282051469
 20
11.4331372406
 30
0.0
 10
14.7336619993
 20
11.4304698397
 30
0.0
 10
14.7378511156
 20
11.4265229786
 30
0.0
 10
14.740112309
 20
11.4210910837
 30
0.0
 10
14.7398785994
 20
11.4171196613
 30
0.0
 10
14.7394794727
 20
11.4151532461
 30
0.0
  0
SPLINE
  5
434
100
AcDbEntity
  8
0
100
AcDbSpline
 62
7
  6
CONTINUOUS
 70
0
 71
3
 72
11
 73
7
 74
0
 42
0.0000001
 43
0.0000001
 44
0.0000000001
 40
0.0
 40
0.0
 40
0.0
 40
0.0
 40
0.2207888878
 40
0.4514525399
 40
0.7124278558
 40
1.0
 40
1.0
 40
1.0
 40
1.0
 10
14.6956417741
 20
11.4434081235
 30
0.0
 10
14.6965248473
 20
11.4414261467
 30
0.0
 10
14.6992827719
 20
11.4376541773
 30
0.0
 10
14.7059834742
 20
11.4349167222
 30
0.0
 10
14.7136159178
 20
11.434184168
 30
0.0
 10
14.7190071942
 20
11.4339545022
 30
0.0
 10
14.7218330959
 20
11.4339893954
 30
0.0
  0
SPLINE
  5
435
100
AcDbEntity
  8
0
100
AcDbSpline
 62
7
  6
CONTINUOUS
 70
0
 71
3
 72
10
 73
6
 74
0
 42
0.0000001
 43
0.0000001
 44
0.0000000001
 40
0.0
 40
0.0
 40
0.0
 40
0.0
 40
0.3727198832
 40
0.6885054122
 40
1.0
 40
1.0
 40
1.0
 40
1.0
 10
14.7184372494
 20
11.4298656886
 30
0.0
 10
14.714844054
 20
11.4295185861
 30
0.0
 10
14.7079930205
 20
11.429675822
 30
0.0
 10
14.6990781515
 20
11.4346367093
 30
0.0
 10
14.696316219
 20
11.4404675436
 30
0.0
 10
14.6956417741
 20
11.4434081235
 30
0.0
  0
LINE
  5
436
100
AcDbEntity
  8
0
100
AcDbLine
 62
7
  6
CONTINUOUS
 10
14.6778450821
 20
11.3790328563
 11
14.6997776836
 21
11.2883994463
  0
LINE
  5
437
100
AcDbEntity
  8
0
100
AcDbLine
 62
7
  6
CONTINUOUS
 10
14.674368641
 20
11.3772734841
 11
14.6778450821
 21
11.3790328563
  0
LINE
  5
438
100
AcDbEntity
  8
0
100
AcDbLine
 62
7
  6
CONTINUOUS
 10
14.6772681272
 20
11.3662656752
 11
14.674368641
 21
11.3772734841
  0
SPLINE
  5
439
100
AcDbEntity
  8
0
100
AcDbSpline
 62
7
  6
CONTINUOUS
 70
0
 71
3
 72
10
 73
6
 74
0
 42
0.0000001
 43
0.0000001
 44
0.0000000001
 40
0.0
 40
0.0
 40
0.0
 40
0.0
 40
0.3426625169
 40
0.6771205021
 40
1.0
 40
1.0
 40
1.0
 40
1.0
 10
14.6981286928
 20
11.2799995184
 30
0.0
 10
14.6957495305
 20
11.2898540803
 30
0.0
 10
14.6910465819
 20
11.309327117
 30
0.0
 10
14.6845135445
 20
11.3381833411
 30
0.0
 10
14.6797034874
 20
11.3570289244
 30
0.0
 10
14.6772681272
 20
11.3662656752
 30
0.0
  0
ENDSEC
  0
SECTION
  2
OBJECTS
  0
DICTIONARY
  5
C
100
AcDbDictionary
280
0
281
1
  3
ACAD_GROUP
350
D
  3
ACAD_MLINESTYLE
350
17
  3
ACAD_LAYOUT
350
1A
  3
ACAD_PLOTSETTINGS
350
19
  3
ACAD_PLOTSTYLENAME
350
E
  0
DICTIONARY
  5
D
102
{ACAD_REACTORS
330
C
102
}
100
AcDbDictionary
280
0
281
1
  0
ACDBDICTIONARYWDFLT
  5
E
102
{ACAD_REACTORS
330
C
102
}
100
AcDbDictionary
281
1
  3
Normal
350
F
100
AcDbDictionaryWithDefault
340
F
  0
DICTIONARY
  5
17
102
{ACAD_REACTORS
330
C
102
}
100
AcDbDictionary
280
0
281
1
  3
Standard
350
18
  0
DICTIONARY
  5
19
102
{ACAD_REACTORS
330
C
102
}
100
AcDbDictionary
281
1
  0
DICTIONARY
  5
1A
102
{ACAD_REACTORS
330
C
102
}
100
AcDbDictionary
281
1
  3
Model
350
43A
  3
Layout1
350
43B
  0
ACDBPLACEHOLDER
  5
F
102
{ACAD_REACTORS
330
E
102
}
  0
MLINESTYLE
  5
18
102
{ACAD_REACTORS
330
17
102
}
100
AcDbMlineStyle
  2
STANDARD
 70
0
  3

 62
256
 51
90.0
 52
90.0
 71
2
 49
0.5
 62
256
  6
BYLAYER
 49
-0.5
 62
256
  6
BYLAYER
  0
LAYOUT
  5
43A
102
{ACAD_REACTORS
330
1A
102
}
100
AcDbPlotSettings
  1

  2
none_device
  4
ANSI_C_(22.00_x_17.00_Inches)
  6

 40
0.0
 41
0.0
 42
0.0
 43
0.0
 44
558.8
 45
431.8
 46
0.0
 47
0.0
 48
0.0
 49
0.0
140
0.0
141
0.0
142
1.0
143
1.0
 70
1024
 72
0
 73
0
 74
0
  7

 75
0
147
1.0
148
0.0
149
0.0
100
AcDbLayout
  1
Model
 70
0
 71
0
 10
0.0
 20
0.0
 11
22.0
 21
17.0
 12
0.0
 22
0.0
 32
0.0
 14
0.0
 24
0.0
 34
0.0
 15
0.0
 25
0.0
 35
0.0
146
0.0
 13
0.0
 23
0.0
 33
0.0
 16
1.0
 26
0.0
 36
0.0
 17
0.0
 27
1.0
 37
0.0
 76
0
330
210
345
0
346
0
  0
LAYOUT
  5
43B
102
{ACAD_REACTORS
330
1A
102
}
100
AcDbPlotSettings
  1

  2
none_device
  4
ANSI_C_(22.00_x_17.00_Inches)
  6

 40
0.0
 41
0.0
 42
0.0
 43
0.0
 44
558.8
 45
431.8
 46
0.0
 47
0.0
 48
0.0
 49
0.0
140
0.0
141
0.0
142
1.0
143
1.0
 70
0
 72
0
 73
0
 74
0
  7

 75
0
147
1.0
148
0.0
149
0.0
100
AcDbLayout
  1
Layout1
 70
0
 71
1
 10
0.0
 20
0.0
 11
22.0
 21
17.0
 12
0.0
 22
0.0
 32
0.0
 14
0.0
 24
0.0
 34
0.0
 15
0.0
 25
0.0
 35
0.0
146
0.0
 13
0.0
 23
0.0
 33
0.0
 16
1.0
 26
0.0
 36
0.0
 17
0.0
 27
1.0
 37
0.0
 76
0
330
211
345
0
346
0
  0
ENDSEC
  0
EOF
